  0
SECTION
  2
HEADER
  9
$LIMMIN
 10
-117.578247
 20
151.375153
  9
$LIMMAX
 10
45.369198
 20
310.994995
  9
$EXTMIN
 10
-117.578247
 20
151.375153
  9
$EXTMAX
 10
45.369198
 20
310.994995
  0
ENDSEC
  0
SECTION
  2
TABLES
  0
TABLE
  2
LTYPE
 70
     3
  0
LTYPE
  2
CONTINUOUS
 70
    64
  3
Ausgezogene Linie
 72
    65
 73
     0
 40
0.0
  0
LTYPE
  2
DASHED
 70
    64
  3
__ __ __ __ __ __ __ __ __ __ __ __ __ __ __
 72
    65
 73
     2
 40
0.75
 49
0.5
 49
-0.25
  0
LTYPE
  2
DASHDOT
 70
    64
  3
__ . __ . __ . __ . __ . __ . __ . __ . __ . __
 72
    65
 73
     4
 40
1.0
 49
0.5
 49
-0.25
 49
0.0
 49
-0.25
  0
ENDTAB
  0
TABLE
  2
LAYER
 70
     5
  0
LAYER
  2
LC-INFO-1-1-MM-A0-0
 70
    64
 62
     7
  6
CONTINUOUS
  0
LAYER
  2
LC-001-150-----0
 70
    64
 62
     7
  6
CONTINUOUS
  0
LAYER
  2
LC-002-021-SLN-3
 70
    64
 62
     7
  6
CONTINUOUS
  0
LAYER
  2
LC-003-002-----0
 70
    64
 62
     7
  6
CONTINUOUS
  0
LAYER
  2
LC-004-006-----0
 70
    64
 62
     7
  6
CONTINUOUS
  0
ENDTAB
  0
TABLE
  2
STYLE
 70
     1
  0
STYLE
  2
TXT8
 70
    64
 40
0.0
 41
1.0
 50
0.0
 71
     0
 42
3.500000
  3
TXT8
  4

  0
ENDTAB
  0
ENDSEC
  0
SECTION
  2
BLOCKS
  0
ENDSEC
  0
SECTION
  2
ENTITIES
  0
ARC
  8
LC-001-150-----0
 62
     1
  6
CONTINUOUS
 10
-78.207573
 20
188.461349
 40
21.241455
 50
359.875823
 51
6.914630
  0
ARC
  8
LC-001-150-----0
 62
     1
  6
CONTINUOUS
 10
-68.600960
 20
189.727585
 40
11.552707
 50
6.416301
 51
17.005375
  0
ARC
  8
LC-001-150-----0
 62
     1
  6
CONTINUOUS
 10
-60.166740
 20
192.443787
 40
2.696043
 50
14.225344
 51
42.490597
  0
ARC
  8
LC-001-150-----0
 62
     1
  6
CONTINUOUS
 10
-58.548386
 20
193.887573
 40
0.528216
 50
45.584894
 51
87.544147
  0
ARC
  8
LC-001-150-----0
 62
     1
  6
CONTINUOUS
 10
-58.503117
 20
193.887573
 40
0.528216
 50
92.455858
 51
134.415104
  0
ARC
  8
LC-001-150-----0
 62
     1
  6
CONTINUOUS
 10
-56.884762
 20
192.443787
 40
2.696043
 50
137.509398
 51
165.774661
  0
ARC
  8
LC-001-150-----0
 62
     1
  6
CONTINUOUS
 10
-48.450542
 20
189.727585
 40
11.552707
 50
162.994623
 51
173.583698
  0
ARC
  8
LC-001-150-----0
 62
     1
  6
CONTINUOUS
 10
-38.843925
 20
188.461349
 40
21.241455
 50
173.085367
 51
180.124181
  0
ARC
  8
LC-001-150-----0
 62
     1
  6
CONTINUOUS
 10
-38.843925
 20
188.369278
 40
21.241455
 50
179.875819
 51
186.914633
  0
ARC
  8
LC-001-150-----0
 62
     1
  6
CONTINUOUS
 10
-48.450542
 20
187.103043
 40
11.552707
 50
186.416302
 51
197.005377
  0
ARC
  8
LC-001-150-----0
 62
     1
  6
CONTINUOUS
 10
-56.884762
 20
184.386841
 40
2.696043
 50
194.225339
 51
222.490602
  0
ARC
  8
LC-001-150-----0
 62
     1
  6
CONTINUOUS
 10
-58.503117
 20
182.943039
 40
0.528216
 50
225.584896
 51
267.544142
  0
ARC
  8
LC-001-150-----0
 62
     1
  6
CONTINUOUS
 10
-58.548386
 20
182.943039
 40
0.528216
 50
272.455853
 51
314.415106
  0
ARC
  8
LC-001-150-----0
 62
     1
  6
CONTINUOUS
 10
-60.166740
 20
184.386841
 40
2.696043
 50
317.509403
 51
345.774656
  0
ARC
  8
LC-001-150-----0
 62
     1
  6
CONTINUOUS
 10
-68.600960
 20
187.103043
 40
11.552707
 50
342.994625
 51
353.583699
  0
ARC
  8
LC-001-150-----0
 62
     1
  6
CONTINUOUS
 10
-78.207573
 20
188.369278
 40
21.241455
 50
353.085370
 51
0.124177
  0
LINE
  8
LC-001-150-----0
 62
     1
  6
CONTINUOUS
 10
-96.735291
 20
308.372101
 11
-109.853806
 21
308.372101
  0
ARC
  8
LC-001-150-----0
 62
     1
  6
CONTINUOUS
 10
-109.853806
 20
307.372101
 40
1.000000
 50
90.000003
 51
175.000006
  0
ARC
  8
LC-001-150-----0
 62
     1
  6
CONTINUOUS
 10
-84.235291
 20
286.721466
 40
25.000000
 50
13.492236
 51
60.000002
  0
ARC
  8
LC-001-150-----0
 62
     1
  6
CONTINUOUS
 10
-84.235291
 20
286.721466
 40
21.000000
 50
120.000003
 51
60.000002
  0
ARC
  8
LC-001-150-----0
 62
     1
  6
CONTINUOUS
 10
-84.235291
 20
286.721466
 40
16.000000
 50
120.000003
 51
60.000002
  0
ARC
  8
LC-001-150-----0
 62
     1
  6
CONTINUOUS
 10
-84.235291
 20
286.721466
 40
14.000000
 50
120.000003
 51
60.000002
  0
LINE
  8
LC-001-150-----0
 62
     1
  6
CONTINUOUS
 10
-89.235283
 20
295.381714
 11
-96.735291
 21
308.372101
  0
LINE
  8
LC-001-150-----0
 62
     1
  6
CONTINUOUS
 10
-79.235291
 20
295.381714
 11
-71.735298
 21
308.372101
  0
LINE
  8
LC-001-150-----0
 62
     1
  6
CONTINUOUS
 10
-96.735291
 20
202.415314
 11
-96.735291
 21
174.415314
  0
LINE
  8
LC-001-150-----0
 62
     1
  6
CONTINUOUS
 10
-71.735291
 20
202.415314
 11
-71.735291
 21
174.415314
  0
LINE
  8
LC-001-150-----0
 62
     1
  6
CONTINUOUS
 10
-114.235291
 20
194.415314
 11
-96.735291
 21
194.415314
  0
LINE
  8
LC-001-150-----0
 62
     1
  6
CONTINUOUS
 10
-71.735291
 20
194.415314
 11
-54.235298
 21
194.415314
  0
LINE
  8
LC-001-150-----0
 62
     1
  6
CONTINUOUS
 10
-89.235291
 20
210.915314
 11
-89.235291
 21
165.915314
  0
LINE
  8
LC-001-150-----0
 62
     1
  6
CONTINUOUS
 10
-79.235291
 20
210.915314
 11
-79.235291
 21
165.915314
  0
LINE
  8
LC-001-150-----0
 62
     1
  6
CONTINUOUS
 10
-92.235291
 20
210.915314
 11
-92.235291
 21
202.415314
  0
LINE
  8
LC-001-150-----0
 62
     1
  6
CONTINUOUS
 10
-92.235291
 20
202.415314
 11
-92.235291
 21
174.415314
  0
LINE
  8
LC-001-150-----0
 62
     1
  6
CONTINUOUS
 10
-76.235291
 20
210.915314
 11
-76.235291
 21
202.415314
  0
LINE
  8
LC-001-150-----0
 62
     1
  6
CONTINUOUS
 10
-76.235291
 20
202.415314
 11
-76.235291
 21
174.415314
  0
LINE
  8
LC-001-150-----0
 62
     1
  6
CONTINUOUS
 10
-76.235291
 20
174.415314
 11
-76.235291
 21
165.915314
  0
LINE
  8
LC-001-150-----0
 62
     1
  6
CONTINUOUS
 10
-114.235291
 20
182.415314
 11
-96.735291
 21
182.415314
  0
LINE
  8
LC-001-150-----0
 62
     1
  6
CONTINUOUS
 10
-92.235291
 20
174.415314
 11
-92.235291
 21
165.915314
  0
LINE
  8
LC-001-150-----0
 62
     1
  6
CONTINUOUS
 10
-71.735291
 20
182.415314
 11
-54.235298
 21
182.415314
  0
LINE
  8
LC-001-150-----0
 62
     1
  6
CONTINUOUS
 10
-104.235291
 20
202.415314
 11
-92.235291
 21
202.415314
  0
LINE
  8
LC-003-002-----0
 62
     2
  6
DASHED
 10
-92.235291
 20
202.415314
 11
-76.235291
 21
202.415314
  0
LINE
  8
LC-001-150-----0
 62
     1
  6
CONTINUOUS
 10
-76.235291
 20
202.415314
 11
-64.235291
 21
202.415314
  0
LINE
  8
LC-001-150-----0
 62
     1
  6
CONTINUOUS
 10
-104.235291
 20
174.415314
 11
-92.235291
 21
174.415314
  0
LINE
  8
LC-003-002-----0
 62
     2
  6
DASHED
 10
-92.235291
 20
174.415314
 11
-76.235291
 21
174.415314
  0
LINE
  8
LC-001-150-----0
 62
     1
  6
CONTINUOUS
 10
-76.235291
 20
174.415314
 11
-64.235291
 21
174.415314
  0
LINE
  8
LC-001-150-----0
 62
     1
  6
CONTINUOUS
 10
-114.235291
 20
268.721466
 11
-114.235291
 21
261.721466
  0
LINE
  8
LC-001-150-----0
 62
     1
  6
CONTINUOUS
 10
-114.235291
 20
261.721466
 11
-54.235298
 21
261.721466
  0
LINE
  8
LC-001-150-----0
 62
     1
  6
CONTINUOUS
 10
-113.235291
 20
269.721466
 11
-99.334961
 21
269.721466
  0
LINE
  8
LC-002-021-SLN-3
 62
     2
  6
DASHDOT
 10
-61.735294
 20
259.030548
 11
-61.735294
 21
272.117249
  0
LINE
  8
LC-002-021-SLN-3
 62
     2
  6
DASHDOT
 10
-107.585411
 20
286.721466
 11
-56.893463
 21
286.721466
  0
LINE
  8
LC-001-150-----0
 62
     1
  6
CONTINUOUS
 10
-54.235294
 20
268.721466
 11
-54.235294
 21
261.721466
  0
ARC
  8
LC-001-150-----0
 62
     1
  6
CONTINUOUS
 10
-113.235291
 20
268.721466
 40
1.000000
 50
90.000003
 51
180.000009
  0
ARC
  8
LC-001-150-----0
 62
     1
  6
CONTINUOUS
 10
-55.235294
 20
268.721466
 40
1.000000
 50
0.000000
 51
90.000003
  0
LINE
  8
LC-002-021-SLN-3
 62
     2
  6
DASHDOT
 10
-84.235291
 20
259.030548
 11
-84.235291
 21
310.994995
  0
CIRCLE
  8
LC-001-150-----0
 62
     1
  6
CONTINUOUS
 10
-84.235291
 20
286.721466
 40
10.000000
  0
LINE
  8
LC-001-150-----0
 62
     1
  6
CONTINUOUS
 10
-14.460743
 20
261.721466
 11
27.539257
 21
261.721466
  0
LINE
  8
LC-001-150-----0
 62
     1
  6
CONTINUOUS
 10
-54.262894
 20
268.954773
 11
-59.925255
 21
292.554291
  0
LINE
  8
LC-001-150-----0
 62
     1
  6
CONTINUOUS
 10
-114.231491
 20
268.808624
 11
-110.849998
 21
307.459259
  0
LINE
  8
LC-003-002-----0
 62
     2
  6
DASHED
 10
-59.485294
 20
261.721466
 11
-59.485294
 21
269.721466
  0
LINE
  8
LC-003-002-----0
 62
     2
  6
DASHED
 10
-63.985294
 20
261.721466
 11
-63.985294
 21
269.721466
  0
LINE
  8
LC-002-021-SLN-3
 62
     2
  6
DASHDOT
 10
-106.735291
 20
259.030548
 11
-106.735291
 21
272.117249
  0
LINE
  8
LC-003-002-----0
 62
     2
  6
DASHED
 10
-108.985291
 20
261.721466
 11
-108.985291
 21
269.721466
  0
LINE
  8
LC-003-002-----0
 62
     2
  6
DASHED
 10
-104.485291
 20
261.721466
 11
-104.485291
 21
269.721466
  0
ARC
  8
LC-001-150-----0
 62
     1
  6
CONTINUOUS
 10
-99.334961
 20
270.721466
 40
1.000000
 50
269.999997
 51
46.658241
  0
ARC
  8
LC-001-150-----0
 62
     1
  6
CONTINUOUS
 10
-69.135628
 20
270.721466
 40
1.000000
 50
133.341753
 51
269.999997
  0
LINE
  8
LC-001-150-----0
 62
     1
  6
CONTINUOUS
 10
-69.135628
 20
269.721466
 11
-55.235294
 21
269.721466
  0
LINE
  8
LC-001-150-----0
 62
     1
  6
CONTINUOUS
 10
27.539257
 20
261.721466
 11
27.539257
 21
268.721466
  0
LINE
  8
LC-001-150-----0
 62
     1
  6
CONTINUOUS
 10
-13.460743
 20
269.721466
 11
26.539257
 21
269.721466
  0
LINE
  8
LC-001-150-----0
 62
     1
  6
CONTINUOUS
 10
-14.460743
 20
261.721466
 11
-14.460743
 21
268.721466
  0
LINE
  8
LC-002-021-SLN-3
 62
     2
  6
DASHDOT
 10
6.539257
 20
259.030548
 11
6.539257
 21
310.994995
  0
ARC
  8
LC-001-150-----0
 62
     1
  6
CONTINUOUS
 10
-13.460743
 20
268.721466
 40
1.000000
 50
90.000003
 51
180.000009
  0
ARC
  8
LC-001-150-----0
 62
     1
  6
CONTINUOUS
 10
26.539257
 20
268.721466
 40
1.000000
 50
0.000000
 51
90.000003
  0
LINE
  8
LC-002-021-SLN-3
 62
     2
  6
DASHDOT
 10
-9.460743
 20
259.030548
 11
-9.460743
 21
272.117249
  0
LINE
  8
LC-002-021-SLN-3
 62
     2
  6
DASHDOT
 10
22.539257
 20
259.030548
 11
22.539257
 21
272.117249
  0
LINE
  8
LC-003-002-----0
 62
     2
  6
DASHED
 10
24.789257
 20
261.721466
 11
24.789257
 21
269.721466
  0
LINE
  8
LC-003-002-----0
 62
     2
  6
DASHED
 10
20.289257
 20
261.721466
 11
20.289257
 21
269.721466
  0
LINE
  8
LC-003-002-----0
 62
     2
  6
DASHED
 10
-11.710743
 20
261.721466
 11
-11.710743
 21
269.721466
  0
LINE
  8
LC-003-002-----0
 62
     2
  6
DASHED
 10
-7.210743
 20
261.721466
 11
-7.210743
 21
269.721466
  0
LINE
  8
LC-001-150-----0
 62
     1
  6
CONTINUOUS
 10
20.539257
 20
269.721466
 11
20.539257
 21
307.372101
  0
LINE
  8
LC-001-150-----0
 62
     1
  6
CONTINUOUS
 10
-7.460743
 20
269.721466
 11
-7.460743
 21
307.372101
  0
LINE
  8
LC-001-150-----0
 62
     1
  6
CONTINUOUS
 10
12.539257
 20
270.721466
 11
12.539257
 21
307.372101
  0
LINE
  8
LC-001-150-----0
 62
     1
  6
CONTINUOUS
 10
0.539257
 20
270.721466
 11
0.539257
 21
307.372101
  0
ARC
  8
LC-001-150-----0
 62
     1
  6
CONTINUOUS
 10
-6.460743
 20
307.372101
 40
1.000000
 50
90.000003
 51
180.000009
  0
ARC
  8
LC-001-150-----0
 62
     1
  6
CONTINUOUS
 10
19.539257
 20
307.372101
 40
1.000000
 50
0.000000
 51
90.000003
  0
LINE
  8
LC-001-150-----0
 62
     1
  6
CONTINUOUS
 10
-6.460743
 20
308.372101
 11
19.539257
 21
308.372101
  0
ARC
  8
LC-001-150-----0
 62
     1
  6
CONTINUOUS
 10
-0.460743
 20
270.721466
 40
1.000000
 50
269.999997
 51
0.000000
  0
ARC
  8
LC-001-150-----0
 62
     1
  6
CONTINUOUS
 10
13.539257
 20
270.721466
 40
1.000000
 50
180.000009
 51
269.999997
  0
ARC
  8
LC-001-150-----0
 62
     1
  6
CONTINUOUS
 10
1.539257
 20
307.372101
 40
1.000000
 50
90.000003
 51
180.000009
  0
ARC
  8
LC-001-150-----0
 62
     1
  6
CONTINUOUS
 10
11.539257
 20
307.372101
 40
1.000000
 50
0.000000
 51
90.000003
  0
LINE
  8
LC-001-150-----0
 62
     1
  6
CONTINUOUS
 10
-14.960743
 20
300.577881
 11
-7.460743
 21
300.577881
  0
LINE
  8
LC-001-150-----0
 62
     1
  6
CONTINUOUS
 10
-14.960743
 20
270.721466
 11
-7.460743
 21
270.721466
  0
LINE
  8
LC-001-150-----0
 62
     1
  6
CONTINUOUS
 10
29.039257
 20
271.721466
 11
29.039257
 21
299.577881
  0
LINE
  8
LC-001-150-----0
 62
     1
  6
CONTINUOUS
 10
-15.960743
 20
271.721466
 11
-15.960743
 21
299.577881
  0
ARC
  8
LC-001-150-----0
 62
     1
  6
CONTINUOUS
 10
-14.960743
 20
299.577881
 40
1.000000
 50
90.000003
 51
180.000009
  0
ARC
  8
LC-001-150-----0
 62
     1
  6
CONTINUOUS
 10
-14.960743
 20
271.721466
 40
1.000000
 50
180.000009
 51
269.999997
  0
ARC
  8
LC-001-150-----0
 62
     1
  6
CONTINUOUS
 10
28.039257
 20
271.721466
 40
1.000000
 50
269.999997
 51
0.000000
  0
ARC
  8
LC-001-150-----0
 62
     1
  6
CONTINUOUS
 10
28.039257
 20
299.577881
 40
1.000000
 50
0.000000
 51
90.000003
  0
LINE
  8
LC-003-002-----0
 62
     2
  6
DASHED
 10
-7.460743
 20
300.577881
 11
20.539257
 21
300.577881
  0
LINE
  8
LC-003-002-----0
 62
     2
  6
DASHED
 10
-7.460743
 20
270.721466
 11
20.539257
 21
270.721466
  0
LINE
  8
LC-001-150-----0
 62
     1
  6
CONTINUOUS
 10
20.539257
 20
270.721466
 11
28.039257
 21
270.721466
  0
LINE
  8
LC-001-150-----0
 62
     1
  6
CONTINUOUS
 10
20.539257
 20
300.577881
 11
28.039257
 21
300.577881
  0
LINE
  8
LC-004-006-----0
 62
     2
  6
CONTINUOUS
 10
42.192741
 20
276.721466
 11
42.630245
 21
281.977203
  0
LINE
  8
LC-004-006-----0
 62
     2
  6
CONTINUOUS
 10
42.630245
 20
281.977203
 11
41.663555
 21
289.714142
  0
LINE
  8
LC-004-006-----0
 62
     2
  6
CONTINUOUS
 10
41.663555
 20
289.714142
 11
41.773808
 21
296.721466
  0
LINE
  8
LC-004-006-----0
 62
     2
  6
CONTINUOUS
 10
-28.408449
 20
276.721466
 11
-27.970568
 21
281.739288
  0
LINE
  8
LC-004-006-----0
 62
     2
  6
CONTINUOUS
 10
-27.970568
 20
281.739288
 11
-29.259487
 21
290.308929
  0
LINE
  8
LC-004-006-----0
 62
     2
  6
CONTINUOUS
 10
-29.259487
 20
290.308929
 11
-29.172741
 21
296.721466
  0
LINE
  8
LC-002-021-SLN-3
 62
     2
  6
DASHDOT
 10
-31.837324
 20
286.721466
 11
45.369198
 21
286.721466
  0
LINE
  8
LC-001-150-----0
 62
     1
  6
CONTINUOUS
 10
-29.172741
 20
296.721466
 11
-15.960743
 21
296.721466
  0
LINE
  8
LC-003-002-----0
 62
     2
  6
DASHED
 10
-15.960743
 20
296.721466
 11
29.039257
 21
296.721466
  0
LINE
  8
LC-001-150-----0
 62
     1
  6
CONTINUOUS
 10
-28.408449
 20
276.721466
 11
-15.960744
 21
276.721466
  0
LINE
  8
LC-003-002-----0
 62
     2
  6
DASHED
 10
-15.960743
 20
276.721466
 11
29.039257
 21
276.721466
  0
LINE
  8
LC-001-150-----0
 62
     1
  6
CONTINUOUS
 10
29.039257
 20
276.721466
 11
42.192741
 21
276.721466
  0
LINE
  8
LC-001-150-----0
 62
     1
  6
CONTINUOUS
 10
29.039257
 20
296.721466
 11
41.773808
 21
296.721466
  0
LINE
  8
LC-001-150-----0
 62
     1
  6
CONTINUOUS
 10
-114.235291
 20
208.415314
 11
-114.235291
 21
168.415314
  0
LINE
  8
LC-001-150-----0
 62
     1
  6
CONTINUOUS
 10
-113.235291
 20
167.415314
 11
-100.235291
 21
167.415314
  0
LINE
  8
LC-001-150-----0
 62
     1
  6
CONTINUOUS
 10
-54.235294
 20
208.415314
 11
-54.235294
 21
168.415314
  0
LINE
  8
LC-001-150-----0
 62
     1
  6
CONTINUOUS
 10
-113.235291
 20
209.415314
 11
-100.235291
 21
209.415314
  0
ARC
  8
LC-001-150-----0
 62
     1
  6
CONTINUOUS
 10
-113.235291
 20
208.415314
 40
1.000000
 50
90.000003
 51
180.000009
  0
ARC
  8
LC-001-150-----0
 62
     1
  6
CONTINUOUS
 10
-113.235291
 20
168.415314
 40
1.000000
 50
180.000009
 51
269.999997
  0
ARC
  8
LC-001-150-----0
 62
     1
  6
CONTINUOUS
 10
-55.235294
 20
168.415314
 40
1.000000
 50
269.999997
 51
0.000000
  0
ARC
  8
LC-001-150-----0
 62
     1
  6
CONTINUOUS
 10
-55.235294
 20
208.415314
 40
1.000000
 50
0.000000
 51
90.000003
  0
LINE
  8
LC-002-021-SLN-3
 62
     2
  6
DASHDOT
 10
-117.578247
 20
188.415314
 11
-55.420879
 21
188.415314
  0
LINE
  8
LC-002-021-SLN-3
 62
     2
  6
DASHDOT
 10
-110.946487
 20
204.415314
 11
-102.839516
 21
204.415314
  0
LINE
  8
LC-002-021-SLN-3
 62
     2
  6
DASHDOT
 10
-106.735291
 20
208.229874
 11
-106.735291
 21
200.504440
  0
CIRCLE
  8
LC-001-150-----0
 62
     1
  6
CONTINUOUS
 10
-106.735291
 20
204.415314
 40
2.250000
  0
LINE
  8
LC-002-021-SLN-3
 62
     2
  6
DASHDOT
 10
-84.235291
 20
223.598206
 11
-84.235291
 21
151.375153
  0
LINE
  8
LC-002-021-SLN-3
 62
     2
  6
DASHDOT
 10
-57.524101
 20
204.415314
 11
-65.631073
 21
204.415314
  0
LINE
  8
LC-002-021-SLN-3
 62
     2
  6
DASHDOT
 10
-61.735294
 20
208.229874
 11
-61.735294
 21
200.504440
  0
CIRCLE
  8
LC-001-150-----0
 62
     1
  6
CONTINUOUS
 10
-61.735294
 20
204.415314
 40
2.250000
  0
LINE
  8
LC-002-021-SLN-3
 62
     2
  6
DASHDOT
 10
-110.946487
 20
172.415314
 11
-102.839516
 21
172.415314
  0
LINE
  8
LC-002-021-SLN-3
 62
     2
  6
DASHDOT
 10
-106.735291
 20
168.600754
 11
-106.735291
 21
176.326187
  0
CIRCLE
  8
LC-001-150-----0
 62
     1
  6
CONTINUOUS
 10
-106.735291
 20
172.415314
 40
2.250000
  0
LINE
  8
LC-002-021-SLN-3
 62
     2
  6
DASHDOT
 10
-57.524101
 20
172.415314
 11
-65.631073
 21
172.415314
  0
LINE
  8
LC-002-021-SLN-3
 62
     2
  6
DASHDOT
 10
-61.735294
 20
168.600754
 11
-61.735294
 21
176.326187
  0
CIRCLE
  8
LC-001-150-----0
 62
     1
  6
CONTINUOUS
 10
-61.735294
 20
172.415314
 40
2.250000
  0
LINE
  8
LC-003-002-----0
 62
     2
  6
DASHED
 10
-62.035294
 20
280.221466
 11
-56.966171
 21
280.221466
  0
LINE
  8
LC-001-150-----0
 62
     1
  6
CONTINUOUS
 10
-110.994408
 20
193.415314
 11
-110.994408
 21
183.415314
  0
ARC
  8
LC-001-150-----0
 62
     1
  6
CONTINUOUS
 10
-109.994408
 20
183.415314
 40
1.000000
 50
180.000009
 51
269.999997
  0
ARC
  8
LC-001-150-----0
 62
     1
  6
CONTINUOUS
 10
-109.994408
 20
193.415314
 40
1.000000
 50
90.000003
 51
180.000009
  0
LINE
  8
LC-001-150-----0
 62
     1
  6
CONTINUOUS
 10
-105.235291
 20
201.415314
 11
-105.235291
 21
195.415314
  0
LINE
  8
LC-001-150-----0
 62
     1
  6
CONTINUOUS
 10
-63.235294
 20
201.415314
 11
-63.235294
 21
195.415314
  0
ARC
  8
LC-001-150-----0
 62
     1
  6
CONTINUOUS
 10
-104.235291
 20
201.415314
 40
1.000000
 50
90.000003
 51
180.000009
  0
ARC
  8
LC-001-150-----0
 62
     1
  6
CONTINUOUS
 10
-104.235291
 20
175.415314
 40
1.000000
 50
180.000009
 51
269.999997
  0
ARC
  8
LC-001-150-----0
 62
     1
  6
CONTINUOUS
 10
-64.235291
 20
175.415314
 40
1.000000
 50
269.999997
 51
0.000000
  0
ARC
  8
LC-001-150-----0
 62
     1
  6
CONTINUOUS
 10
-64.235291
 20
201.415314
 40
1.000000
 50
0.000000
 51
90.000003
  0
LINE
  8
LC-001-150-----0
 62
     1
  6
CONTINUOUS
 10
-105.235291
 20
181.415314
 11
-105.235291
 21
175.415314
  0
LINE
  8
LC-001-150-----0
 62
     1
  6
CONTINUOUS
 10
-63.235294
 20
181.415314
 11
-63.235294
 21
175.415314
  0
LINE
  8
LC-003-002-----0
 62
     2
  6
DASHED
 10
-62.535294
 20
284.721466
 11
-68.035294
 21
284.721466
  0
LINE
  8
LC-001-150-----0
 62
     1
  6
CONTINUOUS
 10
-100.235291
 20
209.915314
 11
-100.235291
 21
202.415314
  0
LINE
  8
LC-001-150-----0
 62
     1
  6
CONTINUOUS
 10
-68.235291
 20
209.915314
 11
-68.235291
 21
202.415314
  0
LINE
  8
LC-001-150-----0
 62
     1
  6
CONTINUOUS
 10
-99.235291
 20
210.915314
 11
-69.235291
 21
210.915314
  0
LINE
  8
LC-001-150-----0
 62
     1
  6
CONTINUOUS
 10
-99.235291
 20
165.915314
 11
-69.235291
 21
165.915314
  0
ARC
  8
LC-001-150-----0
 62
     1
  6
CONTINUOUS
 10
-99.235291
 20
166.915314
 40
1.000000
 50
180.000009
 51
269.999997
  0
ARC
  8
LC-001-150-----0
 62
     1
  6
CONTINUOUS
 10
-69.235291
 20
166.915314
 40
1.000000
 50
269.999997
 51
0.000000
  0
ARC
  8
LC-001-150-----0
 62
     1
  6
CONTINUOUS
 10
-69.235291
 20
209.915314
 40
1.000000
 50
0.000000
 51
90.000003
  0
ARC
  8
LC-001-150-----0
 62
     1
  6
CONTINUOUS
 10
-99.235291
 20
209.915314
 40
1.000000
 50
90.000003
 51
180.000009
  0
LINE
  8
LC-003-002-----0
 62
     2
  6
DASHED
 10
-100.235291
 20
202.415314
 11
-100.235291
 21
174.415314
  0
LINE
  8
LC-001-150-----0
 62
     1
  6
CONTINUOUS
 10
-100.235291
 20
174.415314
 11
-100.235291
 21
166.915314
  0
LINE
  8
LC-003-002-----0
 62
     2
  6
DASHED
 10
-68.235291
 20
202.415314
 11
-68.235291
 21
174.415314
  0
LINE
  8
LC-001-150-----0
 62
     1
  6
CONTINUOUS
 10
-68.235291
 20
174.415314
 11
-68.235291
 21
166.915314
  0
LINE
  8
LC-003-002-----0
 62
     2
  6
DASHED
 10
-100.235291
 20
209.415314
 11
-68.235291
 21
209.415314
  0
LINE
  8
LC-001-150-----0
 62
     1
  6
CONTINUOUS
 10
-68.235291
 20
209.415314
 11
-55.235298
 21
209.415314
  0
LINE
  8
LC-003-002-----0
 62
     2
  6
DASHED
 10
-100.235291
 20
167.415314
 11
-68.235291
 21
167.415314
  0
LINE
  8
LC-001-150-----0
 62
     1
  6
CONTINUOUS
 10
-68.235291
 20
167.415314
 11
-55.235298
 21
167.415314
  0
LINE
  8
LC-004-006-----0
 62
     2
  6
CONTINUOUS
 10
-94.235291
 20
221.726501
 11
-89.833580
 21
220.874512
  0
LINE
  8
LC-004-006-----0
 62
     2
  6
CONTINUOUS
 10
-89.833580
 20
220.874512
 11
-79.443626
 21
222.118149
  0
LINE
  8
LC-004-006-----0
 62
     2
  6
CONTINUOUS
 10
-79.443626
 20
222.118149
 11
-74.235291
 21
221.999557
  0
LINE
  8
LC-004-006-----0
 62
     2
  6
CONTINUOUS
 10
-94.235291
 20
153.811951
 11
-89.096649
 21
154.254303
  0
LINE
  8
LC-004-006-----0
 62
     2
  6
CONTINUOUS
 10
-89.096649
 20
154.254303
 11
-79.127800
 21
153.399292
  0
LINE
  8
LC-004-006-----0
 62
     2
  6
CONTINUOUS
 10
-79.127800
 20
153.399292
 11
-74.235291
 21
154.355591
  0
LINE
  8
LC-001-150-----0
 62
     1
  6
CONTINUOUS
 10
-94.235291
 20
165.915314
 11
-94.235291
 21
153.811951
  0
LINE
  8
LC-001-150-----0
 62
     1
  6
CONTINUOUS
 10
-74.235291
 20
165.915314
 11
-74.235291
 21
154.355591
  0
LINE
  8
LC-001-150-----0
 62
     1
  6
CONTINUOUS
 10
-74.235291
 20
221.999557
 11
-74.235291
 21
210.915314
  0
LINE
  8
LC-003-002-----0
 62
     2
  6
DASHED
 10
-74.235291
 20
210.915314
 11
-74.235291
 21
165.915314
  0
LINE
  8
LC-001-150-----0
 62
     1
  6
CONTINUOUS
 10
-94.235291
 20
221.726501
 11
-94.235291
 21
210.915314
  0
LINE
  8
LC-003-002-----0
 62
     2
  6
DASHED
 10
-94.235291
 20
210.915314
 11
-94.235291
 21
165.915314
  0
LINE
  8
LC-003-002-----0
 62
     2
  6
DASHED
 10
-62.035294
 20
293.221466
 11
-60.095078
 21
293.221466
  0
LINE
  8
LC-003-002-----0
 62
     2
  6
DASHED
 10
-62.535294
 20
288.721466
 11
-68.035294
 21
288.721466
  0
LINE
  8
LC-003-002-----0
 62
     2
  6
DASHED
 10
-67.785294
 20
284.221466
 11
-62.535294
 21
284.221466
  0
LINE
  8
LC-003-002-----0
 62
     2
  6
DASHED
 10
-62.535294
 20
289.221466
 11
-67.785294
 21
289.221466
  0
LINE
  8
LC-003-002-----0
 62
     2
  6
DASHED
 10
-60.035294
 20
289.271454
 11
-60.035294
 21
284.171478
  0
ARC
  8
LC-003-002-----0
 62
     2
  6
DASHED
 10
-70.885292
 20
288.221466
 40
0.250000
 50
90.000003
 51
180.000009
  0
ARC
  8
LC-003-002-----0
 62
     2
  6
DASHED
 10
-70.885292
 20
285.221466
 40
0.250000
 50
180.000009
 51
269.999997
  0
LINE
  8
LC-003-002-----0
 62
     2
  6
DASHED
 10
-68.035294
 20
288.471466
 11
-70.885292
 21
288.471466
  0
LINE
  8
LC-003-002-----0
 62
     2
  6
DASHED
 10
-62.035294
 20
288.921478
 11
-62.535294
 21
288.921478
  0
LINE
  8
LC-003-002-----0
 62
     2
  6
DASHED
 10
-62.035294
 20
284.521454
 11
-62.535294
 21
284.521454
  0
LINE
  8
LC-003-002-----0
 62
     2
  6
DASHED
 10
-62.535294
 20
289.221466
 11
-62.535294
 21
284.221466
  0
ARC
  8
LC-003-002-----0
 62
     2
  6
DASHED
 10
-62.035294
 20
284.171478
 40
1.999103
 50
337.965286
 51
22.034714
  0
LINE
  8
LC-003-002-----0
 62
     2
  6
DASHED
 10
-68.035294
 20
284.971466
 11
-70.885292
 21
284.971466
  0
ARC
  8
LC-003-002-----0
 62
     2
  6
DASHED
 10
-62.035294
 20
289.271454
 40
1.999103
 50
337.965286
 51
22.034714
  0
ARC
  8
LC-003-002-----0
 62
     2
  6
DASHED
 10
-71.135292
 20
286.721466
 40
11.100000
 50
350.667582
 51
9.332418
  0
LINE
  8
LC-003-002-----0
 62
     2
  6
DASHED
 10
-68.035294
 20
288.971466
 11
-68.035294
 21
284.471466
  0
LINE
  8
LC-003-002-----0
 62
     2
  6
DASHED
 10
-60.182213
 20
288.521454
 11
-62.035294
 21
288.521454
  0
LINE
  8
LC-003-002-----0
 62
     2
  6
DASHED
 10
-60.182213
 20
284.921478
 11
-62.035294
 21
284.921478
  0
LINE
  8
LC-003-002-----0
 62
     2
  6
DASHED
 10
-60.182213
 20
290.021454
 11
-62.035294
 21
290.021454
  0
LINE
  8
LC-003-002-----0
 62
     2
  6
DASHED
 10
-60.182213
 20
283.421478
 11
-62.035294
 21
283.421478
  0
LINE
  8
LC-003-002-----0
 62
     2
  6
DASHED
 10
-62.035294
 20
293.221466
 11
-62.035294
 21
280.221466
  0
LINE
  8
LC-003-002-----0
 62
     2
  6
DASHED
 10
-67.785294
 20
289.221466
 11
-67.785294
 21
284.221466
  0
LINE
  8
LC-003-002-----0
 62
     2
  6
DASHED
 10
-67.785294
 20
289.221466
 11
-68.035294
 21
288.971466
  0
LINE
  8
LC-003-002-----0
 62
     2
  6
DASHED
 10
-68.035294
 20
284.471466
 11
-67.785294
 21
284.221466
  0
LINE
  8
LC-003-002-----0
 62
     2
  6
DASHED
 10
-71.135292
 20
288.221466
 11
-71.135292
 21
285.221466
  0
CIRCLE
  8
LC-003-002-----0
 62
     2
  6
DASHED
 10
6.539257
 20
286.721466
 40
6.500000
  0
LINE
  8
LC-003-002-----0
 62
     2
  6
DASHED
 10
3.679257
 20
288.372681
 11
6.539257
 21
290.023895
  0
LINE
  8
LC-003-002-----0
 62
     2
  6
DASHED
 10
6.539257
 20
283.419006
 11
9.399257
 21
285.070251
  0
LINE
  8
LC-003-002-----0
 62
     2
  6
DASHED
 10
3.679257
 20
285.070251
 11
3.679257
 21
288.372681
  0
LINE
  8
LC-003-002-----0
 62
     2
  6
DASHED
 10
9.399257
 20
285.070251
 11
9.399257
 21
288.372681
  0
LINE
  8
LC-003-002-----0
 62
     2
  6
DASHED
 10
6.539257
 20
283.419006
 11
3.679257
 21
285.070251
  0
LINE
  8
LC-003-002-----0
 62
     2
  6
DASHED
 10
9.399257
 20
288.372681
 11
6.539258
 21
290.023895
  0
CIRCLE
  8
LC-003-002-----0
 62
     2
  6
DASHED
 10
6.539257
 20
286.721466
 40
2.860000
  0
ARC
  8
LC-001-150-----0
 62
     1
  6
CONTINUOUS
 10
-106.235291
 20
195.415314
 40
1.000000
 50
269.999997
 51
0.000000
  0
ARC
  8
LC-001-150-----0
 62
     1
  6
CONTINUOUS
 10
-106.235291
 20
181.415314
 40
1.000000
 50
0.000000
 51
90.000003
  0
ARC
  8
LC-001-150-----0
 62
     1
  6
CONTINUOUS
 10
-62.235294
 20
195.415314
 40
1.000000
 50
180.000009
 51
269.999997
  0
ARC
  8
LC-001-150-----0
 62
     1
  6
CONTINUOUS
 10
-62.235294
 20
181.415314
 40
1.000000
 50
90.000003
 51
180.000009
  0
LINE
  8
LC-003-002-----0
 62
     2
  6
DASHED
 10
-62.535294
 20
186.415314
 11
-68.035294
 21
186.415314
  0
LINE
  8
LC-003-002-----0
 62
     2
  6
DASHED
 10
-62.535294
 20
190.415314
 11
-68.035294
 21
190.415314
  0
LINE
  8
LC-003-002-----0
 62
     2
  6
DASHED
 10
-67.785294
 20
185.915314
 11
-62.535294
 21
185.915314
  0
LINE
  8
LC-003-002-----0
 62
     2
  6
DASHED
 10
-62.535294
 20
190.915314
 11
-67.785294
 21
190.915314
  0
ARC
  8
LC-003-002-----0
 62
     2
  6
DASHED
 10
-70.885292
 20
189.915314
 40
0.250000
 50
90.000003
 51
180.000009
  0
ARC
  8
LC-003-002-----0
 62
     2
  6
DASHED
 10
-70.885292
 20
186.915314
 40
0.250000
 50
180.000009
 51
269.999997
  0
LINE
  8
LC-003-002-----0
 62
     2
  6
DASHED
 10
-68.035294
 20
190.165314
 11
-70.885292
 21
190.165314
  0
LINE
  8
LC-003-002-----0
 62
     2
  6
DASHED
 10
-62.035294
 20
190.615311
 11
-62.535294
 21
190.615311
  0
LINE
  8
LC-003-002-----0
 62
     2
  6
DASHED
 10
-62.035294
 20
186.215317
 11
-62.535294
 21
186.215317
  0
LINE
  8
LC-003-002-----0
 62
     2
  6
DASHED
 10
-62.535294
 20
190.915314
 11
-62.535294
 21
185.915314
  0
ARC
  8
LC-003-002-----0
 62
     2
  6
DASHED
 10
-62.035294
 20
185.865311
 40
1.999103
 50
337.965286
 51
22.034714
  0
LINE
  8
LC-003-002-----0
 62
     2
  6
DASHED
 10
-68.035294
 20
186.665314
 11
-70.885292
 21
186.665314
  0
ARC
  8
LC-003-002-----0
 62
     2
  6
DASHED
 10
-62.035294
 20
190.965317
 40
1.999103
 50
337.965286
 51
22.034714
  0
ARC
  8
LC-003-002-----0
 62
     2
  6
DASHED
 10
-71.135292
 20
188.415314
 40
11.100000
 50
350.667582
 51
9.332418
  0
LINE
  8
LC-003-002-----0
 62
     2
  6
DASHED
 10
-68.035294
 20
190.665314
 11
-68.035294
 21
186.165314
  0
LINE
  8
LC-003-002-----0
 62
     2
  6
DASHED
 10
-60.182213
 20
190.215317
 11
-62.035294
 21
190.215317
  0
LINE
  8
LC-003-002-----0
 62
     2
  6
DASHED
 10
-60.182213
 20
186.615311
 11
-62.035294
 21
186.615311
  0
LINE
  8
LC-003-002-----0
 62
     2
  6
DASHED
 10
-60.182213
 20
191.715317
 11
-62.035294
 21
191.715317
  0
LINE
  8
LC-003-002-----0
 62
     2
  6
DASHED
 10
-60.182213
 20
185.115311
 11
-62.035294
 21
185.115311
  0
LINE
  8
LC-003-002-----0
 62
     2
  6
DASHED
 10
-71.135292
 20
189.915314
 11
-71.135292
 21
186.915314
  0
LINE
  8
LC-003-002-----0
 62
     2
  6
DASHED
 10
-62.035294
 20
194.415314
 11
-62.035294
 21
182.415314
  0
LINE
  8
LC-003-002-----0
 62
     2
  6
DASHED
 10
-67.785294
 20
190.915314
 11
-67.785294
 21
185.915314
  0
LINE
  8
LC-003-002-----0
 62
     2
  6
DASHED
 10
-67.785294
 20
190.915314
 11
-68.035294
 21
190.665314
  0
LINE
  8
LC-003-002-----0
 62
     2
  6
DASHED
 10
-68.035294
 20
186.165314
 11
-67.785294
 21
185.915314
  0
LINE
  8
LC-003-002-----0
 62
     2
  6
DASHED
 10
-60.035294
 20
190.965317
 11
-60.035294
 21
185.865311
  0
ENDSEC
  0
EOF
