  0
SECTION
  2
HEADER
  9
$LIMMIN
 10
588.361084
 20
345.945435
  9
$LIMMAX
 10
948.875793
 20
685.161133
  9
$EXTMIN
 10
588.361084
 20
345.945435
  9
$EXTMAX
 10
948.875793
 20
685.161133
  0
ENDSEC
  0
SECTION
  2
TABLES
  0
TABLE
  2
LTYPE
 70
     3
  0
LTYPE
  2
CONTINUOUS
 70
    64
  3
Ausgezogene Linie
 72
    65
 73
     0
 40
0.0
  0
LTYPE
  2
DASHED
 70
    64
  3
__ __ __ __ __ __ __ __ __ __ __ __ __ __ __
 72
    65
 73
     2
 40
0.75
 49
0.5
 49
-0.25
  0
LTYPE
  2
DASHDOT
 70
    64
  3
__ . __ . __ . __ . __ . __ . __ . __ . __ . __
 72
    65
 73
     4
 40
1.0
 49
0.5
 49
-0.25
 49
0.0
 49
-0.25
  0
ENDTAB
  0
TABLE
  2
LAYER
 70
     5
  0
LAYER
  2
LC-INFO-1-1-MM-A0-0
 70
    64
 62
     7
  6
CONTINUOUS
  0
LAYER
  2
LC-001-150-----0
 70
    64
 62
     7
  6
CONTINUOUS
  0
LAYER
  2
LC-002-021-SLN-3
 70
    64
 62
     7
  6
CONTINUOUS
  0
LAYER
  2
LC-003-002-----0
 70
    64
 62
     7
  6
CONTINUOUS
  0
LAYER
  2
LC-004-006-----0
 70
    64
 62
     7
  6
CONTINUOUS
  0
ENDTAB
  0
TABLE
  2
STYLE
 70
     1
  0
STYLE
  2
TXT8
 70
    64
 40
0.0
 41
1.0
 50
0.0
 71
     0
 42
3.500000
  3
TXT8
  4

  0
ENDTAB
  0
ENDSEC
  0
SECTION
  2
BLOCKS
  0
ENDSEC
  0
SECTION
  2
ENTITIES
  0
ARC
  8
LC-001-150-----0
 62
     1
  6
CONTINUOUS
 10
720.119446
 20
428.915802
 40
25.666967
 50
359.872204
 51
7.154900
  0
ARC
  8
LC-001-150-----0
 62
     1
  6
CONTINUOUS
 10
731.662598
 20
430.490448
 40
14.018149
 50
6.645413
 51
17.570779
  0
ARC
  8
LC-001-150-----0
 62
     1
  6
CONTINUOUS
 10
741.796997
 20
433.868225
 40
3.340748
 50
14.812498
 51
43.563599
  0
ARC
  8
LC-001-150-----0
 62
     1
  6
CONTINUOUS
 10
743.741577
 20
435.663666
 40
0.695433
 50
46.789364
 51
87.758751
  0
ARC
  8
LC-001-150-----0
 62
     1
  6
CONTINUOUS
 10
743.796021
 20
435.663666
 40
0.695433
 50
92.241247
 51
133.210641
  0
ARC
  8
LC-001-150-----0
 62
     1
  6
CONTINUOUS
 10
745.740601
 20
433.868225
 40
3.340748
 50
136.436403
 51
165.187497
  0
ARC
  8
LC-001-150-----0
 62
     1
  6
CONTINUOUS
 10
755.875000
 20
430.490448
 40
14.018149
 50
162.429220
 51
173.354586
  0
ARC
  8
LC-001-150-----0
 62
     1
  6
CONTINUOUS
 10
767.418091
 20
428.915802
 40
25.666967
 50
172.845095
 51
180.127801
  0
ARC
  8
LC-001-150-----0
 62
     1
  6
CONTINUOUS
 10
767.418091
 20
428.801300
 40
25.666967
 50
179.872199
 51
187.154905
  0
ARC
  8
LC-001-150-----0
 62
     1
  6
CONTINUOUS
 10
755.875000
 20
427.226685
 40
14.018149
 50
186.645414
 51
197.570780
  0
ARC
  8
LC-001-150-----0
 62
     1
  6
CONTINUOUS
 10
745.740601
 20
423.848907
 40
3.340748
 50
194.812503
 51
223.563597
  0
ARC
  8
LC-001-150-----0
 62
     1
  6
CONTINUOUS
 10
743.796021
 20
422.053467
 40
0.695433
 50
226.789359
 51
267.758753
  0
ARC
  8
LC-001-150-----0
 62
     1
  6
CONTINUOUS
 10
743.741577
 20
422.053467
 40
0.695433
 50
272.241249
 51
313.210636
  0
ARC
  8
LC-001-150-----0
 62
     1
  6
CONTINUOUS
 10
741.796997
 20
423.848907
 40
3.340748
 50
316.436401
 51
345.187502
  0
ARC
  8
LC-001-150-----0
 62
     1
  6
CONTINUOUS
 10
731.662598
 20
427.226685
 40
14.018149
 50
342.429221
 51
353.354587
  0
ARC
  8
LC-001-150-----0
 62
     1
  6
CONTINUOUS
 10
720.119446
 20
428.801300
 40
25.666967
 50
352.845100
 51
0.127796
  0
LINE
  8
LC-001-150-----0
 62
     1
  6
CONTINUOUS
 10
706.457947
 20
505.826691
 11
706.457947
 21
491.358551
  0
LINE
  8
LC-001-150-----0
 62
     1
  6
CONTINUOUS
 10
690.077637
 20
647.861023
 11
696.887512
 21
661.226135
  0
LINE
  8
LC-001-150-----0
 62
     1
  6
CONTINUOUS
 10
662.838257
 20
647.861023
 11
656.028381
 21
661.226135
  0
LINE
  8
LC-001-150-----0
 62
     1
  6
CONTINUOUS
 10
646.948547
 20
679.046265
 11
607.961853
 21
679.046265
  0
ARC
  8
LC-001-150-----0
 62
     1
  6
CONTINUOUS
 10
607.961853
 20
676.546265
 40
2.500000
 50
90.000003
 51
175.000006
  0
LINE
  8
LC-004-006-----0
 62
     2
  6
CONTINUOUS
 10
646.457947
 20
504.614197
 11
662.534180
 21
502.788116
  0
ARC
  8
LC-001-150-----0
 62
     1
  6
CONTINUOUS
 10
676.457947
 20
621.130798
 40
65.000000
 50
15.056754
 51
62.999998
  0
LINE
  8
LC-002-021-SLN-3
 62
     2
  6
DASHDOT
 10
676.457947
 20
512.659790
 11
676.457947
 21
345.945435
  0
ARC
  8
LC-001-150-----0
 62
     1
  6
CONTINUOUS
 10
676.457947
 20
621.130798
 40
57.000000
 50
117.000007
 51
62.999998
  0
ARC
  8
LC-001-150-----0
 62
     1
  6
CONTINUOUS
 10
676.457947
 20
621.130798
 40
45.000000
 50
117.000007
 51
62.999998
  0
ARC
  8
LC-001-150-----0
 62
     1
  6
CONTINUOUS
 10
676.457947
 20
621.130798
 40
40.000000
 50
117.000007
 51
62.999998
  0
LINE
  8
LC-001-150-----0
 62
     1
  6
CONTINUOUS
 10
656.028381
 20
661.226135
 11
646.948547
 21
679.046265
  0
LINE
  8
LC-001-150-----0
 62
     1
  6
CONTINUOUS
 10
696.887512
 20
661.226135
 11
705.967346
 21
679.046265
  0
LINE
  8
LC-001-150-----0
 62
     1
  6
CONTINUOUS
 10
646.948547
 20
448.858551
 11
646.948547
 21
408.858551
  0
LINE
  8
LC-001-150-----0
 62
     1
  6
CONTINUOUS
 10
705.967346
 20
448.858551
 11
705.967346
 21
408.858551
  0
LINE
  8
LC-001-150-----0
 62
     1
  6
CONTINUOUS
 10
656.028381
 20
491.358551
 11
656.028381
 21
448.858551
  0
LINE
  8
LC-001-150-----0
 62
     1
  6
CONTINUOUS
 10
662.838257
 20
491.358551
 11
662.838257
 21
366.358551
  0
LINE
  8
LC-001-150-----0
 62
     1
  6
CONTINUOUS
 10
690.077637
 20
491.358551
 11
690.077637
 21
366.358551
  0
LINE
  8
LC-001-150-----0
 62
     1
  6
CONTINUOUS
 10
656.028381
 20
448.858551
 11
656.028381
 21
408.858551
  0
LINE
  8
LC-001-150-----0
 62
     1
  6
CONTINUOUS
 10
696.887512
 20
491.358551
 11
696.887512
 21
448.858551
  0
LINE
  8
LC-001-150-----0
 62
     1
  6
CONTINUOUS
 10
696.887512
 20
448.858551
 11
696.887512
 21
408.858551
  0
LINE
  8
LC-001-150-----0
 62
     1
  6
CONTINUOUS
 10
696.887512
 20
408.858551
 11
696.887512
 21
366.358551
  0
LINE
  8
LC-001-150-----0
 62
     1
  6
CONTINUOUS
 10
656.028381
 20
408.858551
 11
656.028381
 21
366.358551
  0
LINE
  8
LC-001-150-----0
 62
     1
  6
CONTINUOUS
 10
621.957947
 20
476.358551
 11
656.028381
 21
476.358551
  0
LINE
  8
LC-003-002-----0
 62
     2
  6
DASHED
 10
656.028381
 20
476.358551
 11
696.887512
 21
476.358551
  0
LINE
  8
LC-001-150-----0
 62
     1
  6
CONTINUOUS
 10
696.887512
 20
476.358551
 11
730.957947
 21
476.358551
  0
LINE
  8
LC-001-150-----0
 62
     1
  6
CONTINUOUS
 10
621.957947
 20
381.358551
 11
656.028381
 21
381.358551
  0
LINE
  8
LC-003-002-----0
 62
     2
  6
DASHED
 10
656.028381
 20
381.358551
 11
696.887512
 21
381.358551
  0
LINE
  8
LC-001-150-----0
 62
     1
  6
CONTINUOUS
 10
696.887512
 20
381.358551
 11
730.957947
 21
381.358551
  0
LINE
  8
LC-001-150-----0
 62
     1
  6
CONTINUOUS
 10
596.457947
 20
448.858551
 11
656.028381
 21
448.858551
  0
LINE
  8
LC-001-150-----0
 62
     1
  6
CONTINUOUS
 10
696.887512
 20
448.858551
 11
756.457947
 21
448.858551
  0
LINE
  8
LC-001-150-----0
 62
     1
  6
CONTINUOUS
 10
596.457947
 20
408.858551
 11
656.028381
 21
408.858551
  0
LINE
  8
LC-001-150-----0
 62
     1
  6
CONTINUOUS
 10
696.887512
 20
408.858551
 11
756.457947
 21
408.858551
  0
LINE
  8
LC-004-006-----0
 62
     2
  6
CONTINUOUS
 10
662.534180
 20
502.788116
 11
692.958191
 21
508.252014
  0
LINE
  8
LC-004-006-----0
 62
     2
  6
CONTINUOUS
 10
692.958191
 20
508.252014
 11
706.457947
 21
505.826691
  0
LINE
  8
LC-004-006-----0
 62
     2
  6
CONTINUOUS
 10
646.457947
 20
352.739105
 11
663.010986
 21
349.993835
  0
LINE
  8
LC-004-006-----0
 62
     2
  6
CONTINUOUS
 10
663.010986
 20
349.993835
 11
695.323853
 21
353.521515
  0
LINE
  8
LC-004-006-----0
 62
     2
  6
CONTINUOUS
 10
695.323853
 20
353.521515
 11
706.457947
 21
352.966583
  0
LINE
  8
LC-001-150-----0
 62
     1
  6
CONTINUOUS
 10
646.457947
 20
366.358551
 11
646.457947
 21
352.739105
  0
LINE
  8
LC-001-150-----0
 62
     1
  6
CONTINUOUS
 10
706.457947
 20
366.358551
 11
706.457947
 21
352.966583
  0
LINE
  8
LC-001-150-----0
 62
     1
  6
CONTINUOUS
 10
646.457947
 20
504.614197
 11
646.457947
 21
491.358551
  0
LINE
  8
LC-003-002-----0
 62
     2
  6
DASHED
 10
646.457947
 20
491.358551
 11
646.457947
 21
366.358551
  0
LINE
  8
LC-003-002-----0
 62
     2
  6
DASHED
 10
706.457947
 20
491.358551
 11
706.457947
 21
366.358551
  0
LINE
  8
LC-001-150-----0
 62
     1
  6
CONTINUOUS
 10
596.457947
 20
573.630798
 11
596.457947
 21
561.130798
  0
LINE
  8
LC-001-150-----0
 62
     1
  6
CONTINUOUS
 10
596.457947
 20
561.130798
 11
756.457947
 21
561.130798
  0
LINE
  8
LC-001-150-----0
 62
     1
  6
CONTINUOUS
 10
718.099243
 20
576.130798
 11
753.957947
 21
576.130798
  0
LINE
  8
LC-002-021-SLN-3
 62
     2
  6
DASHDOT
 10
742.457947
 20
580.661621
 11
742.457947
 21
554.639893
  0
LINE
  8
LC-002-021-SLN-3
 62
     2
  6
DASHDOT
 10
612.341797
 20
621.130798
 11
748.013550
 21
621.130798
  0
LINE
  8
LC-001-150-----0
 62
     1
  6
CONTINUOUS
 10
756.457947
 20
573.630798
 11
756.457947
 21
561.130798
  0
LINE
  8
LC-002-021-SLN-3
 62
     2
  6
DASHDOT
 10
676.457947
 20
685.161133
 11
676.457947
 21
554.639893
  0
ARC
  8
LC-001-150-----0
 62
     1
  6
CONTINUOUS
 10
598.957947
 20
573.630798
 40
2.500000
 50
90.000003
 51
180.000009
  0
ARC
  8
LC-001-150-----0
 62
     1
  6
CONTINUOUS
 10
753.957947
 20
573.630798
 40
2.500000
 50
0.000000
 51
90.000003
  0
CIRCLE
  8
LC-001-150-----0
 62
     1
  6
CONTINUOUS
 10
676.457947
 20
621.130798
 40
30.000000
  0
LINE
  8
LC-001-150-----0
 62
     1
  6
CONTINUOUS
 10
596.457947
 20
472.358551
 11
596.457947
 21
385.358551
  0
LINE
  8
LC-001-150-----0
 62
     1
  6
CONTINUOUS
 10
756.372131
 20
574.280273
 11
739.226440
 21
638.016235
  0
LINE
  8
LC-001-150-----0
 62
     1
  6
CONTINUOUS
 10
596.467468
 20
573.848694
 11
605.471375
 21
676.764160
  0
LINE
  8
LC-003-002-----0
 62
     2
  6
DASHED
 10
747.957947
 20
576.130798
 11
747.957947
 21
561.130798
  0
LINE
  8
LC-003-002-----0
 62
     2
  6
DASHED
 10
736.957947
 20
576.130798
 11
736.957947
 21
561.130798
  0
LINE
  8
LC-002-021-SLN-3
 62
     2
  6
DASHDOT
 10
610.457947
 20
580.661621
 11
610.457947
 21
554.639893
  0
LINE
  8
LC-003-002-----0
 62
     2
  6
DASHED
 10
604.957947
 20
576.130798
 11
604.957947
 21
561.130798
  0
LINE
  8
LC-003-002-----0
 62
     2
  6
DASHED
 10
615.957947
 20
576.130798
 11
615.957947
 21
561.130798
  0
ARC
  8
LC-001-150-----0
 62
     1
  6
CONTINUOUS
 10
634.816650
 20
578.630798
 40
2.500000
 50
269.999997
 51
45.584689
  0
ARC
  8
LC-001-150-----0
 62
     1
  6
CONTINUOUS
 10
718.099243
 20
578.630798
 40
2.500000
 50
134.415309
 51
269.999997
  0
LINE
  8
LC-001-150-----0
 62
     1
  6
CONTINUOUS
 10
598.957947
 20
576.130798
 11
634.816650
 21
576.130798
  0
LINE
  8
LC-001-150-----0
 62
     1
  6
CONTINUOUS
 10
815.565369
 20
561.130798
 11
907.565369
 21
561.130798
  0
LINE
  8
LC-001-150-----0
 62
     1
  6
CONTINUOUS
 10
907.565369
 20
561.130798
 11
907.565369
 21
573.630798
  0
LINE
  8
LC-001-150-----0
 62
     1
  6
CONTINUOUS
 10
818.065369
 20
576.130798
 11
905.065369
 21
576.130798
  0
LINE
  8
LC-001-150-----0
 62
     1
  6
CONTINUOUS
 10
815.565369
 20
561.130798
 11
815.565369
 21
573.630798
  0
LINE
  8
LC-002-021-SLN-3
 62
     2
  6
DASHDOT
 10
861.565369
 20
554.639893
 11
861.565369
 21
685.161133
  0
ARC
  8
LC-001-150-----0
 62
     1
  6
CONTINUOUS
 10
818.065369
 20
573.630798
 40
2.500000
 50
90.000003
 51
180.000009
  0
ARC
  8
LC-001-150-----0
 62
     1
  6
CONTINUOUS
 10
905.065369
 20
573.630798
 40
2.500000
 50
0.000000
 51
90.000003
  0
LINE
  8
LC-001-150-----0
 62
     1
  6
CONTINUOUS
 10
909.065369
 20
566.630798
 11
909.065369
 21
676.546265
  0
LINE
  8
LC-001-150-----0
 62
     1
  6
CONTINUOUS
 10
814.065369
 20
566.630798
 11
814.065369
 21
676.546265
  0
LINE
  8
LC-001-150-----0
 62
     1
  6
CONTINUOUS
 10
598.957947
 20
382.858551
 11
619.666687
 21
382.858551
  0
ARC
  8
LC-001-150-----0
 62
     1
  6
CONTINUOUS
 10
816.565369
 20
676.546265
 40
2.500000
 50
90.000003
 51
180.000009
  0
ARC
  8
LC-001-150-----0
 62
     1
  6
CONTINUOUS
 10
906.565369
 20
676.546265
 40
2.500000
 50
0.000000
 51
90.000003
  0
LINE
  8
LC-001-150-----0
 62
     1
  6
CONTINUOUS
 10
756.457947
 20
472.358551
 11
756.457947
 21
385.358551
  0
LINE
  8
LC-001-150-----0
 62
     1
  6
CONTINUOUS
 10
598.957947
 20
474.858551
 11
619.666687
 21
474.858551
  0
ARC
  8
LC-001-150-----0
 62
     1
  6
CONTINUOUS
 10
906.565369
 20
566.630798
 40
2.500000
 50
293.578179
 51
0.000000
  0
ARC
  8
LC-001-150-----0
 62
     1
  6
CONTINUOUS
 10
816.565369
 20
566.630798
 40
2.500000
 50
180.000009
 51
246.421822
  0
LINE
  8
LC-001-150-----0
 62
     1
  6
CONTINUOUS
 10
841.565369
 20
578.630798
 11
841.565369
 21
676.546265
  0
LINE
  8
LC-001-150-----0
 62
     1
  6
CONTINUOUS
 10
881.565369
 20
578.630798
 11
881.565369
 21
676.546265
  0
ARC
  8
LC-001-150-----0
 62
     1
  6
CONTINUOUS
 10
844.065369
 20
676.546265
 40
2.500000
 50
90.000003
 51
180.000009
  0
ARC
  8
LC-001-150-----0
 62
     1
  6
CONTINUOUS
 10
879.065369
 20
676.546265
 40
2.500000
 50
0.000000
 51
90.000003
  0
LINE
  8
LC-001-150-----0
 62
     1
  6
CONTINUOUS
 10
816.565369
 20
679.046265
 11
906.565369
 21
679.046265
  0
ARC
  8
LC-001-150-----0
 62
     1
  6
CONTINUOUS
 10
884.065369
 20
578.630798
 40
2.500000
 50
180.000009
 51
269.999997
  0
ARC
  8
LC-001-150-----0
 62
     1
  6
CONTINUOUS
 10
839.065369
 20
578.630798
 40
2.500000
 50
269.999997
 51
0.000000
  0
LINE
  8
LC-001-150-----0
 62
     1
  6
CONTINUOUS
 10
778.930603
 20
651.130798
 11
799.065369
 21
651.130798
  0
LINE
  8
LC-001-150-----0
 62
     1
  6
CONTINUOUS
 10
778.181824
 20
591.130798
 11
799.065369
 21
591.130798
  0
LINE
  8
LC-002-021-SLN-3
 62
     2
  6
DASHDOT
 10
829.065369
 20
580.661621
 11
829.065369
 21
554.639893
  0
LINE
  8
LC-002-021-SLN-3
 62
     2
  6
DASHDOT
 10
894.065369
 20
580.661621
 11
894.065369
 21
554.639893
  0
LINE
  8
LC-003-002-----0
 62
     2
  6
DASHED
 10
899.565369
 20
576.130798
 11
899.565369
 21
561.130798
  0
LINE
  8
LC-003-002-----0
 62
     2
  6
DASHED
 10
888.565369
 20
576.130798
 11
888.565369
 21
561.130798
  0
LINE
  8
LC-001-150-----0
 62
     1
  6
CONTINUOUS
 10
801.565369
 20
661.226135
 11
814.065369
 21
661.226135
  0
LINE
  8
LC-003-002-----0
 62
     2
  6
DASHED
 10
823.565369
 20
576.130798
 11
823.565369
 21
561.130798
  0
LINE
  8
LC-003-002-----0
 62
     2
  6
DASHED
 10
834.565369
 20
576.130798
 11
834.565369
 21
561.130798
  0
LINE
  8
LC-001-150-----0
 62
     1
  6
CONTINUOUS
 10
801.565369
 20
576.130798
 11
814.065369
 21
576.130798
  0
LINE
  8
LC-001-150-----0
 62
     1
  6
CONTINUOUS
 10
799.065369
 20
578.630798
 11
799.065369
 21
658.726135
  0
ARC
  8
LC-001-150-----0
 62
     1
  6
CONTINUOUS
 10
801.565369
 20
658.726135
 40
2.500000
 50
90.000003
 51
180.000009
  0
ARC
  8
LC-001-150-----0
 62
     1
  6
CONTINUOUS
 10
801.565369
 20
578.630798
 40
2.500000
 50
180.000009
 51
269.999997
  0
LINE
  8
LC-001-150-----0
 62
     1
  6
CONTINUOUS
 10
924.065369
 20
578.630798
 11
924.065369
 21
658.726135
  0
ARC
  8
LC-001-150-----0
 62
     1
  6
CONTINUOUS
 10
921.565369
 20
658.726135
 40
2.500000
 50
0.000000
 51
90.000003
  0
ARC
  8
LC-001-150-----0
 62
     1
  6
CONTINUOUS
 10
921.565369
 20
578.630798
 40
2.500000
 50
269.999997
 51
0.000000
  0
LINE
  8
LC-002-021-SLN-3
 62
     2
  6
DASHDOT
 10
772.624023
 20
621.130798
 11
948.875793
 21
621.130798
  0
LINE
  8
LC-003-002-----0
 62
     2
  6
DASHED
 10
814.065369
 20
661.226135
 11
909.065369
 21
661.226135
  0
LINE
  8
LC-003-002-----0
 62
     2
  6
DASHED
 10
814.065369
 20
576.130798
 11
909.065369
 21
576.130798
  0
LINE
  8
LC-001-150-----0
 62
     1
  6
CONTINUOUS
 10
909.065369
 20
576.130798
 11
921.565369
 21
576.130798
  0
LINE
  8
LC-001-150-----0
 62
     1
  6
CONTINUOUS
 10
909.065369
 20
661.226135
 11
921.565369
 21
661.226135
  0
LINE
  8
LC-004-006-----0
 62
     2
  6
CONTINUOUS
 10
941.749390
 20
591.130798
 11
943.565002
 21
607.641052
  0
LINE
  8
LC-004-006-----0
 62
     2
  6
CONTINUOUS
 10
943.565002
 20
607.641052
 11
942.500122
 21
634.394409
  0
LINE
  8
LC-004-006-----0
 62
     2
  6
CONTINUOUS
 10
942.500122
 20
634.394409
 11
942.738464
 21
651.130798
  0
LINE
  8
LC-004-006-----0
 62
     2
  6
CONTINUOUS
 10
778.181824
 20
591.130798
 11
779.532104
 21
611.310059
  0
LINE
  8
LC-004-006-----0
 62
     2
  6
CONTINUOUS
 10
779.532104
 20
611.310059
 11
777.934814
 21
635.841248
  0
LINE
  8
LC-004-006-----0
 62
     2
  6
CONTINUOUS
 10
777.934814
 20
635.841248
 11
778.930603
 21
651.130798
  0
LINE
  8
LC-001-150-----0
 62
     1
  6
CONTINUOUS
 10
924.065369
 20
591.130798
 11
941.749390
 21
591.130798
  0
LINE
  8
LC-001-150-----0
 62
     1
  6
CONTINUOUS
 10
924.065369
 20
651.130798
 11
942.738464
 21
651.130798
  0
LINE
  8
LC-003-002-----0
 62
     2
  6
DASHED
 10
799.065369
 20
651.130798
 11
924.065369
 21
651.130798
  0
LINE
  8
LC-003-002-----0
 62
     2
  6
DASHED
 10
799.065369
 20
591.130798
 11
924.065369
 21
591.130798
  0
ARC
  8
LC-001-150-----0
 62
     1
  6
CONTINUOUS
 10
598.957947
 20
472.358551
 40
2.500000
 50
90.000003
 51
180.000009
  0
ARC
  8
LC-001-150-----0
 62
     1
  6
CONTINUOUS
 10
753.957947
 20
472.358551
 40
2.500000
 50
0.000000
 51
90.000003
  0
ARC
  8
LC-001-150-----0
 62
     1
  6
CONTINUOUS
 10
753.957947
 20
385.358551
 40
2.500000
 50
269.999997
 51
0.000000
  0
ARC
  8
LC-001-150-----0
 62
     1
  6
CONTINUOUS
 10
598.957947
 20
385.358551
 40
2.500000
 50
180.000009
 51
269.999997
  0
LINE
  8
LC-002-021-SLN-3
 62
     2
  6
DASHDOT
 10
588.361084
 20
428.858551
 11
750.000427
 21
428.858551
  0
LINE
  8
LC-002-021-SLN-3
 62
     2
  6
DASHDOT
 10
610.457947
 20
470.968964
 11
610.457947
 21
450.563324
  0
LINE
  8
LC-002-021-SLN-3
 62
     2
  6
DASHDOT
 10
601.214355
 20
461.358551
 11
620.002747
 21
461.358551
  0
CIRCLE
  8
LC-001-150-----0
 62
     1
  6
CONTINUOUS
 10
610.457947
 20
461.358551
 40
5.500000
  0
LINE
  8
LC-002-021-SLN-3
 62
     2
  6
DASHDOT
 10
610.457947
 20
386.748169
 11
610.457947
 21
407.153778
  0
LINE
  8
LC-002-021-SLN-3
 62
     2
  6
DASHDOT
 10
601.214355
 20
396.358551
 11
620.002747
 21
396.358551
  0
CIRCLE
  8
LC-001-150-----0
 62
     1
  6
CONTINUOUS
 10
610.457947
 20
396.358551
 40
5.500000
  0
LINE
  8
LC-002-021-SLN-3
 62
     2
  6
DASHDOT
 10
742.457947
 20
470.968964
 11
742.457947
 21
450.563324
  0
LINE
  8
LC-002-021-SLN-3
 62
     2
  6
DASHDOT
 10
751.701538
 20
461.358551
 11
732.913147
 21
461.358551
  0
CIRCLE
  8
LC-001-150-----0
 62
     1
  6
CONTINUOUS
 10
742.457947
 20
461.358551
 40
5.500000
  0
LINE
  8
LC-002-021-SLN-3
 62
     2
  6
DASHDOT
 10
742.457947
 20
386.748169
 11
742.457947
 21
407.153778
  0
LINE
  8
LC-002-021-SLN-3
 62
     2
  6
DASHDOT
 10
751.701538
 20
396.358551
 11
732.913147
 21
396.358551
  0
CIRCLE
  8
LC-001-150-----0
 62
     1
  6
CONTINUOUS
 10
742.457947
 20
396.358551
 40
5.500000
  0
LINE
  8
LC-001-150-----0
 62
     1
  6
CONTINUOUS
 10
605.041321
 20
446.358551
 11
605.041321
 21
411.358551
  0
ARC
  8
LC-001-150-----0
 62
     1
  6
CONTINUOUS
 10
607.541321
 20
446.358551
 40
2.500000
 50
90.000003
 51
180.000009
  0
ARC
  8
LC-001-150-----0
 62
     1
  6
CONTINUOUS
 10
607.541321
 20
411.358551
 40
2.500000
 50
180.000009
 51
269.999997
  0
LINE
  8
LC-001-150-----0
 62
     1
  6
CONTINUOUS
 10
619.457947
 20
473.858551
 11
619.457947
 21
448.858551
  0
LINE
  8
LC-001-150-----0
 62
     1
  6
CONTINUOUS
 10
733.457947
 20
473.858551
 11
733.457947
 21
448.858551
  0
ARC
  8
LC-001-150-----0
 62
     1
  6
CONTINUOUS
 10
621.957947
 20
473.858551
 40
2.500000
 50
90.000003
 51
180.000009
  0
ARC
  8
LC-001-150-----0
 62
     1
  6
CONTINUOUS
 10
730.957947
 20
473.858551
 40
2.500000
 50
0.000000
 51
90.000003
  0
ARC
  8
LC-001-150-----0
 62
     1
  6
CONTINUOUS
 10
730.957947
 20
383.858551
 40
2.500000
 50
269.999997
 51
0.000000
  0
ARC
  8
LC-001-150-----0
 62
     1
  6
CONTINUOUS
 10
621.957947
 20
383.858551
 40
2.500000
 50
180.000009
 51
269.999997
  0
LINE
  8
LC-003-002-----0
 62
     2
  6
DASHED
 10
619.666687
 20
382.858551
 11
733.249207
 21
382.858551
  0
LINE
  8
LC-001-150-----0
 62
     1
  6
CONTINUOUS
 10
733.249207
 20
382.858551
 11
753.957947
 21
382.858551
  0
LINE
  8
LC-003-002-----0
 62
     2
  6
DASHED
 10
619.666687
 20
474.858551
 11
733.249207
 21
474.858551
  0
LINE
  8
LC-001-150-----0
 62
     1
  6
CONTINUOUS
 10
733.249207
 20
474.858551
 11
753.957947
 21
474.858551
  0
LINE
  8
LC-001-150-----0
 62
     1
  6
CONTINUOUS
 10
619.457947
 20
408.858551
 11
619.457947
 21
383.858551
  0
LINE
  8
LC-001-150-----0
 62
     1
  6
CONTINUOUS
 10
733.457947
 20
408.858551
 11
733.457947
 21
383.858551
  0
LINE
  8
LC-001-150-----0
 62
     1
  6
CONTINUOUS
 10
631.457947
 20
488.858551
 11
631.457947
 21
476.358551
  0
LINE
  8
LC-001-150-----0
 62
     1
  6
CONTINUOUS
 10
721.457947
 20
488.858551
 11
721.457947
 21
476.358551
  0
LINE
  8
LC-001-150-----0
 62
     1
  6
CONTINUOUS
 10
633.957947
 20
491.358551
 11
718.957947
 21
491.358551
  0
LINE
  8
LC-001-150-----0
 62
     1
  6
CONTINUOUS
 10
633.957947
 20
366.358551
 11
718.957947
 21
366.358551
  0
ARC
  8
LC-001-150-----0
 62
     1
  6
CONTINUOUS
 10
633.957947
 20
488.858551
 40
2.500000
 50
90.000003
 51
180.000009
  0
ARC
  8
LC-001-150-----0
 62
     1
  6
CONTINUOUS
 10
718.957947
 20
488.858551
 40
2.500000
 50
0.000000
 51
90.000003
  0
ARC
  8
LC-001-150-----0
 62
     1
  6
CONTINUOUS
 10
718.957947
 20
368.858551
 40
2.500000
 50
269.999997
 51
0.000000
  0
ARC
  8
LC-001-150-----0
 62
     1
  6
CONTINUOUS
 10
633.957947
 20
368.858551
 40
2.500000
 50
180.000009
 51
269.999997
  0
LINE
  8
LC-001-150-----0
 62
     1
  6
CONTINUOUS
 10
631.457947
 20
381.358551
 11
631.457947
 21
368.858551
  0
LINE
  8
LC-001-150-----0
 62
     1
  6
CONTINUOUS
 10
721.457947
 20
381.358551
 11
721.457947
 21
368.858551
  0
LINE
  8
LC-003-002-----0
 62
     2
  6
DASHED
 10
721.457947
 20
476.358551
 11
721.457947
 21
381.358551
  0
LINE
  8
LC-003-002-----0
 62
     2
  6
DASHED
 10
631.457947
 20
476.358551
 11
631.457947
 21
381.358551
  0
LINE
  8
LC-003-002-----0
 62
     2
  6
DASHED
 10
722.207947
 20
618.130798
 11
729.457947
 21
618.130798
  0
LINE
  8
LC-003-002-----0
 62
     2
  6
DASHED
 10
722.207947
 20
624.130798
 11
729.457947
 21
624.130798
  0
LINE
  8
LC-003-002-----0
 62
     2
  6
DASHED
 10
729.457947
 20
618.630798
 11
721.957947
 21
618.630798
  0
LINE
  8
LC-003-002-----0
 62
     2
  6
DASHED
 10
729.457947
 20
623.630798
 11
721.957947
 21
623.630798
  0
LINE
  8
LC-003-002-----0
 62
     2
  6
DASHED
 10
732.457947
 20
617.930847
 11
732.457947
 21
624.202209
  0
LINE
  8
LC-003-002-----0
 62
     2
  6
DASHED
 10
729.957947
 20
613.630798
 11
729.957947
 21
628.630798
  0
LINE
  8
LC-003-002-----0
 62
     2
  6
DASHED
 10
717.657959
 20
619.130798
 11
717.657959
 21
623.130798
  0
LINE
  8
LC-003-002-----0
 62
     2
  6
DASHED
 10
732.245239
 20
617.230835
 11
729.957947
 21
617.230835
  0
LINE
  8
LC-003-002-----0
 62
     2
  6
DASHED
 10
732.245239
 20
625.030823
 11
729.957947
 21
625.030823
  0
LINE
  8
LC-003-002-----0
 62
     2
  6
DASHED
 10
721.957947
 20
618.380798
 11
721.957947
 21
623.880798
  0
LINE
  8
LC-003-002-----0
 62
     2
  6
DASHED
 10
721.957947
 20
618.380798
 11
722.207947
 21
618.130798
  0
LINE
  8
LC-003-002-----0
 62
     2
  6
DASHED
 10
721.957947
 20
623.880798
 11
722.207947
 21
624.130798
  0
LINE
  8
LC-003-002-----0
 62
     2
  6
DASHED
 10
722.207947
 20
618.130798
 11
722.207947
 21
624.130798
  0
LINE
  8
LC-003-002-----0
 62
     2
  6
DASHED
 10
721.957947
 20
618.880798
 11
717.907959
 21
618.880798
  0
LINE
  8
LC-003-002-----0
 62
     2
  6
DASHED
 10
721.957947
 20
623.380798
 11
717.907959
 21
623.380798
  0
ARC
  8
LC-003-002-----0
 62
     2
  6
DASHED
 10
717.907959
 20
619.130798
 40
0.250000
 50
180.000009
 51
269.999997
  0
ARC
  8
LC-003-002-----0
 62
     2
  6
DASHED
 10
717.907959
 20
623.130798
 40
0.250000
 50
90.000003
 51
180.000009
  0
LINE
  8
LC-003-002-----0
 62
     2
  6
DASHED
 10
729.457947
 20
618.130798
 11
729.457947
 21
624.130798
  0
LINE
  8
LC-003-002-----0
 62
     2
  6
DASHED
 10
729.457947
 20
618.880798
 11
729.957947
 21
618.880798
  0
LINE
  8
LC-003-002-----0
 62
     2
  6
DASHED
 10
729.457947
 20
623.380798
 11
729.957947
 21
623.380798
  0
LINE
  8
LC-003-002-----0
 62
     2
  6
DASHED
 10
729.957947
 20
618.630798
 11
732.245239
 21
618.630798
  0
LINE
  8
LC-003-002-----0
 62
     2
  6
DASHED
 10
729.957947
 20
623.630798
 11
732.245239
 21
623.630798
  0
ARC
  8
LC-003-002-----0
 62
     2
  6
DASHED
 10
717.657959
 20
621.130798
 40
14.800000
 50
350.275031
 51
9.724969
  0
ARC
  8
LC-003-002-----0
 62
     2
  6
DASHED
 10
731.238525
 20
624.330811
 40
1.226194
 50
325.188944
 51
34.811056
  0
ARC
  8
LC-003-002-----0
 62
     2
  6
DASHED
 10
731.238525
 20
617.930847
 40
1.226194
 50
325.188944
 51
34.811056
  0
LINE
  8
LC-003-002-----0
 62
     2
  6
DASHED
 10
745.786377
 20
613.630798
 11
729.957947
 21
613.630798
  0
LINE
  8
LC-003-002-----0
 62
     2
  6
DASHED
 10
741.751221
 20
628.630798
 11
729.957947
 21
628.630798
  0
CIRCLE
  8
LC-003-002-----0
 62
     2
  6
DASHED
 10
861.565369
 20
621.130798
 40
7.500000
  0
LINE
  8
LC-003-002-----0
 62
     2
  6
DASHED
 10
858.240356
 20
619.211121
 11
861.565369
 21
617.291443
  0
LINE
  8
LC-003-002-----0
 62
     2
  6
DASHED
 10
861.565369
 20
624.970215
 11
864.890320
 21
623.050537
  0
LINE
  8
LC-003-002-----0
 62
     2
  6
DASHED
 10
858.240356
 20
623.050537
 11
858.240356
 21
619.211121
  0
LINE
  8
LC-003-002-----0
 62
     2
  6
DASHED
 10
864.890320
 20
623.050537
 11
864.890320
 21
619.211121
  0
LINE
  8
LC-003-002-----0
 62
     2
  6
DASHED
 10
861.565369
 20
624.970215
 11
858.240356
 21
623.050537
  0
LINE
  8
LC-003-002-----0
 62
     2
  6
DASHED
 10
864.890320
 20
619.211121
 11
861.565369
 21
617.291443
  0
CIRCLE
  8
LC-003-002-----0
 62
     2
  6
DASHED
 10
861.565369
 20
621.130798
 40
3.325000
  0
LINE
  8
LC-003-002-----0
 62
     2
  6
DASHED
 10
722.207947
 20
425.858551
 11
729.457947
 21
425.858551
  0
LINE
  8
LC-003-002-----0
 62
     2
  6
DASHED
 10
722.207947
 20
431.858551
 11
729.457947
 21
431.858551
  0
LINE
  8
LC-003-002-----0
 62
     2
  6
DASHED
 10
729.457947
 20
426.358551
 11
721.957947
 21
426.358551
  0
LINE
  8
LC-003-002-----0
 62
     2
  6
DASHED
 10
729.457947
 20
431.358551
 11
721.957947
 21
431.358551
  0
LINE
  8
LC-003-002-----0
 62
     2
  6
DASHED
 10
732.457947
 20
425.658569
 11
732.457947
 21
431.929932
  0
LINE
  8
LC-003-002-----0
 62
     2
  6
DASHED
 10
729.957947
 20
421.358551
 11
729.957947
 21
436.358551
  0
LINE
  8
LC-003-002-----0
 62
     2
  6
DASHED
 10
717.657959
 20
426.858551
 11
717.657959
 21
430.858551
  0
LINE
  8
LC-003-002-----0
 62
     2
  6
DASHED
 10
732.245239
 20
424.958557
 11
729.957947
 21
424.958557
  0
LINE
  8
LC-003-002-----0
 62
     2
  6
DASHED
 10
732.245239
 20
432.758545
 11
729.957947
 21
432.758545
  0
LINE
  8
LC-003-002-----0
 62
     2
  6
DASHED
 10
721.957947
 20
426.108551
 11
721.957947
 21
431.608551
  0
LINE
  8
LC-003-002-----0
 62
     2
  6
DASHED
 10
721.957947
 20
426.108551
 11
722.207947
 21
425.858551
  0
LINE
  8
LC-003-002-----0
 62
     2
  6
DASHED
 10
721.957947
 20
431.608551
 11
722.207947
 21
431.858551
  0
LINE
  8
LC-003-002-----0
 62
     2
  6
DASHED
 10
722.207947
 20
425.858551
 11
722.207947
 21
431.858551
  0
LINE
  8
LC-003-002-----0
 62
     2
  6
DASHED
 10
721.957947
 20
426.608551
 11
717.907959
 21
426.608551
  0
LINE
  8
LC-003-002-----0
 62
     2
  6
DASHED
 10
721.957947
 20
431.108551
 11
717.907959
 21
431.108551
  0
ARC
  8
LC-003-002-----0
 62
     2
  6
DASHED
 10
717.907959
 20
426.858551
 40
0.250000
 50
180.000009
 51
269.999997
  0
ARC
  8
LC-003-002-----0
 62
     2
  6
DASHED
 10
717.907959
 20
430.858551
 40
0.250000
 50
90.000003
 51
180.000009
  0
LINE
  8
LC-003-002-----0
 62
     2
  6
DASHED
 10
729.457947
 20
425.858551
 11
729.457947
 21
431.858551
  0
LINE
  8
LC-003-002-----0
 62
     2
  6
DASHED
 10
729.457947
 20
426.608551
 11
729.957947
 21
426.608551
  0
LINE
  8
LC-003-002-----0
 62
     2
  6
DASHED
 10
729.457947
 20
431.108551
 11
729.957947
 21
431.108551
  0
LINE
  8
LC-003-002-----0
 62
     2
  6
DASHED
 10
729.957947
 20
426.358551
 11
732.245239
 21
426.358551
  0
LINE
  8
LC-003-002-----0
 62
     2
  6
DASHED
 10
729.957947
 20
431.358551
 11
732.245239
 21
431.358551
  0
ARC
  8
LC-003-002-----0
 62
     2
  6
DASHED
 10
717.657959
 20
428.858551
 40
14.800000
 50
350.275031
 51
9.724969
  0
ARC
  8
LC-003-002-----0
 62
     2
  6
DASHED
 10
731.238525
 20
432.058563
 40
1.226194
 50
325.188944
 51
34.811056
  0
ARC
  8
LC-003-002-----0
 62
     2
  6
DASHED
 10
731.238525
 20
425.658569
 40
1.226194
 50
325.188944
 51
34.811056
  0
LINE
  8
LC-003-002-----0
 62
     2
  6
DASHED
 10
743.768799
 20
421.358551
 11
729.957947
 21
421.358551
  0
LINE
  8
LC-003-002-----0
 62
     2
  6
DASHED
 10
743.768799
 20
436.358551
 11
729.957947
 21
436.358551
  0
ENDSEC
  0
EOF
