  0
SECTION
  2
HEADER
  9
$LIMMIN
 10
551.744385
 20
-107.595390
  9
$LIMMAX
 10
985.856323
 20
308.053284
  9
$EXTMIN
 10
551.744385
 20
-107.595390
  9
$EXTMAX
 10
985.856323
 20
308.053284
  0
ENDSEC
  0
SECTION
  2
TABLES
  0
TABLE
  2
LTYPE
 70
     3
  0
LTYPE
  2
CONTINUOUS
 70
    64
  3
Ausgezogene Linie
 72
    65
 73
     0
 40
0.0
  0
LTYPE
  2
DASHED
 70
    64
  3
__ __ __ __ __ __ __ __ __ __ __ __ __ __ __
 72
    65
 73
     2
 40
0.75
 49
0.5
 49
-0.25
  0
LTYPE
  2
DASHDOT
 70
    64
  3
__ . __ . __ . __ . __ . __ . __ . __ . __ . __
 72
    65
 73
     4
 40
1.0
 49
0.5
 49
-0.25
 49
0.0
 49
-0.25
  0
ENDTAB
  0
TABLE
  2
LAYER
 70
     5
  0
LAYER
  2
LC-INFO-1-1-MM-A0-0
 70
    64
 62
     7
  6
CONTINUOUS
  0
LAYER
  2
LC-001-150-----0
 70
    64
 62
     7
  6
CONTINUOUS
  0
LAYER
  2
LC-002-021-SLN-3
 70
    64
 62
     7
  6
CONTINUOUS
  0
LAYER
  2
LC-003-002-----0
 70
    64
 62
     7
  6
CONTINUOUS
  0
LAYER
  2
LC-004-006-----0
 70
    64
 62
     7
  6
CONTINUOUS
  0
ENDTAB
  0
TABLE
  2
STYLE
 70
     1
  0
STYLE
  2
TXT8
 70
    64
 40
0.0
 41
1.0
 50
0.0
 71
     0
 42
3.500000
  3
TXT8
  4

  0
ENDTAB
  0
ENDSEC
  0
SECTION
  2
BLOCKS
  0
ENDSEC
  0
SECTION
  2
ENTITIES
  0
ARC
  8
LC-001-150-----0
 62
     1
  6
CONTINUOUS
 10
703.353760
 20
-5.569241
 40
47.973297
 50
0.000000
 51
3.030726
  0
ARC
  8
LC-001-150-----0
 62
     1
  6
CONTINUOUS
 10
718.420898
 20
-4.708958
 40
32.881844
 50
2.921892
 51
6.867656
  0
ARC
  8
LC-001-150-----0
 62
     1
  6
CONTINUOUS
 10
737.322754
 20
-2.343334
 40
13.832981
 50
6.501377
 51
13.548166
  0
ARC
  8
LC-001-150-----0
 62
     1
  6
CONTINUOUS
 10
748.364624
 20
0.436018
 40
2.450016
 50
10.850303
 51
33.494759
  0
ARC
  8
LC-001-150-----0
 62
     1
  6
CONTINUOUS
 10
750.107666
 20
1.546904
 40
0.384985
 50
38.790198
 51
58.027532
  0
ARC
  8
LC-001-150-----0
 62
     1
  6
CONTINUOUS
 10
750.211487
 20
1.712603
 40
0.189450
 50
58.127191
 51
89.069212
  0
ARC
  8
LC-001-150-----0
 62
     1
  6
CONTINUOUS
 10
750.217651
 20
1.712603
 40
0.189450
 50
90.930787
 51
121.872800
  0
ARC
  8
LC-001-150-----0
 62
     1
  6
CONTINUOUS
 10
750.321472
 20
1.546904
 40
0.384985
 50
121.972466
 51
141.209803
  0
ARC
  8
LC-001-150-----0
 62
     1
  6
CONTINUOUS
 10
752.064575
 20
0.436018
 40
2.450016
 50
146.505235
 51
169.149703
  0
ARC
  8
LC-001-150-----0
 62
     1
  6
CONTINUOUS
 10
763.106384
 20
-2.343334
 40
13.832981
 50
166.451833
 51
173.498621
  0
ARC
  8
LC-001-150-----0
 62
     1
  6
CONTINUOUS
 10
782.008301
 20
-4.708958
 40
32.881844
 50
173.132345
 51
177.078105
  0
ARC
  8
LC-001-150-----0
 62
     1
  6
CONTINUOUS
 10
797.075378
 20
-5.569241
 40
47.973297
 50
176.969272
 51
180.034310
  0
ARC
  8
LC-001-150-----0
 62
     1
  6
CONTINUOUS
 10
797.075378
 20
-5.626704
 40
47.973297
 50
179.965690
 51
183.030728
  0
ARC
  8
LC-001-150-----0
 62
     1
  6
CONTINUOUS
 10
782.008301
 20
-6.486987
 40
32.881844
 50
182.921895
 51
186.867655
  0
ARC
  8
LC-001-150-----0
 62
     1
  6
CONTINUOUS
 10
763.106384
 20
-8.852611
 40
13.832981
 50
186.501379
 51
193.548167
  0
ARC
  8
LC-001-150-----0
 62
     1
  6
CONTINUOUS
 10
752.064575
 20
-11.631963
 40
2.450016
 50
190.850297
 51
213.494765
  0
ARC
  8
LC-001-150-----0
 62
     1
  6
CONTINUOUS
 10
750.321472
 20
-12.742849
 40
0.384985
 50
218.790197
 51
238.027534
  0
ARC
  8
LC-001-150-----0
 62
     1
  6
CONTINUOUS
 10
750.217651
 20
-12.908548
 40
0.189450
 50
238.127200
 51
269.069213
  0
ARC
  8
LC-001-150-----0
 62
     1
  6
CONTINUOUS
 10
750.211487
 20
-12.908548
 40
0.189450
 50
270.930788
 51
301.872809
  0
ARC
  8
LC-001-150-----0
 62
     1
  6
CONTINUOUS
 10
750.107666
 20
-12.742849
 40
0.384985
 50
301.972468
 51
321.209802
  0
ARC
  8
LC-001-150-----0
 62
     1
  6
CONTINUOUS
 10
748.364624
 20
-11.631963
 40
2.450016
 50
326.505241
 51
349.149697
  0
ARC
  8
LC-001-150-----0
 62
     1
  6
CONTINUOUS
 10
737.322754
 20
-8.852611
 40
13.832981
 50
346.451834
 51
353.498623
  0
ARC
  8
LC-001-150-----0
 62
     1
  6
CONTINUOUS
 10
718.420898
 20
-6.486987
 40
32.881844
 50
353.132344
 51
357.078108
  0
ARC
  8
LC-001-150-----0
 62
     1
  6
CONTINUOUS
 10
703.353760
 20
-5.626704
 40
47.973297
 50
356.969274
 51
0.000000
  0
LINE
  8
LC-001-150-----0
 62
     1
  6
CONTINUOUS
 10
677.389526
 20
258.395782
 11
686.469299
 21
276.215912
  0
LINE
  8
LC-001-150-----0
 62
     1
  6
CONTINUOUS
 10
641.070251
 20
258.395782
 11
631.990479
 21
276.215912
  0
LINE
  8
LC-001-150-----0
 62
     1
  6
CONTINUOUS
 10
618.370728
 20
302.946136
 11
574.320007
 21
302.946136
  0
ARC
  8
LC-001-150-----0
 62
     1
  6
CONTINUOUS
 10
659.229858
 20
222.755539
 40
90.000000
 50
8.437164
 51
62.999998
  0
ARC
  8
LC-001-150-----0
 62
     1
  6
CONTINUOUS
 10
659.229858
 20
222.755539
 40
75.000000
 50
117.000007
 51
62.999998
  0
ARC
  8
LC-001-150-----0
 62
     1
  6
CONTINUOUS
 10
659.229858
 20
222.755539
 40
60.000000
 50
117.000007
 51
62.999998
  0
ARC
  8
LC-001-150-----0
 62
     1
  6
CONTINUOUS
 10
659.229858
 20
222.755539
 40
55.000000
 50
117.000007
 51
62.999998
  0
ARC
  8
LC-001-150-----0
 62
     1
  6
CONTINUOUS
 10
574.320007
 20
299.946136
 40
3.000000
 50
90.000003
 51
175.000006
  0
LINE
  8
LC-001-150-----0
 62
     1
  6
CONTINUOUS
 10
631.990479
 20
276.215912
 11
618.370728
 21
302.946136
  0
LINE
  8
LC-001-150-----0
 62
     1
  6
CONTINUOUS
 10
686.469299
 20
276.215912
 11
700.089050
 21
302.946136
  0
LINE
  8
LC-001-150-----0
 62
     1
  6
CONTINUOUS
 10
618.370728
 20
24.402027
 11
618.370728
 21
-35.597973
  0
LINE
  8
LC-001-150-----0
 62
     1
  6
CONTINUOUS
 10
700.089050
 20
24.402027
 11
700.089050
 21
-35.597973
  0
LINE
  8
LC-001-150-----0
 62
     1
  6
CONTINUOUS
 10
631.990479
 20
76.902031
 11
631.990479
 21
24.402023
  0
LINE
  8
LC-001-150-----0
 62
     1
  6
CONTINUOUS
 10
686.469299
 20
76.902031
 11
686.469299
 21
24.402023
  0
LINE
  8
LC-001-150-----0
 62
     1
  6
CONTINUOUS
 10
641.070251
 20
76.902031
 11
641.070251
 21
-88.097969
  0
LINE
  8
LC-001-150-----0
 62
     1
  6
CONTINUOUS
 10
677.389526
 20
76.902031
 11
677.389526
 21
-88.097969
  0
LINE
  8
LC-001-150-----0
 62
     1
  6
CONTINUOUS
 10
631.990479
 20
24.402027
 11
631.990479
 21
-35.597973
  0
LINE
  8
LC-001-150-----0
 62
     1
  6
CONTINUOUS
 10
686.469299
 20
24.402027
 11
686.469299
 21
-35.597973
  0
LINE
  8
LC-001-150-----0
 62
     1
  6
CONTINUOUS
 10
631.990479
 20
-35.597973
 11
631.990479
 21
-88.097969
  0
LINE
  8
LC-001-150-----0
 62
     1
  6
CONTINUOUS
 10
686.469299
 20
-35.597973
 11
686.469299
 21
-88.097969
  0
LINE
  8
LC-001-150-----0
 62
     1
  6
CONTINUOUS
 10
559.229858
 20
24.402027
 11
631.990479
 21
24.402027
  0
LINE
  8
LC-001-150-----0
 62
     1
  6
CONTINUOUS
 10
686.469299
 20
24.402027
 11
759.229858
 21
24.402027
  0
LINE
  8
LC-001-150-----0
 62
     1
  6
CONTINUOUS
 10
559.229858
 20
-35.597973
 11
631.990479
 21
-35.597973
  0
LINE
  8
LC-001-150-----0
 62
     1
  6
CONTINUOUS
 10
686.469299
 20
-35.597973
 11
759.229858
 21
-35.597973
  0
LINE
  8
LC-001-150-----0
 62
     1
  6
CONTINUOUS
 10
587.229858
 20
56.902027
 11
631.990479
 21
56.902027
  0
LINE
  8
LC-003-002-----0
 62
     2
  6
DASHED
 10
631.990479
 20
56.902027
 11
686.469299
 21
56.902027
  0
LINE
  8
LC-001-150-----0
 62
     1
  6
CONTINUOUS
 10
686.469299
 20
56.902027
 11
731.229858
 21
56.902027
  0
LINE
  8
LC-001-150-----0
 62
     1
  6
CONTINUOUS
 10
587.229858
 20
-68.097969
 11
631.990479
 21
-68.097969
  0
LINE
  8
LC-003-002-----0
 62
     2
  6
DASHED
 10
631.990479
 20
-68.097969
 11
686.469299
 21
-68.097969
  0
LINE
  8
LC-001-150-----0
 62
     1
  6
CONTINUOUS
 10
686.469299
 20
-68.097969
 11
731.229858
 21
-68.097969
  0
LINE
  8
LC-003-002-----0
 62
     2
  6
DASHED
 10
719.979858
 20
219.755539
 11
727.229858
 21
219.755539
  0
LINE
  8
LC-003-002-----0
 62
     2
  6
DASHED
 10
719.979858
 20
225.755539
 11
727.229858
 21
225.755539
  0
LINE
  8
LC-003-002-----0
 62
     2
  6
DASHED
 10
727.229858
 20
220.255539
 11
719.729858
 21
220.255539
  0
LINE
  8
LC-001-150-----0
 62
     1
  6
CONTINUOUS
 10
559.229858
 20
161.755539
 11
559.229858
 21
142.755539
  0
LINE
  8
LC-001-150-----0
 62
     1
  6
CONTINUOUS
 10
559.229858
 20
142.755539
 11
759.229858
 21
142.755539
  0
LINE
  8
LC-001-150-----0
 62
     1
  6
CONTINUOUS
 10
562.229858
 20
164.755539
 11
603.921631
 21
164.755539
  0
LINE
  8
LC-001-150-----0
 62
     1
  6
CONTINUOUS
 10
759.229858
 20
161.755539
 11
759.229858
 21
142.755539
  0
ARC
  8
LC-001-150-----0
 62
     1
  6
CONTINUOUS
 10
562.229858
 20
161.755539
 40
3.000000
 50
90.000003
 51
180.000009
  0
ARC
  8
LC-001-150-----0
 62
     1
  6
CONTINUOUS
 10
756.229858
 20
161.755539
 40
3.000000
 50
0.000000
 51
90.000003
  0
LINE
  8
LC-002-021-SLN-3
 62
     2
  6
DASHDOT
 10
659.229858
 20
136.362152
 11
659.229858
 21
308.053284
  0
LINE
  8
LC-002-021-SLN-3
 62
     2
  6
DASHDOT
 10
578.673401
 20
222.755539
 11
754.828918
 21
222.755539
  0
CIRCLE
  8
LC-001-150-----0
 62
     1
  6
CONTINUOUS
 10
659.229858
 20
222.755539
 40
40.000000
  0
LINE
  8
LC-001-150-----0
 62
     1
  6
CONTINUOUS
 10
759.197388
 20
162.195709
 11
748.255859
 21
235.960754
  0
LINE
  8
LC-001-150-----0
 62
     1
  6
CONTINUOUS
 10
559.241272
 20
162.016998
 11
571.331421
 21
300.207581
  0
LINE
  8
LC-002-021-SLN-3
 62
     2
  6
DASHDOT
 10
744.229858
 20
136.362152
 11
744.229858
 21
171.322464
  0
LINE
  8
LC-003-002-----0
 62
     2
  6
DASHED
 10
750.729858
 20
142.755539
 11
750.729858
 21
164.755539
  0
LINE
  8
LC-003-002-----0
 62
     2
  6
DASHED
 10
737.729858
 20
142.755539
 11
737.729858
 21
164.755539
  0
LINE
  8
LC-002-021-SLN-3
 62
     2
  6
DASHDOT
 10
574.229858
 20
136.362152
 11
574.229858
 21
171.322464
  0
LINE
  8
LC-003-002-----0
 62
     2
  6
DASHED
 10
567.729858
 20
142.755539
 11
567.729858
 21
164.755539
  0
LINE
  8
LC-003-002-----0
 62
     2
  6
DASHED
 10
580.729858
 20
142.755539
 11
580.729858
 21
164.755539
  0
LINE
  8
LC-001-150-----0
 62
     1
  6
CONTINUOUS
 10
825.313599
 20
142.755539
 11
947.313599
 21
142.755539
  0
LINE
  8
LC-001-150-----0
 62
     1
  6
CONTINUOUS
 10
947.313599
 20
142.755539
 11
947.313599
 21
161.755539
  0
LINE
  8
LC-001-150-----0
 62
     1
  6
CONTINUOUS
 10
714.538086
 20
164.755539
 11
756.229858
 21
164.755539
  0
ARC
  8
LC-001-150-----0
 62
     1
  6
CONTINUOUS
 10
603.921631
 20
167.755539
 40
3.000000
 50
269.999997
 51
44.839902
  0
ARC
  8
LC-001-150-----0
 62
     1
  6
CONTINUOUS
 10
714.538086
 20
167.755539
 40
3.000000
 50
135.160100
 51
269.999997
  0
LINE
  8
LC-001-150-----0
 62
     1
  6
CONTINUOUS
 10
828.313599
 20
164.755539
 11
944.313599
 21
164.755539
  0
LINE
  8
LC-001-150-----0
 62
     1
  6
CONTINUOUS
 10
825.313599
 20
142.755539
 11
825.313599
 21
161.755539
  0
ARC
  8
LC-001-150-----0
 62
     1
  6
CONTINUOUS
 10
828.313599
 20
161.755539
 40
3.000000
 50
90.000003
 51
180.000009
  0
ARC
  8
LC-001-150-----0
 62
     1
  6
CONTINUOUS
 10
944.313599
 20
161.755539
 40
3.000000
 50
0.000000
 51
90.000003
  0
LINE
  8
LC-002-021-SLN-3
 62
     2
  6
DASHDOT
 10
886.313599
 20
136.362152
 11
886.313599
 21
308.053284
  0
LINE
  8
LC-001-150-----0
 62
     1
  6
CONTINUOUS
 10
948.813599
 20
150.755539
 11
948.813599
 21
299.946136
  0
LINE
  8
LC-001-150-----0
 62
     1
  6
CONTINUOUS
 10
823.813599
 20
150.755539
 11
823.813599
 21
299.946136
  0
ARC
  8
LC-001-150-----0
 62
     1
  6
CONTINUOUS
 10
826.813599
 20
150.755539
 40
3.000000
 50
180.000009
 51
239.999997
  0
ARC
  8
LC-001-150-----0
 62
     1
  6
CONTINUOUS
 10
945.813599
 20
299.946136
 40
3.000000
 50
0.000000
 51
90.000003
  0
ARC
  8
LC-001-150-----0
 62
     1
  6
CONTINUOUS
 10
826.813599
 20
299.946136
 40
3.000000
 50
90.000003
 51
180.000009
  0
LINE
  8
LC-001-150-----0
 62
     1
  6
CONTINUOUS
 10
826.813599
 20
302.946136
 11
945.813599
 21
302.946136
  0
ARC
  8
LC-001-150-----0
 62
     1
  6
CONTINUOUS
 10
913.313599
 20
299.946136
 40
3.000000
 50
0.000000
 51
90.000003
  0
ARC
  8
LC-001-150-----0
 62
     1
  6
CONTINUOUS
 10
945.813599
 20
150.755539
 40
3.000000
 50
299.999998
 51
0.000000
  0
LINE
  8
LC-001-150-----0
 62
     1
  6
CONTINUOUS
 10
916.313599
 20
167.755539
 11
916.313599
 21
299.946136
  0
LINE
  8
LC-001-150-----0
 62
     1
  6
CONTINUOUS
 10
856.313599
 20
167.755539
 11
856.313599
 21
299.946136
  0
ARC
  8
LC-001-150-----0
 62
     1
  6
CONTINUOUS
 10
919.313599
 20
167.755539
 40
3.000000
 50
180.000009
 51
269.999997
  0
ARC
  8
LC-001-150-----0
 62
     1
  6
CONTINUOUS
 10
853.313599
 20
167.755539
 40
3.000000
 50
269.999997
 51
0.000000
  0
ARC
  8
LC-001-150-----0
 62
     1
  6
CONTINUOUS
 10
859.313599
 20
299.946136
 40
3.000000
 50
90.000003
 51
180.000009
  0
LINE
  8
LC-002-021-SLN-3
 62
     2
  6
DASHDOT
 10
931.313599
 20
136.362152
 11
931.313599
 21
171.322464
  0
LINE
  8
LC-002-021-SLN-3
 62
     2
  6
DASHDOT
 10
841.313599
 20
136.362152
 11
841.313599
 21
171.322464
  0
LINE
  8
LC-003-002-----0
 62
     2
  6
DASHED
 10
834.813599
 20
142.755539
 11
834.813599
 21
164.755539
  0
LINE
  8
LC-003-002-----0
 62
     2
  6
DASHED
 10
847.813599
 20
142.755539
 11
847.813599
 21
164.755539
  0
LINE
  8
LC-003-002-----0
 62
     2
  6
DASHED
 10
937.813599
 20
142.755539
 11
937.813599
 21
164.755539
  0
LINE
  8
LC-003-002-----0
 62
     2
  6
DASHED
 10
924.813599
 20
142.755539
 11
924.813599
 21
164.755539
  0
LINE
  8
LC-001-150-----0
 62
     1
  6
CONTINUOUS
 10
806.813599
 20
276.215912
 11
823.813599
 21
276.215912
  0
LINE
  8
LC-001-150-----0
 62
     1
  6
CONTINUOUS
 10
806.813599
 20
162.755539
 11
823.813599
 21
162.755539
  0
LINE
  8
LC-001-150-----0
 62
     1
  6
CONTINUOUS
 10
968.813599
 20
165.755539
 11
968.813599
 21
273.215912
  0
LINE
  8
LC-001-150-----0
 62
     1
  6
CONTINUOUS
 10
803.813599
 20
165.755539
 11
803.813599
 21
273.215912
  0
ARC
  8
LC-001-150-----0
 62
     1
  6
CONTINUOUS
 10
806.813599
 20
273.215912
 40
3.000000
 50
90.000003
 51
180.000009
  0
ARC
  8
LC-001-150-----0
 62
     1
  6
CONTINUOUS
 10
806.813599
 20
165.755539
 40
3.000000
 50
180.000009
 51
269.999997
  0
ARC
  8
LC-001-150-----0
 62
     1
  6
CONTINUOUS
 10
965.813599
 20
273.215912
 40
3.000000
 50
0.000000
 51
90.000003
  0
ARC
  8
LC-001-150-----0
 62
     1
  6
CONTINUOUS
 10
965.813599
 20
165.755539
 40
3.000000
 50
269.999997
 51
0.000000
  0
LINE
  8
LC-001-150-----0
 62
     1
  6
CONTINUOUS
 10
948.813599
 20
276.215912
 11
965.813599
 21
276.215912
  0
LINE
  8
LC-001-150-----0
 62
     1
  6
CONTINUOUS
 10
948.813599
 20
162.755539
 11
965.813599
 21
162.755539
  0
LINE
  8
LC-003-002-----0
 62
     2
  6
DASHED
 10
823.813599
 20
162.755539
 11
948.813599
 21
162.755539
  0
LINE
  8
LC-003-002-----0
 62
     2
  6
DASHED
 10
823.813599
 20
276.215912
 11
948.813599
 21
276.215912
  0
LINE
  8
LC-002-021-SLN-3
 62
     2
  6
DASHDOT
 10
782.218811
 20
222.755539
 11
985.856323
 21
222.755539
  0
LINE
  8
LC-001-150-----0
 62
     1
  6
CONTINUOUS
 10
790.374878
 20
262.755524
 11
803.813599
 21
262.755524
  0
LINE
  8
LC-001-150-----0
 62
     1
  6
CONTINUOUS
 10
788.614807
 20
182.755539
 11
803.813599
 21
182.755539
  0
LINE
  8
LC-004-006-----0
 62
     2
  6
CONTINUOUS
 10
980.219177
 20
262.755524
 11
979.104980
 21
244.453583
  0
LINE
  8
LC-004-006-----0
 62
     2
  6
CONTINUOUS
 10
979.104980
 20
244.453568
 11
982.558472
 21
214.301987
  0
LINE
  8
LC-004-006-----0
 62
     2
  6
CONTINUOUS
 10
982.558472
 20
214.301987
 11
980.792358
 21
182.755539
  0
LINE
  8
LC-004-006-----0
 62
     2
  6
CONTINUOUS
 10
790.374878
 20
262.755524
 11
786.950012
 21
240.399796
  0
LINE
  8
LC-004-006-----0
 62
     2
  6
CONTINUOUS
 10
786.950012
 20
240.399780
 11
789.031677
 21
196.263809
  0
LINE
  8
LC-004-006-----0
 62
     2
  6
CONTINUOUS
 10
789.031677
 20
196.263809
 11
788.614807
 21
182.755539
  0
LINE
  8
LC-001-150-----0
 62
     1
  6
CONTINUOUS
 10
968.813599
 20
262.755524
 11
980.219177
 21
262.755524
  0
LINE
  8
LC-001-150-----0
 62
     1
  6
CONTINUOUS
 10
968.813599
 20
182.755539
 11
980.792358
 21
182.755539
  0
LINE
  8
LC-003-002-----0
 62
     2
  6
DASHED
 10
803.813599
 20
182.755539
 11
968.813599
 21
182.755539
  0
LINE
  8
LC-003-002-----0
 62
     2
  6
DASHED
 10
803.813599
 20
262.755524
 11
968.813599
 21
262.755524
  0
LINE
  8
LC-001-150-----0
 62
     1
  6
CONTINUOUS
 10
559.229858
 20
-63.597973
 11
559.229858
 21
52.402027
  0
LINE
  8
LC-001-150-----0
 62
     1
  6
CONTINUOUS
 10
562.229858
 20
55.402027
 11
584.631836
 21
55.402027
  0
LINE
  8
LC-001-150-----0
 62
     1
  6
CONTINUOUS
 10
759.229858
 20
-63.597973
 11
759.229858
 21
52.402027
  0
LINE
  8
LC-001-150-----0
 62
     1
  6
CONTINUOUS
 10
562.229858
 20
-66.597969
 11
584.631836
 21
-66.597969
  0
ARC
  8
LC-001-150-----0
 62
     1
  6
CONTINUOUS
 10
756.229858
 20
-63.597973
 40
3.000000
 50
269.999997
 51
0.000000
  0
ARC
  8
LC-001-150-----0
 62
     1
  6
CONTINUOUS
 10
562.229858
 20
-63.597973
 40
3.000000
 50
180.000009
 51
269.999997
  0
ARC
  8
LC-001-150-----0
 62
     1
  6
CONTINUOUS
 10
562.229858
 20
52.402027
 40
3.000000
 50
90.000003
 51
180.000009
  0
ARC
  8
LC-001-150-----0
 62
     1
  6
CONTINUOUS
 10
756.229858
 20
52.402027
 40
3.000000
 50
0.000000
 51
90.000003
  0
LINE
  8
LC-002-021-SLN-3
 62
     2
  6
DASHDOT
 10
551.744385
 20
-5.597972
 11
755.197998
 21
-5.597972
  0
LINE
  8
LC-002-021-SLN-3
 62
     2
  6
DASHDOT
 10
564.104553
 20
-50.597973
 11
584.485657
 21
-50.597973
  0
LINE
  8
LC-002-021-SLN-3
 62
     2
  6
DASHDOT
 10
574.229858
 20
-60.600632
 11
574.229858
 21
-41.289539
  0
CIRCLE
  8
LC-001-150-----0
 62
     1
  6
CONTINUOUS
 10
574.229858
 20
-50.597973
 40
6.500000
  0
LINE
  8
LC-002-021-SLN-3
 62
     2
  6
DASHDOT
 10
564.104553
 20
39.402027
 11
584.485657
 21
39.402027
  0
LINE
  8
LC-002-021-SLN-3
 62
     2
  6
DASHDOT
 10
574.229858
 20
49.404686
 11
574.229858
 21
30.093594
  0
CIRCLE
  8
LC-001-150-----0
 62
     1
  6
CONTINUOUS
 10
574.229858
 20
39.402027
 40
6.500000
  0
LINE
  8
LC-002-021-SLN-3
 62
     2
  6
DASHDOT
 10
754.355225
 20
-50.597973
 11
733.974121
 21
-50.597973
  0
LINE
  8
LC-002-021-SLN-3
 62
     2
  6
DASHDOT
 10
744.229858
 20
-60.600632
 11
744.229858
 21
-41.289539
  0
CIRCLE
  8
LC-001-150-----0
 62
     1
  6
CONTINUOUS
 10
744.229858
 20
-50.597973
 40
6.500000
  0
LINE
  8
LC-002-021-SLN-3
 62
     2
  6
DASHDOT
 10
754.355225
 20
39.402027
 11
733.974121
 21
39.402027
  0
LINE
  8
LC-002-021-SLN-3
 62
     2
  6
DASHDOT
 10
744.229858
 20
49.404686
 11
744.229858
 21
30.093594
  0
CIRCLE
  8
LC-001-150-----0
 62
     1
  6
CONTINUOUS
 10
744.229858
 20
39.402027
 40
6.500000
  0
LINE
  8
LC-001-150-----0
 62
     1
  6
CONTINUOUS
 10
570.614807
 20
-32.597973
 11
570.614807
 21
21.402027
  0
ARC
  8
LC-001-150-----0
 62
     1
  6
CONTINUOUS
 10
573.614807
 20
-32.597973
 40
3.000000
 50
180.000009
 51
269.999997
  0
ARC
  8
LC-001-150-----0
 62
     1
  6
CONTINUOUS
 10
573.614807
 20
21.402027
 40
3.000000
 50
90.000003
 51
180.000009
  0
LINE
  8
LC-001-150-----0
 62
     1
  6
CONTINUOUS
 10
584.229858
 20
-65.097969
 11
584.229858
 21
-35.597977
  0
LINE
  8
LC-001-150-----0
 62
     1
  6
CONTINUOUS
 10
734.229858
 20
-65.097969
 11
734.229858
 21
-35.597977
  0
ARC
  8
LC-001-150-----0
 62
     1
  6
CONTINUOUS
 10
731.229858
 20
-65.097969
 40
3.000000
 50
269.999997
 51
0.000000
  0
ARC
  8
LC-001-150-----0
 62
     1
  6
CONTINUOUS
 10
731.229858
 20
53.902027
 40
3.000000
 50
0.000000
 51
90.000003
  0
ARC
  8
LC-001-150-----0
 62
     1
  6
CONTINUOUS
 10
587.229858
 20
53.902027
 40
3.000000
 50
90.000003
 51
180.000009
  0
ARC
  8
LC-001-150-----0
 62
     1
  6
CONTINUOUS
 10
587.229858
 20
-65.097969
 40
3.000000
 50
180.000009
 51
269.999997
  0
LINE
  8
LC-003-002-----0
 62
     2
  6
DASHED
 10
584.631836
 20
-66.597969
 11
733.827942
 21
-66.597969
  0
LINE
  8
LC-001-150-----0
 62
     1
  6
CONTINUOUS
 10
733.827942
 20
-66.597969
 11
756.229858
 21
-66.597969
  0
LINE
  8
LC-003-002-----0
 62
     2
  6
DASHED
 10
584.631836
 20
55.402027
 11
733.827942
 21
55.402027
  0
LINE
  8
LC-001-150-----0
 62
     1
  6
CONTINUOUS
 10
733.827942
 20
55.402027
 11
756.229858
 21
55.402027
  0
LINE
  8
LC-001-150-----0
 62
     1
  6
CONTINUOUS
 10
584.229858
 20
24.402027
 11
584.229858
 21
53.902027
  0
LINE
  8
LC-001-150-----0
 62
     1
  6
CONTINUOUS
 10
734.229858
 20
24.402027
 11
734.229858
 21
53.902027
  0
LINE
  8
LC-002-021-SLN-3
 62
     2
  6
DASHDOT
 10
659.229858
 20
-107.595390
 11
659.229858
 21
97.695404
  0
LINE
  8
LC-001-150-----0
 62
     1
  6
CONTINUOUS
 10
699.229858
 20
-101.019325
 11
699.229858
 21
-88.097969
  0
LINE
  8
LC-001-150-----0
 62
     1
  6
CONTINUOUS
 10
719.229858
 20
-85.097969
 11
719.229858
 21
-68.097969
  0
LINE
  8
LC-001-150-----0
 62
     1
  6
CONTINUOUS
 10
599.229858
 20
-85.097969
 11
599.229858
 21
-68.097969
  0
LINE
  8
LC-001-150-----0
 62
     1
  6
CONTINUOUS
 10
602.229858
 20
-88.097969
 11
716.229858
 21
-88.097969
  0
LINE
  8
LC-001-150-----0
 62
     1
  6
CONTINUOUS
 10
602.229858
 20
76.902031
 11
716.229858
 21
76.902031
  0
ARC
  8
LC-001-150-----0
 62
     1
  6
CONTINUOUS
 10
716.229858
 20
-85.097969
 40
3.000000
 50
269.999997
 51
0.000000
  0
ARC
  8
LC-001-150-----0
 62
     1
  6
CONTINUOUS
 10
602.229858
 20
-85.097969
 40
3.000000
 50
180.000009
 51
269.999997
  0
ARC
  8
LC-001-150-----0
 62
     1
  6
CONTINUOUS
 10
602.229858
 20
73.902031
 40
3.000000
 50
90.000003
 51
180.000009
  0
ARC
  8
LC-001-150-----0
 62
     1
  6
CONTINUOUS
 10
716.229858
 20
73.902031
 40
3.000000
 50
0.000000
 51
90.000003
  0
LINE
  8
LC-003-002-----0
 62
     2
  6
DASHED
 10
719.229858
 20
-68.097969
 11
719.229858
 21
56.902023
  0
LINE
  8
LC-003-002-----0
 62
     2
  6
DASHED
 10
599.229858
 20
-68.097969
 11
599.229858
 21
56.902023
  0
LINE
  8
LC-001-150-----0
 62
     1
  6
CONTINUOUS
 10
599.229858
 20
56.902027
 11
599.229858
 21
73.902031
  0
LINE
  8
LC-001-150-----0
 62
     1
  6
CONTINUOUS
 10
719.229858
 20
56.902027
 11
719.229858
 21
73.902031
  0
LINE
  8
LC-004-006-----0
 62
     2
  6
CONTINUOUS
 10
619.229858
 20
-98.559479
 11
646.231323
 21
-99.713219
  0
LINE
  8
LC-004-006-----0
 62
     2
  6
CONTINUOUS
 10
646.231323
 20
-99.713219
 11
681.191345
 21
-101.567848
  0
LINE
  8
LC-004-006-----0
 62
     2
  6
CONTINUOUS
 10
681.191345
 20
-101.567848
 11
699.229858
 21
-101.019325
  0
LINE
  8
LC-004-006-----0
 62
     2
  6
CONTINUOUS
 10
619.229858
 20
90.363541
 11
646.231323
 21
91.517273
  0
LINE
  8
LC-004-006-----0
 62
     2
  6
CONTINUOUS
 10
646.231323
 20
91.517273
 11
681.191345
 21
93.371902
  0
LINE
  8
LC-004-006-----0
 62
     2
  6
CONTINUOUS
 10
681.191345
 20
93.371902
 11
699.229858
 21
92.823380
  0
LINE
  8
LC-003-002-----0
 62
     2
  6
DASHED
 10
699.229858
 20
-88.097969
 11
699.229858
 21
76.902031
  0
LINE
  8
LC-001-150-----0
 62
     1
  6
CONTINUOUS
 10
619.229858
 20
-98.559479
 11
619.229858
 21
-88.097969
  0
LINE
  8
LC-003-002-----0
 62
     2
  6
DASHED
 10
619.229858
 20
-88.097969
 11
619.229858
 21
76.902031
  0
LINE
  8
LC-001-150-----0
 62
     1
  6
CONTINUOUS
 10
619.229858
 20
76.902031
 11
619.229858
 21
90.363541
  0
LINE
  8
LC-001-150-----0
 62
     1
  6
CONTINUOUS
 10
699.229858
 20
76.902031
 11
699.229858
 21
92.823380
  0
LINE
  8
LC-003-002-----0
 62
     2
  6
DASHED
 10
727.229858
 20
225.255539
 11
719.729858
 21
225.255539
  0
LINE
  8
LC-003-002-----0
 62
     2
  6
DASHED
 10
730.229858
 20
219.555542
 11
730.229858
 21
225.826920
  0
LINE
  8
LC-003-002-----0
 62
     2
  6
DASHED
 10
727.729858
 20
215.255539
 11
727.729858
 21
230.255539
  0
LINE
  8
LC-003-002-----0
 62
     2
  6
DASHED
 10
715.429871
 20
220.755539
 11
715.429871
 21
224.755539
  0
LINE
  8
LC-003-002-----0
 62
     2
  6
DASHED
 10
719.979858
 20
-8.597972
 11
727.229858
 21
-8.597972
  0
LINE
  8
LC-003-002-----0
 62
     2
  6
DASHED
 10
719.979858
 20
-2.597972
 11
727.229858
 21
-2.597972
  0
LINE
  8
LC-003-002-----0
 62
     2
  6
DASHED
 10
730.017212
 20
218.855530
 11
727.729858
 21
218.855530
  0
LINE
  8
LC-003-002-----0
 62
     2
  6
DASHED
 10
730.017212
 20
226.655533
 11
727.729858
 21
226.655533
  0
LINE
  8
LC-003-002-----0
 62
     2
  6
DASHED
 10
719.729858
 20
220.005539
 11
719.729858
 21
225.505539
  0
LINE
  8
LC-003-002-----0
 62
     2
  6
DASHED
 10
719.729858
 20
220.005539
 11
719.979858
 21
219.755539
  0
LINE
  8
LC-003-002-----0
 62
     2
  6
DASHED
 10
719.729858
 20
225.505539
 11
719.979858
 21
225.755539
  0
LINE
  8
LC-003-002-----0
 62
     2
  6
DASHED
 10
719.979858
 20
219.755539
 11
719.979858
 21
225.755539
  0
LINE
  8
LC-003-002-----0
 62
     2
  6
DASHED
 10
719.729858
 20
220.505539
 11
715.679871
 21
220.505539
  0
LINE
  8
LC-003-002-----0
 62
     2
  6
DASHED
 10
719.729858
 20
225.005539
 11
715.679871
 21
225.005539
  0
ARC
  8
LC-003-002-----0
 62
     2
  6
DASHED
 10
715.679871
 20
220.755539
 40
0.250000
 50
180.000009
 51
269.999997
  0
ARC
  8
LC-003-002-----0
 62
     2
  6
DASHED
 10
715.679871
 20
224.755539
 40
0.250000
 50
90.000003
 51
180.000009
  0
LINE
  8
LC-003-002-----0
 62
     2
  6
DASHED
 10
727.229858
 20
219.755539
 11
727.229858
 21
225.755539
  0
LINE
  8
LC-003-002-----0
 62
     2
  6
DASHED
 10
727.229858
 20
220.505539
 11
727.729858
 21
220.505539
  0
LINE
  8
LC-003-002-----0
 62
     2
  6
DASHED
 10
727.229858
 20
225.005539
 11
727.729858
 21
225.005539
  0
LINE
  8
LC-003-002-----0
 62
     2
  6
DASHED
 10
727.729858
 20
220.255539
 11
730.017212
 21
220.255539
  0
LINE
  8
LC-003-002-----0
 62
     2
  6
DASHED
 10
727.729858
 20
225.255539
 11
730.017212
 21
225.255539
  0
ARC
  8
LC-003-002-----0
 62
     2
  6
DASHED
 10
715.429871
 20
222.755539
 40
14.800000
 50
350.275031
 51
9.724969
  0
ARC
  8
LC-003-002-----0
 62
     2
  6
DASHED
 10
729.010437
 20
225.955536
 40
1.226194
 50
325.188944
 51
34.811056
  0
ARC
  8
LC-003-002-----0
 62
     2
  6
DASHED
 10
729.010437
 20
219.555542
 40
1.226194
 50
325.188944
 51
34.811056
  0
LINE
  8
LC-003-002-----0
 62
     2
  6
DASHED
 10
751.327026
 20
215.255539
 11
727.729858
 21
215.255539
  0
LINE
  8
LC-003-002-----0
 62
     2
  6
DASHED
 10
749.102112
 20
230.255539
 11
727.729858
 21
230.255539
  0
CIRCLE
  8
LC-003-002-----0
 62
     2
  6
DASHED
 10
886.313599
 20
222.755539
 40
7.500000
  0
LINE
  8
LC-003-002-----0
 62
     2
  6
DASHED
 10
882.988586
 20
220.835846
 11
886.313599
 21
218.916153
  0
LINE
  8
LC-003-002-----0
 62
     2
  6
DASHED
 10
886.313599
 20
226.594910
 11
889.638550
 21
224.675217
  0
LINE
  8
LC-003-002-----0
 62
     2
  6
DASHED
 10
882.988586
 20
224.675217
 11
882.988586
 21
220.835846
  0
LINE
  8
LC-003-002-----0
 62
     2
  6
DASHED
 10
889.638550
 20
224.675217
 11
889.638550
 21
220.835846
  0
LINE
  8
LC-003-002-----0
 62
     2
  6
DASHED
 10
886.313599
 20
226.594910
 11
882.988586
 21
224.675217
  0
LINE
  8
LC-003-002-----0
 62
     2
  6
DASHED
 10
889.638550
 20
220.835846
 11
886.313599
 21
218.916153
  0
CIRCLE
  8
LC-003-002-----0
 62
     2
  6
DASHED
 10
886.313599
 20
222.755539
 40
3.325000
  0
LINE
  8
LC-003-002-----0
 62
     2
  6
DASHED
 10
727.229858
 20
-8.097972
 11
719.729858
 21
-8.097972
  0
LINE
  8
LC-003-002-----0
 62
     2
  6
DASHED
 10
727.229858
 20
-3.097972
 11
719.729858
 21
-3.097972
  0
LINE
  8
LC-003-002-----0
 62
     2
  6
DASHED
 10
730.229858
 20
-8.797972
 11
730.229858
 21
-2.526590
  0
LINE
  8
LC-003-002-----0
 62
     2
  6
DASHED
 10
727.729858
 20
-13.097972
 11
727.729858
 21
1.902028
  0
LINE
  8
LC-003-002-----0
 62
     2
  6
DASHED
 10
715.429871
 20
-7.597972
 11
715.429871
 21
-3.597972
  0
LINE
  8
LC-003-002-----0
 62
     2
  6
DASHED
 10
730.017212
 20
-9.497972
 11
727.729858
 21
-9.497972
  0
LINE
  8
LC-003-002-----0
 62
     2
  6
DASHED
 10
730.017212
 20
-1.697972
 11
727.729858
 21
-1.697972
  0
LINE
  8
LC-003-002-----0
 62
     2
  6
DASHED
 10
719.729858
 20
-8.347972
 11
719.729858
 21
-2.847972
  0
LINE
  8
LC-003-002-----0
 62
     2
  6
DASHED
 10
719.729858
 20
-8.347972
 11
719.979858
 21
-8.597972
  0
LINE
  8
LC-003-002-----0
 62
     2
  6
DASHED
 10
719.729858
 20
-2.847972
 11
719.979858
 21
-2.597972
  0
LINE
  8
LC-003-002-----0
 62
     2
  6
DASHED
 10
719.979858
 20
-8.597972
 11
719.979858
 21
-2.597972
  0
LINE
  8
LC-003-002-----0
 62
     2
  6
DASHED
 10
719.729858
 20
-7.847972
 11
715.679871
 21
-7.847972
  0
LINE
  8
LC-003-002-----0
 62
     2
  6
DASHED
 10
719.729858
 20
-3.347972
 11
715.679871
 21
-3.347972
  0
ARC
  8
LC-003-002-----0
 62
     2
  6
DASHED
 10
715.679871
 20
-7.597972
 40
0.250000
 50
180.000009
 51
269.999997
  0
ARC
  8
LC-003-002-----0
 62
     2
  6
DASHED
 10
715.679871
 20
-3.597972
 40
0.250000
 50
90.000003
 51
180.000009
  0
LINE
  8
LC-003-002-----0
 62
     2
  6
DASHED
 10
727.229858
 20
-8.597972
 11
727.229858
 21
-2.597972
  0
LINE
  8
LC-003-002-----0
 62
     2
  6
DASHED
 10
727.229858
 20
-7.847972
 11
727.729858
 21
-7.847972
  0
LINE
  8
LC-003-002-----0
 62
     2
  6
DASHED
 10
727.229858
 20
-3.347972
 11
727.729858
 21
-3.347972
  0
LINE
  8
LC-003-002-----0
 62
     2
  6
DASHED
 10
727.729858
 20
-8.097972
 11
730.017212
 21
-8.097972
  0
LINE
  8
LC-003-002-----0
 62
     2
  6
DASHED
 10
727.729858
 20
-3.097972
 11
730.017212
 21
-3.097972
  0
ARC
  8
LC-003-002-----0
 62
     2
  6
DASHED
 10
715.429871
 20
-5.597972
 40
14.800000
 50
350.275031
 51
9.724969
  0
ARC
  8
LC-003-002-----0
 62
     2
  6
DASHED
 10
729.010437
 20
-2.397972
 40
1.226194
 50
325.188944
 51
34.811056
  0
ARC
  8
LC-003-002-----0
 62
     2
  6
DASHED
 10
729.010437
 20
-8.797972
 40
1.226194
 50
325.188944
 51
34.811056
  0
LINE
  8
LC-003-002-----0
 62
     2
  6
DASHED
 10
750.214600
 20
-13.097972
 11
727.729858
 21
-13.097972
  0
LINE
  8
LC-003-002-----0
 62
     2
  6
DASHED
 10
750.214600
 20
1.902028
 11
727.729858
 21
1.902028
  0
ENDSEC
  0
EOF
