  0
SECTION
  2
HEADER
  9
$LIMMIN
 10
-250.932724
 20
312.232544
  9
$LIMMAX
 10
-31.092592
 20
518.128479
  9
$EXTMIN
 10
-250.932724
 20
312.232544
  9
$EXTMAX
 10
-31.092592
 20
518.128479
  0
ENDSEC
  0
SECTION
  2
TABLES
  0
TABLE
  2
LTYPE
 70
     3
  0
LTYPE
  2
CONTINUOUS
 70
    64
  3
Ausgezogene Linie
 72
    65
 73
     0
 40
0.0
  0
LTYPE
  2
DASHED
 70
    64
  3
__ __ __ __ __ __ __ __ __ __ __ __ __ __ __
 72
    65
 73
     2
 40
0.75
 49
0.5
 49
-0.25
  0
LTYPE
  2
DASHDOT
 70
    64
  3
__ . __ . __ . __ . __ . __ . __ . __ . __ . __
 72
    65
 73
     4
 40
1.0
 49
0.5
 49
-0.25
 49
0.0
 49
-0.25
  0
ENDTAB
  0
TABLE
  2
LAYER
 70
     4
  0
LAYER
  2
LC-003-002-----0
 70
    64
 62
     7
  6
CONTINUOUS
  0
LAYER
  2
LC-004-006-----0
 70
    64
 62
     7
  6
CONTINUOUS
  0
LAYER
  2
LC-006-012-----0
 70
    64
 62
     7
  6
CONTINUOUS
  0
LAYER
  2
LC-008-003-----0
 70
    64
 62
     7
  6
CONTINUOUS
  0
ENDTAB
  0
TABLE
  2
STYLE
 70
     1
  0
STYLE
  2
TXT8
 70
    64
 40
0.0
 41
1.0
 50
0.0
 71
     0
 42
3.500000
  3
TXT8
  4

  0
ENDTAB
  0
ENDSEC
  0
SECTION
  2
BLOCKS
  0
ENDSEC
  0
SECTION
  2
ENTITIES
  0
LINE
  8
LC-003-002-----0
 62
     1
  6
CONTINUOUS
 10
-246.967178
 20
515.108826
 11
-246.967178
 21
494.923737
  0
LINE
  8
LC-003-002-----0
 62
     1
  6
CONTINUOUS
 10
-246.967178
 20
455.108795
 11
-186.967178
 21
455.108795
  0
LINE
  8
LC-003-002-----0
 62
     1
  6
CONTINUOUS
 10
-193.967178
 20
515.108826
 11
-246.967178
 21
515.108826
  0
LINE
  8
LC-003-002-----0
 62
     1
  6
CONTINUOUS
 10
-186.967178
 20
455.108795
 11
-186.967178
 21
508.108795
  0
LINE
  8
LC-004-006-----0
 62
     2
  6
DASHDOT
 10
-250.932724
 20
485.108795
 11
-209.102051
 21
485.108795
  0
LINE
  8
LC-004-006-----0
 62
     2
  6
DASHDOT
 10
-229.967178
 20
505.704468
 11
-229.967178
 21
464.467438
  0
CIRCLE
  8
LC-003-002-----0
 62
     1
  6
CONTINUOUS
 10
-229.967178
 20
485.108795
 40
10.000000
  0
ARC
  8
LC-003-002-----0
 62
     1
  6
CONTINUOUS
 10
-229.967178
 20
485.108795
 40
16.000000
 50
210.000003
 51
149.999997
  0
LINE
  8
LC-003-002-----0
 62
     1
  6
CONTINUOUS
 10
-238.627426
 20
490.108795
 11
-243.823578
 21
493.108795
  0
LINE
  8
LC-003-002-----0
 62
     1
  6
CONTINUOUS
 10
-238.627426
 20
480.108795
 11
-243.823578
 21
477.108795
  0
LINE
  8
LC-003-002-----0
 62
     1
  6
CONTINUOUS
 10
-246.967178
 20
475.293854
 11
-246.967178
 21
455.108795
  0
ARC
  8
LC-003-002-----0
 62
     1
  6
CONTINUOUS
 10
-229.967178
 20
485.108795
 40
14.000000
 50
210.000003
 51
149.999997
  0
LINE
  8
LC-004-006-----0
 62
     2
  6
DASHDOT
 10
-207.967178
 20
518.128479
 11
-207.967178
 21
451.925049
  0
LINE
  8
LC-006-012-----0
 62
     2
  6
DASHED
 10
-202.967178
 20
477.108795
 11
-202.967178
 21
455.108795
  0
LINE
  8
LC-006-012-----0
 62
     2
  6
DASHED
 10
-212.967178
 20
477.108795
 11
-212.967178
 21
455.108795
  0
LINE
  8
LC-006-012-----0
 62
     2
  6
DASHED
 10
-203.767181
 20
506.108795
 11
-203.767181
 21
455.108795
  0
LINE
  8
LC-006-012-----0
 62
     2
  6
DASHED
 10
-212.167175
 20
506.108795
 11
-212.167175
 21
455.108795
  0
LINE
  8
LC-006-012-----0
 62
     2
  6
DASHED
 10
-212.967178
 20
477.108795
 11
-202.967178
 21
477.108795
  0
LINE
  8
LC-006-012-----0
 62
     2
  6
DASHED
 10
-215.467178
 20
506.108795
 11
-200.467178
 21
506.108795
  0
LINE
  8
LC-006-012-----0
 62
     2
  6
DASHED
 10
-200.467178
 20
515.108826
 11
-200.467178
 21
506.108765
  0
LINE
  8
LC-006-012-----0
 62
     2
  6
DASHED
 10
-215.467178
 20
515.108826
 11
-215.467178
 21
506.108765
  0
LINE
  8
LC-003-002-----0
 62
     1
  6
CONTINUOUS
 10
-243.823578
 20
493.108795
 11
-246.967178
 21
494.923767
  0
LINE
  8
LC-003-002-----0
 62
     1
  6
CONTINUOUS
 10
-243.823578
 20
477.108795
 11
-246.967178
 21
475.293854
  0
LINE
  8
LC-003-002-----0
 62
     1
  6
CONTINUOUS
 10
-246.967178
 20
384.129944
 11
-246.967178
 21
330.129944
  0
LINE
  8
LC-003-002-----0
 62
     1
  6
CONTINUOUS
 10
-246.967178
 20
330.129944
 11
-186.967178
 21
330.129944
  0
LINE
  8
LC-003-002-----0
 62
     1
  6
CONTINUOUS
 10
-186.967178
 20
384.129944
 11
-186.967178
 21
330.129944
  0
LINE
  8
LC-003-002-----0
 62
     1
  6
CONTINUOUS
 10
-246.967178
 20
384.129944
 11
-186.967178
 21
384.129944
  0
LINE
  8
LC-004-006-----0
 62
     2
  6
DASHDOT
 10
-229.967178
 20
401.094147
 11
-229.967178
 21
312.232544
  0
LINE
  8
LC-004-006-----0
 62
     2
  6
DASHDOT
 10
-219.143661
 20
372.129944
 11
-196.681900
 21
372.129944
  0
LINE
  8
LC-004-006-----0
 62
     2
  6
DASHDOT
 10
-207.967178
 20
382.543152
 11
-207.967178
 21
360.570770
  0
CIRCLE
  8
LC-003-002-----0
 62
     1
  6
CONTINUOUS
 10
-207.967178
 20
372.129944
 40
7.500000
  0
ARC
  8
LC-008-003-----0
 62
     2
  6
CONTINUOUS
 10
-207.967178
 20
372.129944
 40
5.000000
 50
83.701093
 51
6.719230
  0
CIRCLE
  8
LC-003-002-----0
 62
     1
  6
CONTINUOUS
 10
-207.967178
 20
372.129944
 40
4.200000
  0
LINE
  8
LC-004-006-----0
 62
     2
  6
DASHDOT
 10
-219.143661
 20
342.129944
 11
-196.681900
 21
342.129944
  0
LINE
  8
LC-004-006-----0
 62
     2
  6
DASHDOT
 10
-207.967178
 20
331.716736
 11
-207.967178
 21
353.689148
  0
CIRCLE
  8
LC-003-002-----0
 62
     1
  6
CONTINUOUS
 10
-207.967178
 20
342.129944
 40
7.500000
  0
ARC
  8
LC-008-003-----0
 62
     2
  6
CONTINUOUS
 10
-207.967178
 20
342.129944
 40
5.000000
 50
353.280770
 51
276.298907
  0
CIRCLE
  8
LC-003-002-----0
 62
     1
  6
CONTINUOUS
 10
-207.967178
 20
342.129944
 40
4.200000
  0
LINE
  8
LC-006-012-----0
 62
     2
  6
DASHED
 10
-213.967178
 20
384.129944
 11
-213.967178
 21
330.129944
  0
LINE
  8
LC-006-012-----0
 62
     2
  6
DASHED
 10
-243.823578
 20
384.129944
 11
-243.823578
 21
330.129944
  0
LINE
  8
LC-006-012-----0
 62
     2
  6
DASHED
 10
-238.627426
 20
384.129944
 11
-238.627426
 21
330.129944
  0
LINE
  8
LC-003-002-----0
 62
     1
  6
CONTINUOUS
 10
-239.967178
 20
398.886353
 11
-239.967178
 21
384.129944
  0
LINE
  8
LC-008-003-----0
 62
     2
  6
CONTINUOUS
 10
-239.967178
 20
398.886353
 11
-235.604294
 21
399.297546
  0
LINE
  8
LC-008-003-----0
 62
     2
  6
CONTINUOUS
 10
-235.604294
 20
399.297546
 11
-225.494675
 21
398.373657
  0
LINE
  8
LC-008-003-----0
 62
     2
  6
CONTINUOUS
 10
-225.494675
 20
398.373657
 11
-219.967178
 21
399.326202
  0
LINE
  8
LC-008-003-----0
 62
     2
  6
CONTINUOUS
 10
-239.967178
 20
316.283356
 11
-235.297943
 21
315.455048
  0
LINE
  8
LC-008-003-----0
 62
     2
  6
CONTINUOUS
 10
-235.297943
 20
315.455048
 11
-224.575623
 21
315.455048
  0
LINE
  8
LC-008-003-----0
 62
     2
  6
CONTINUOUS
 10
-224.575623
 20
315.455048
 11
-219.967178
 21
314.875977
  0
LINE
  8
LC-003-002-----0
 62
     1
  6
CONTINUOUS
 10
-239.967178
 20
330.129944
 11
-239.967178
 21
316.283356
  0
LINE
  8
LC-003-002-----0
 62
     1
  6
CONTINUOUS
 10
-219.967178
 20
330.129944
 11
-219.967178
 21
314.875977
  0
LINE
  8
LC-003-002-----0
 62
     1
  6
CONTINUOUS
 10
-219.967178
 20
399.326202
 11
-219.967178
 21
384.129944
  0
LINE
  8
LC-006-012-----0
 62
     2
  6
DASHED
 10
-219.967178
 20
384.129944
 11
-219.967178
 21
330.129944
  0
LINE
  8
LC-006-012-----0
 62
     2
  6
DASHED
 10
-239.967178
 20
384.129944
 11
-239.967178
 21
330.129944
  0
LINE
  8
LC-003-002-----0
 62
     1
  6
CONTINUOUS
 10
-105.582947
 20
455.108795
 11
-51.582947
 21
455.108795
  0
LINE
  8
LC-003-002-----0
 62
     1
  6
CONTINUOUS
 10
-51.582947
 20
455.108795
 11
-51.582947
 21
515.108826
  0
LINE
  8
LC-003-002-----0
 62
     1
  6
CONTINUOUS
 10
-105.582947
 20
515.108826
 11
-51.582947
 21
515.108826
  0
LINE
  8
LC-003-002-----0
 62
     1
  6
CONTINUOUS
 10
-105.582947
 20
455.108795
 11
-105.582947
 21
515.108826
  0
LINE
  8
LC-004-006-----0
 62
     2
  6
DASHDOT
 10
-63.582947
 20
518.128479
 11
-63.582947
 21
451.925049
  0
LINE
  8
LC-004-006-----0
 62
     2
  6
DASHDOT
 10
-93.582947
 20
518.128479
 11
-93.582947
 21
451.925049
  0
LINE
  8
LC-006-012-----0
 62
     2
  6
DASHED
 10
-88.582947
 20
477.108795
 11
-88.582947
 21
455.108795
  0
LINE
  8
LC-006-012-----0
 62
     2
  6
DASHED
 10
-98.582947
 20
477.108795
 11
-98.582947
 21
455.108795
  0
LINE
  8
LC-006-012-----0
 62
     2
  6
DASHED
 10
-89.382942
 20
506.108795
 11
-89.382942
 21
455.108795
  0
LINE
  8
LC-006-012-----0
 62
     2
  6
DASHED
 10
-97.782944
 20
506.108795
 11
-97.782944
 21
455.108795
  0
LINE
  8
LC-006-012-----0
 62
     2
  6
DASHED
 10
-98.582947
 20
477.108795
 11
-88.582947
 21
477.108795
  0
LINE
  8
LC-006-012-----0
 62
     2
  6
DASHED
 10
-101.082947
 20
506.108795
 11
-86.082947
 21
506.108795
  0
LINE
  8
LC-006-012-----0
 62
     2
  6
DASHED
 10
-86.082947
 20
515.108826
 11
-86.082947
 21
506.108765
  0
LINE
  8
LC-006-012-----0
 62
     2
  6
DASHED
 10
-101.082947
 20
515.108826
 11
-101.082947
 21
506.108765
  0
LINE
  8
LC-003-002-----0
 62
     1
  6
CONTINUOUS
 10
-105.582947
 20
493.108795
 11
-51.582947
 21
493.108795
  0
LINE
  8
LC-006-012-----0
 62
     2
  6
DASHED
 10
-58.582947
 20
477.108795
 11
-58.582947
 21
455.108795
  0
LINE
  8
LC-006-012-----0
 62
     2
  6
DASHED
 10
-68.582947
 20
477.108795
 11
-68.582947
 21
455.108795
  0
LINE
  8
LC-006-012-----0
 62
     2
  6
DASHED
 10
-59.382946
 20
506.108795
 11
-59.382946
 21
455.108795
  0
LINE
  8
LC-006-012-----0
 62
     2
  6
DASHED
 10
-67.782944
 20
506.108795
 11
-67.782944
 21
455.108795
  0
LINE
  8
LC-006-012-----0
 62
     2
  6
DASHED
 10
-68.582947
 20
477.108795
 11
-58.582947
 21
477.108795
  0
LINE
  8
LC-006-012-----0
 62
     2
  6
DASHED
 10
-71.082947
 20
506.108795
 11
-56.082947
 21
506.108795
  0
LINE
  8
LC-006-012-----0
 62
     2
  6
DASHED
 10
-56.082947
 20
515.108826
 11
-56.082947
 21
506.108765
  0
LINE
  8
LC-006-012-----0
 62
     2
  6
DASHED
 10
-71.082947
 20
515.108826
 11
-71.082947
 21
506.108765
  0
LINE
  8
LC-003-002-----0
 62
     1
  6
CONTINUOUS
 10
-105.582947
 20
477.108795
 11
-51.582947
 21
477.108795
  0
LINE
  8
LC-003-002-----0
 62
     1
  6
CONTINUOUS
 10
-105.582947
 20
494.923767
 11
-51.582947
 21
494.923767
  0
LINE
  8
LC-003-002-----0
 62
     1
  6
CONTINUOUS
 10
-105.582947
 20
475.293854
 11
-51.582947
 21
475.293854
  0
LINE
  8
LC-003-002-----0
 62
     1
  6
CONTINUOUS
 10
-105.582947
 20
490.108795
 11
-51.582947
 21
490.108795
  0
LINE
  8
LC-003-002-----0
 62
     1
  6
CONTINUOUS
 10
-105.582947
 20
480.108795
 11
-51.582947
 21
480.108795
  0
LINE
  8
LC-004-006-----0
 62
     2
  6
DASHDOT
 10
-126.604088
 20
485.108795
 11
-31.092592
 21
485.108795
  0
LINE
  8
LC-008-003-----0
 62
     2
  6
CONTINUOUS
 10
-34.799423
 20
475.108795
 11
-35.388954
 21
481.331390
  0
LINE
  8
LC-008-003-----0
 62
     2
  6
CONTINUOUS
 10
-35.388954
 20
481.331390
 11
-34.397484
 21
490.052338
  0
LINE
  8
LC-008-003-----0
 62
     2
  6
CONTINUOUS
 10
-34.397484
 20
490.052338
 11
-35.701572
 21
495.108795
  0
LINE
  8
LC-008-003-----0
 62
     2
  6
CONTINUOUS
 10
-121.873871
 20
475.108795
 11
-122.307724
 21
480.833069
  0
LINE
  8
LC-008-003-----0
 62
     2
  6
CONTINUOUS
 10
-122.307724
 20
480.833069
 11
-120.985764
 21
490.052338
  0
LINE
  8
LC-008-003-----0
 62
     2
  6
CONTINUOUS
 10
-120.985764
 20
490.052338
 11
-121.656441
 21
495.108795
  0
LINE
  8
LC-003-002-----0
 62
     1
  6
CONTINUOUS
 10
-121.656441
 20
495.108795
 11
-105.582947
 21
495.108795
  0
LINE
  8
LC-006-012-----0
 62
     2
  6
DASHED
 10
-105.582947
 20
495.108795
 11
-51.582947
 21
495.108795
  0
LINE
  8
LC-003-002-----0
 62
     1
  6
CONTINUOUS
 10
-121.873871
 20
475.108795
 11
-105.582947
 21
475.108795
  0
LINE
  8
LC-006-012-----0
 62
     2
  6
DASHED
 10
-105.582947
 20
475.108795
 11
-51.582947
 21
475.108795
  0
LINE
  8
LC-003-002-----0
 62
     1
  6
CONTINUOUS
 10
-51.582947
 20
475.108795
 11
-34.799423
 21
475.108795
  0
LINE
  8
LC-003-002-----0
 62
     1
  6
CONTINUOUS
 10
-51.582947
 20
495.108795
 11
-35.701572
 21
495.108795
  0
LINE
  8
LC-003-002-----0
 62
     1
  6
CONTINUOUS
 10
-186.967178
 20
508.108795
 11
-193.967178
 21
515.108826
  0
LINE
  8
LC-006-012-----0
 62
     2
  6
DASHED
 10
-231.967178
 20
506.808807
 11
-231.967178
 21
501.308807
  0
LINE
  8
LC-006-012-----0
 62
     2
  6
DASHED
 10
-227.967178
 20
506.808807
 11
-227.967178
 21
501.308807
  0
LINE
  8
LC-006-012-----0
 62
     2
  6
DASHED
 10
-232.467178
 20
501.558807
 11
-232.467178
 21
506.808807
  0
LINE
  8
LC-006-012-----0
 62
     2
  6
DASHED
 10
-227.467178
 20
506.808807
 11
-227.467178
 21
501.558807
  0
LINE
  8
LC-006-012-----0
 62
     2
  6
DASHED
 10
-227.417175
 20
509.308807
 11
-232.517181
 21
509.308807
  0
LINE
  8
LC-006-012-----0
 62
     2
  6
DASHED
 10
-228.467178
 20
498.208801
 11
-231.467178
 21
498.208801
  0
LINE
  8
LC-006-012-----0
 62
     2
  6
DASHED
 10
-232.217178
 20
501.308807
 11
-232.467178
 21
501.558807
  0
LINE
  8
LC-006-012-----0
 62
     2
  6
DASHED
 10
-227.467178
 20
501.558807
 11
-227.717178
 21
501.308807
  0
LINE
  8
LC-006-012-----0
 62
     2
  6
DASHED
 10
-227.467178
 20
501.558807
 11
-232.467178
 21
501.558807
  0
LINE
  8
LC-006-012-----0
 62
     2
  6
DASHED
 10
-233.267181
 20
509.161896
 11
-233.267181
 21
507.308807
  0
LINE
  8
LC-006-012-----0
 62
     2
  6
DASHED
 10
-226.667175
 20
509.161896
 11
-226.667175
 21
507.308807
  0
LINE
  8
LC-006-012-----0
 62
     2
  6
DASHED
 10
-231.767181
 20
509.161896
 11
-231.767181
 21
507.308807
  0
LINE
  8
LC-006-012-----0
 62
     2
  6
DASHED
 10
-228.167175
 20
509.161896
 11
-228.167175
 21
507.308807
  0
LINE
  8
LC-006-012-----0
 62
     2
  6
DASHED
 10
-227.717178
 20
501.308807
 11
-232.217178
 21
501.308807
  0
ARC
  8
LC-006-012-----0
 62
     2
  6
DASHED
 10
-229.967178
 20
498.208801
 40
11.100000
 50
80.667580
 51
99.332418
  0
ARC
  8
LC-006-012-----0
 62
     2
  6
DASHED
 10
-227.417175
 20
507.308807
 40
1.999103
 50
67.965286
 51
112.034712
  0
LINE
  8
LC-006-012-----0
 62
     2
  6
DASHED
 10
-231.717178
 20
501.308807
 11
-231.717178
 21
498.458801
  0
ARC
  8
LC-006-012-----0
 62
     2
  6
DASHED
 10
-232.517181
 20
507.308807
 40
1.999103
 50
67.965286
 51
112.034712
  0
LINE
  8
LC-006-012-----0
 62
     2
  6
DASHED
 10
-227.467178
 20
506.808807
 11
-232.467178
 21
506.808807
  0
LINE
  8
LC-006-012-----0
 62
     2
  6
DASHED
 10
-232.167175
 20
507.308807
 11
-232.167175
 21
506.808807
  0
LINE
  8
LC-006-012-----0
 62
     2
  6
DASHED
 10
-227.767181
 20
507.308807
 11
-227.767181
 21
506.808807
  0
LINE
  8
LC-006-012-----0
 62
     2
  6
DASHED
 10
-228.217178
 20
501.308807
 11
-228.217178
 21
498.458801
  0
ARC
  8
LC-006-012-----0
 62
     2
  6
DASHED
 10
-231.467178
 20
498.458801
 40
0.250000
 50
180.000009
 51
269.999997
  0
ARC
  8
LC-006-012-----0
 62
     2
  6
DASHED
 10
-228.467178
 20
498.458801
 40
0.250000
 50
269.999997
 51
0.000000
  0
LINE
  8
LC-006-012-----0
 62
     2
  6
DASHED
 10
-223.467178
 20
507.308807
 11
-223.467178
 21
515.108826
  0
LINE
  8
LC-006-012-----0
 62
     2
  6
DASHED
 10
-223.467178
 20
507.308807
 11
-236.467178
 21
507.308807
  0
LINE
  8
LC-006-012-----0
 62
     2
  6
DASHED
 10
-236.467178
 20
507.308807
 11
-236.467178
 21
515.108826
  0
LINE
  8
LC-006-012-----0
 62
     2
  6
DASHED
 10
-238.134552
 20
357.129944
 11
-221.735657
 21
357.129944
  0
LINE
  8
LC-006-012-----0
 62
     2
  6
DASHED
 10
-80.582947
 20
506.808807
 11
-80.582947
 21
501.308807
  0
LINE
  8
LC-006-012-----0
 62
     2
  6
DASHED
 10
-76.582947
 20
506.808807
 11
-76.582947
 21
501.308807
  0
LINE
  8
LC-006-012-----0
 62
     2
  6
DASHED
 10
-81.082947
 20
501.558807
 11
-81.082947
 21
506.808807
  0
LINE
  8
LC-006-012-----0
 62
     2
  6
DASHED
 10
-76.082947
 20
506.808807
 11
-76.082947
 21
501.558807
  0
LINE
  8
LC-006-012-----0
 62
     2
  6
DASHED
 10
-76.032944
 20
509.308807
 11
-81.132942
 21
509.308807
  0
LINE
  8
LC-006-012-----0
 62
     2
  6
DASHED
 10
-77.082947
 20
498.208801
 11
-80.082947
 21
498.208801
  0
LINE
  8
LC-006-012-----0
 62
     2
  6
DASHED
 10
-80.832947
 20
501.308807
 11
-81.082947
 21
501.558807
  0
LINE
  8
LC-006-012-----0
 62
     2
  6
DASHED
 10
-76.082947
 20
501.558807
 11
-76.332947
 21
501.308807
  0
LINE
  8
LC-006-012-----0
 62
     2
  6
DASHED
 10
-76.082947
 20
501.558807
 11
-81.082947
 21
501.558807
  0
LINE
  8
LC-006-012-----0
 62
     2
  6
DASHED
 10
-81.882942
 20
509.161896
 11
-81.882942
 21
507.308807
  0
LINE
  8
LC-006-012-----0
 62
     2
  6
DASHED
 10
-75.282944
 20
509.161896
 11
-75.282944
 21
507.308807
  0
LINE
  8
LC-006-012-----0
 62
     2
  6
DASHED
 10
-80.382942
 20
509.161896
 11
-80.382942
 21
507.308807
  0
LINE
  8
LC-006-012-----0
 62
     2
  6
DASHED
 10
-76.782944
 20
509.161896
 11
-76.782944
 21
507.308807
  0
LINE
  8
LC-006-012-----0
 62
     2
  6
DASHED
 10
-76.332947
 20
501.308807
 11
-80.832947
 21
501.308807
  0
ARC
  8
LC-006-012-----0
 62
     2
  6
DASHED
 10
-78.582947
 20
498.208801
 40
11.100000
 50
80.667580
 51
99.332418
  0
ARC
  8
LC-006-012-----0
 62
     2
  6
DASHED
 10
-76.032944
 20
507.308807
 40
1.999103
 50
67.965286
 51
112.034712
  0
LINE
  8
LC-006-012-----0
 62
     2
  6
DASHED
 10
-80.332947
 20
501.308807
 11
-80.332947
 21
498.458801
  0
ARC
  8
LC-006-012-----0
 62
     2
  6
DASHED
 10
-81.132942
 20
507.308807
 40
1.999103
 50
67.965286
 51
112.034712
  0
LINE
  8
LC-006-012-----0
 62
     2
  6
DASHED
 10
-76.082947
 20
506.808807
 11
-81.082947
 21
506.808807
  0
LINE
  8
LC-006-012-----0
 62
     2
  6
DASHED
 10
-80.782944
 20
507.308807
 11
-80.782944
 21
506.808807
  0
LINE
  8
LC-006-012-----0
 62
     2
  6
DASHED
 10
-76.382942
 20
507.308807
 11
-76.382942
 21
506.808807
  0
LINE
  8
LC-006-012-----0
 62
     2
  6
DASHED
 10
-76.832947
 20
501.308807
 11
-76.832947
 21
498.458801
  0
ARC
  8
LC-006-012-----0
 62
     2
  6
DASHED
 10
-80.082947
 20
498.458801
 40
0.250000
 50
180.000009
 51
269.999997
  0
ARC
  8
LC-006-012-----0
 62
     2
  6
DASHED
 10
-77.082947
 20
498.458801
 40
0.250000
 50
269.999997
 51
0.000000
  0
LINE
  8
LC-006-012-----0
 62
     2
  6
DASHED
 10
-72.082947
 20
507.308807
 11
-72.082947
 21
515.108826
  0
LINE
  8
LC-006-012-----0
 62
     2
  6
DASHED
 10
-72.082947
 20
507.308807
 11
-85.082947
 21
507.308807
  0
LINE
  8
LC-006-012-----0
 62
     2
  6
DASHED
 10
-85.082947
 20
507.308807
 11
-85.082947
 21
515.108826
  0
CIRCLE
  8
LC-003-002-----0
 62
     1
  6
CONTINUOUS
 10
-229.967178
 20
357.129944
 40
6.500000
  0
LINE
  8
LC-004-006-----0
 62
     2
  6
DASHDOT
 10
-78.582947
 20
496.400513
 11
-78.582947
 21
516.949951
  0
LINE
  8
LC-003-002-----0
 62
     1
  6
CONTINUOUS
 10
-232.827179
 20
358.781158
 11
-229.967178
 21
360.432404
  0
LINE
  8
LC-003-002-----0
 62
     1
  6
CONTINUOUS
 10
-229.967178
 20
353.827515
 11
-227.107178
 21
355.478729
  0
LINE
  8
LC-003-002-----0
 62
     1
  6
CONTINUOUS
 10
-232.827179
 20
355.478729
 11
-232.827179
 21
358.781158
  0
LINE
  8
LC-003-002-----0
 62
     1
  6
CONTINUOUS
 10
-227.107178
 20
355.478729
 11
-227.107178
 21
358.781158
  0
LINE
  8
LC-003-002-----0
 62
     1
  6
CONTINUOUS
 10
-229.967178
 20
353.827515
 11
-232.827179
 21
355.478729
  0
LINE
  8
LC-003-002-----0
 62
     1
  6
CONTINUOUS
 10
-227.107178
 20
358.781158
 11
-229.967178
 21
360.432404
  0
CIRCLE
  8
LC-003-002-----0
 62
     1
  6
CONTINUOUS
 10
-229.967178
 20
357.129944
 40
2.860000
  0
LINE
  8
LC-003-002-----0
 62
     1
  6
CONTINUOUS
 10
-193.967178
 20
384.129944
 11
-193.967178
 21
330.129944
  0
LINE
  8
LC-006-012-----0
 62
     2
  6
DASHED
 10
-105.582947
 20
508.108795
 11
-51.582947
 21
508.108795
  0
ENDSEC
  0
EOF
