  0
SECTION
  2
HEADER
  9
$LIMMIN
 10
-246.967178
 20
-111.395638
  9
$LIMMAX
 10
-2.732602
 20
123.448082
  9
$EXTMIN
 10
-246.967178
 20
-111.395638
  9
$EXTMAX
 10
-2.732602
 20
123.448082
  0
ENDSEC
  0
SECTION
  2
TABLES
  0
TABLE
  2
LTYPE
 70
     3
  0
LTYPE
  2
CONTINUOUS
 70
    64
  3
Ausgezogene Linie
 72
    65
 73
     0
 40
0.0
  0
LTYPE
  2
DASHED
 70
    64
  3
__ __ __ __ __ __ __ __ __ __ __ __ __ __ __
 72
    65
 73
     2
 40
0.75
 49
0.5
 49
-0.25
  0
LTYPE
  2
DASHDOT
 70
    64
  3
__ . __ . __ . __ . __ . __ . __ . __ . __ . __
 72
    65
 73
     4
 40
1.0
 49
0.5
 49
-0.25
 49
0.0
 49
-0.25
  0
ENDTAB
  0
TABLE
  2
LAYER
 70
     4
  0
LAYER
  2
LC-003-002-----0
 70
    64
 62
     7
  6
CONTINUOUS
  0
LAYER
  2
LC-004-006-----0
 70
    64
 62
     7
  6
CONTINUOUS
  0
LAYER
  2
LC-006-012-----0
 70
    64
 62
     7
  6
CONTINUOUS
  0
LAYER
  2
LC-008-003-----0
 70
    64
 62
     7
  6
CONTINUOUS
  0
ENDTAB
  0
TABLE
  2
STYLE
 70
     1
  0
STYLE
  2
TXT8
 70
    64
 40
0.0
 41
1.0
 50
0.0
 71
     0
 42
3.500000
  3
TXT8
  4

  0
ENDTAB
  0
ENDSEC
  0
SECTION
  2
BLOCKS
  0
ENDSEC
  0
SECTION
  2
ENTITIES
  0
LINE
  8
LC-003-002-----0
 62
     1
  6
CONTINUOUS
 10
-246.967178
 20
119.023804
 11
-246.967178
 21
94.148163
  0
LINE
  8
LC-003-002-----0
 62
     1
  6
CONTINUOUS
 10
-246.967178
 20
47.023808
 11
-171.967178
 21
47.023808
  0
LINE
  8
LC-003-002-----0
 62
     1
  6
CONTINUOUS
 10
-180.967178
 20
119.023804
 11
-246.967178
 21
119.023804
  0
LINE
  8
LC-003-002-----0
 62
     1
  6
CONTINUOUS
 10
-171.967178
 20
47.023808
 11
-171.967178
 21
110.023804
  0
LINE
  8
LC-004-006-----0
 62
     2
  6
DASHDOT
 10
-246.967178
 20
82.023804
 11
-201.569550
 21
82.023804
  0
LINE
  8
LC-004-006-----0
 62
     2
  6
DASHDOT
 10
-225.967178
 20
105.562309
 11
-225.967178
 21
59.553493
  0
CIRCLE
  8
LC-003-002-----0
 62
     1
  6
CONTINUOUS
 10
-225.967178
 20
82.023804
 40
12.500000
  0
ARC
  8
LC-003-002-----0
 62
     1
  6
CONTINUOUS
 10
-225.967178
 20
82.023804
 40
20.000000
 50
210.000003
 51
149.999997
  0
ARC
  8
LC-003-002-----0
 62
     1
  6
CONTINUOUS
 10
-225.967178
 20
82.023804
 40
18.000000
 50
210.000003
 51
149.999997
  0
LINE
  8
LC-003-002-----0
 62
     1
  6
CONTINUOUS
 10
-236.792496
 20
88.273804
 11
-243.287689
 21
92.023804
  0
LINE
  8
LC-003-002-----0
 62
     1
  6
CONTINUOUS
 10
-236.792496
 20
75.773804
 11
-243.287689
 21
72.023804
  0
LINE
  8
LC-003-002-----0
 62
     1
  6
CONTINUOUS
 10
-246.967178
 20
69.899452
 11
-246.967178
 21
47.023808
  0
LINE
  8
LC-004-006-----0
 62
     2
  6
DASHDOT
 10
-197.967178
 20
123.448082
 11
-197.967178
 21
42.138397
  0
LINE
  8
LC-006-012-----0
 62
     2
  6
DASHED
 10
-191.967178
 20
73.023804
 11
-191.967178
 21
47.023811
  0
LINE
  8
LC-006-012-----0
 62
     2
  6
DASHED
 10
-203.967178
 20
73.023804
 11
-203.967178
 21
47.023811
  0
LINE
  8
LC-006-012-----0
 62
     2
  6
DASHED
 10
-192.717178
 20
108.023804
 11
-192.717178
 21
47.023811
  0
LINE
  8
LC-006-012-----0
 62
     2
  6
DASHED
 10
-203.217178
 20
108.023804
 11
-203.217178
 21
47.023811
  0
LINE
  8
LC-006-012-----0
 62
     2
  6
DASHED
 10
-203.967178
 20
73.023804
 11
-191.967178
 21
73.023804
  0
LINE
  8
LC-006-012-----0
 62
     2
  6
DASHED
 10
-206.967178
 20
108.023804
 11
-188.967178
 21
108.023804
  0
LINE
  8
LC-006-012-----0
 62
     2
  6
DASHED
 10
-188.967178
 20
119.023804
 11
-188.967178
 21
108.023804
  0
LINE
  8
LC-006-012-----0
 62
     2
  6
DASHED
 10
-206.967178
 20
119.023804
 11
-206.967178
 21
108.023804
  0
LINE
  8
LC-003-002-----0
 62
     1
  6
CONTINUOUS
 10
-243.287689
 20
92.023804
 11
-246.967178
 21
94.148163
  0
LINE
  8
LC-003-002-----0
 62
     1
  6
CONTINUOUS
 10
-243.287689
 20
72.023804
 11
-246.967178
 21
69.899452
  0
LINE
  8
LC-003-002-----0
 62
     1
  6
CONTINUOUS
 10
-246.967178
 20
-24.605150
 11
-246.967178
 21
-91.605148
  0
LINE
  8
LC-003-002-----0
 62
     1
  6
CONTINUOUS
 10
-246.967178
 20
-91.605148
 11
-171.967178
 21
-91.605148
  0
LINE
  8
LC-003-002-----0
 62
     1
  6
CONTINUOUS
 10
-171.967178
 20
-24.605150
 11
-171.967178
 21
-91.605148
  0
LINE
  8
LC-003-002-----0
 62
     1
  6
CONTINUOUS
 10
-246.967178
 20
-24.605150
 11
-171.967178
 21
-24.605150
  0
LINE
  8
LC-004-006-----0
 62
     2
  6
DASHDOT
 10
-225.967178
 20
-5.367238
 11
-225.967178
 21
-111.395638
  0
LINE
  8
LC-004-006-----0
 62
     2
  6
DASHDOT
 10
-209.536133
 20
-40.105152
 11
-186.008392
 21
-40.105152
  0
LINE
  8
LC-004-006-----0
 62
     2
  6
DASHDOT
 10
-197.967178
 20
-28.528843
 11
-197.967178
 21
-52.338932
  0
CIRCLE
  8
LC-003-002-----0
 62
     1
  6
CONTINUOUS
 10
-197.967178
 20
-40.105152
 40
9.000000
  0
CIRCLE
  8
LC-003-002-----0
 62
     1
  6
CONTINUOUS
 10
-197.967178
 20
-40.105152
 40
5.250000
  0
ARC
  8
LC-008-003-----0
 62
     2
  6
CONTINUOUS
 10
-197.967178
 20
-40.105152
 40
6.000000
 50
81.088935
 51
11.130757
  0
LINE
  8
LC-004-006-----0
 62
     2
  6
DASHDOT
 10
-209.536133
 20
-76.105148
 11
-186.008392
 21
-76.105148
  0
LINE
  8
LC-004-006-----0
 62
     2
  6
DASHDOT
 10
-197.967178
 20
-87.681458
 11
-197.967178
 21
-63.871372
  0
CIRCLE
  8
LC-003-002-----0
 62
     1
  6
CONTINUOUS
 10
-197.967178
 20
-76.105148
 40
9.000000
  0
CIRCLE
  8
LC-003-002-----0
 62
     1
  6
CONTINUOUS
 10
-197.967178
 20
-76.105148
 40
5.250000
  0
ARC
  8
LC-008-003-----0
 62
     2
  6
CONTINUOUS
 10
-197.967178
 20
-76.105148
 40
6.000000
 50
348.869243
 51
278.911065
  0
LINE
  8
LC-006-012-----0
 62
     2
  6
DASHED
 10
-205.967178
 20
-24.605150
 11
-205.967178
 21
-91.605148
  0
LINE
  8
LC-006-012-----0
 62
     2
  6
DASHED
 10
-236.792496
 20
-24.605150
 11
-236.792496
 21
-91.605148
  0
LINE
  8
LC-006-012-----0
 62
     2
  6
DASHED
 10
-243.287689
 20
-24.605150
 11
-243.287689
 21
-91.605148
  0
LINE
  8
LC-008-003-----0
 62
     2
  6
CONTINUOUS
 10
-238.467178
 20
-10.579694
 11
-232.797852
 21
-9.511110
  0
LINE
  8
LC-008-003-----0
 62
     2
  6
CONTINUOUS
 10
-232.797852
 20
-9.511110
 11
-219.691315
 21
-12.698703
  0
LINE
  8
LC-008-003-----0
 62
     2
  6
CONTINUOUS
 10
-219.691315
 20
-12.698703
 11
-213.467178
 21
-11.572472
  0
LINE
  8
LC-008-003-----0
 62
     2
  6
CONTINUOUS
 10
-238.467178
 20
-105.051834
 11
-231.106674
 21
-105.976730
  0
LINE
  8
LC-008-003-----0
 62
     2
  6
CONTINUOUS
 10
-231.106674
 20
-105.976730
 11
-220.959686
 21
-104.382935
  0
LINE
  8
LC-008-003-----0
 62
     2
  6
CONTINUOUS
 10
-220.959686
 20
-104.382935
 11
-213.467178
 21
-105.265579
  0
LINE
  8
LC-003-002-----0
 62
     1
  6
CONTINUOUS
 10
-238.467178
 20
-10.579694
 11
-238.467178
 21
-24.605150
  0
LINE
  8
LC-006-012-----0
 62
     2
  6
DASHED
 10
-238.467178
 20
-24.605150
 11
-238.467178
 21
-91.605148
  0
LINE
  8
LC-003-002-----0
 62
     1
  6
CONTINUOUS
 10
-213.467178
 20
-11.572472
 11
-213.467178
 21
-24.605150
  0
LINE
  8
LC-006-012-----0
 62
     2
  6
DASHED
 10
-213.467178
 20
-24.605150
 11
-213.467178
 21
-91.605148
  0
LINE
  8
LC-003-002-----0
 62
     1
  6
CONTINUOUS
 10
-213.467178
 20
-91.605148
 11
-213.467178
 21
-105.265579
  0
LINE
  8
LC-003-002-----0
 62
     1
  6
CONTINUOUS
 10
-238.467178
 20
-91.605148
 11
-238.467178
 21
-105.051834
  0
LINE
  8
LC-003-002-----0
 62
     1
  6
CONTINUOUS
 10
-91.100685
 20
47.023808
 11
-24.100681
 21
47.023808
  0
LINE
  8
LC-003-002-----0
 62
     1
  6
CONTINUOUS
 10
-24.100683
 20
47.023808
 11
-24.100683
 21
119.023804
  0
LINE
  8
LC-003-002-----0
 62
     1
  6
CONTINUOUS
 10
-91.100685
 20
119.023804
 11
-24.100681
 21
119.023804
  0
LINE
  8
LC-003-002-----0
 62
     1
  6
CONTINUOUS
 10
-91.100685
 20
47.023808
 11
-91.100685
 21
119.023804
  0
LINE
  8
LC-006-012-----0
 62
     2
  6
DASHED
 10
-33.600685
 20
73.023804
 11
-33.600685
 21
47.023811
  0
LINE
  8
LC-006-012-----0
 62
     2
  6
DASHED
 10
-45.600685
 20
73.023804
 11
-45.600685
 21
47.023811
  0
LINE
  8
LC-006-012-----0
 62
     2
  6
DASHED
 10
-69.600685
 20
73.023804
 11
-69.600685
 21
47.023811
  0
LINE
  8
LC-006-012-----0
 62
     2
  6
DASHED
 10
-81.600685
 20
73.023804
 11
-81.600685
 21
47.023811
  0
LINE
  8
LC-006-012-----0
 62
     2
  6
DASHED
 10
-70.350685
 20
108.023804
 11
-70.350685
 21
47.023811
  0
LINE
  8
LC-006-012-----0
 62
     2
  6
DASHED
 10
-80.850685
 20
108.023804
 11
-80.850685
 21
47.023811
  0
LINE
  8
LC-006-012-----0
 62
     2
  6
DASHED
 10
-81.600685
 20
73.023804
 11
-69.600685
 21
73.023804
  0
LINE
  8
LC-006-012-----0
 62
     2
  6
DASHED
 10
-91.100685
 20
102.023804
 11
-24.100681
 21
102.023804
  0
LINE
  8
LC-006-012-----0
 62
     2
  6
DASHED
 10
-84.600685
 20
119.023804
 11
-84.600685
 21
108.023804
  0
LINE
  8
LC-004-006-----0
 62
     2
  6
DASHDOT
 10
-75.600685
 20
123.448082
 11
-75.600685
 21
42.138397
  0
LINE
  8
LC-006-012-----0
 62
     2
  6
DASHED
 10
-66.600685
 20
119.023804
 11
-66.600685
 21
108.023804
  0
LINE
  8
LC-006-012-----0
 62
     2
  6
DASHED
 10
-84.600685
 20
108.023804
 11
-66.600685
 21
108.023804
  0
LINE
  8
LC-006-012-----0
 62
     2
  6
DASHED
 10
-34.350685
 20
108.023804
 11
-34.350685
 21
47.023811
  0
LINE
  8
LC-006-012-----0
 62
     2
  6
DASHED
 10
-44.850685
 20
108.023804
 11
-44.850685
 21
47.023811
  0
LINE
  8
LC-006-012-----0
 62
     2
  6
DASHED
 10
-45.600685
 20
73.023804
 11
-33.600685
 21
73.023804
  0
LINE
  8
LC-006-012-----0
 62
     2
  6
DASHED
 10
-48.600685
 20
119.023804
 11
-48.600685
 21
108.023804
  0
LINE
  8
LC-004-006-----0
 62
     2
  6
DASHDOT
 10
-39.600685
 20
123.448082
 11
-39.600685
 21
42.138397
  0
LINE
  8
LC-006-012-----0
 62
     2
  6
DASHED
 10
-30.600683
 20
119.023804
 11
-30.600683
 21
108.023804
  0
LINE
  8
LC-006-012-----0
 62
     2
  6
DASHED
 10
-48.600685
 20
108.023804
 11
-30.600681
 21
108.023804
  0
LINE
  8
LC-006-012-----0
 62
     2
  6
DASHED
 10
-91.100685
 20
62.023808
 11
-24.100681
 21
62.023808
  0
LINE
  8
LC-003-002-----0
 62
     1
  6
CONTINUOUS
 10
-91.100685
 20
94.148163
 11
-24.100681
 21
94.148163
  0
LINE
  8
LC-003-002-----0
 62
     1
  6
CONTINUOUS
 10
-91.100685
 20
69.899452
 11
-24.100681
 21
69.899452
  0
LINE
  8
LC-003-002-----0
 62
     1
  6
CONTINUOUS
 10
-91.100685
 20
92.023804
 11
-24.100681
 21
92.023804
  0
LINE
  8
LC-003-002-----0
 62
     1
  6
CONTINUOUS
 10
-91.100685
 20
72.023804
 11
-24.100681
 21
72.023804
  0
LINE
  8
LC-003-002-----0
 62
     1
  6
CONTINUOUS
 10
-91.100685
 20
88.273804
 11
-24.100681
 21
88.273804
  0
LINE
  8
LC-003-002-----0
 62
     1
  6
CONTINUOUS
 10
-91.100685
 20
75.773804
 11
-24.100681
 21
75.773804
  0
LINE
  8
LC-003-002-----0
 62
     1
  6
CONTINUOUS
 10
-108.165482
 20
94.523804
 11
-91.100685
 21
94.523804
  0
LINE
  8
LC-004-006-----0
 62
     2
  6
DASHDOT
 10
-113.134361
 20
82.023804
 11
-2.732602
 21
82.023804
  0
LINE
  8
LC-008-003-----0
 62
     2
  6
CONTINUOUS
 10
-7.057607
 20
69.523804
 11
-7.481064
 21
77.664970
  0
LINE
  8
LC-008-003-----0
 62
     2
  6
CONTINUOUS
 10
-7.481064
 20
77.664970
 11
-6.689654
 21
88.106804
  0
LINE
  8
LC-008-003-----0
 62
     2
  6
CONTINUOUS
 10
-6.689654
 20
88.106804
 11
-7.935208
 21
94.523804
  0
LINE
  8
LC-008-003-----0
 62
     2
  6
CONTINUOUS
 10
-109.129189
 20
69.523804
 11
-108.385902
 21
75.874947
  0
LINE
  8
LC-008-003-----0
 62
     2
  6
CONTINUOUS
 10
-108.385902
 20
75.874947
 11
-108.385902
 21
87.211792
  0
LINE
  8
LC-008-003-----0
 62
     2
  6
CONTINUOUS
 10
-108.385902
 20
87.211792
 11
-108.165482
 21
94.523804
  0
LINE
  8
LC-003-002-----0
 62
     1
  6
CONTINUOUS
 10
-109.129189
 20
69.523804
 11
-91.100685
 21
69.523804
  0
LINE
  8
LC-006-012-----0
 62
     2
  6
DASHED
 10
-91.100685
 20
69.523804
 11
-24.100681
 21
69.523804
  0
LINE
  8
LC-006-012-----0
 62
     2
  6
DASHED
 10
-91.100685
 20
94.523804
 11
-24.100681
 21
94.523804
  0
LINE
  8
LC-003-002-----0
 62
     1
  6
CONTINUOUS
 10
-24.100683
 20
94.523804
 11
-7.935209
 21
94.523804
  0
LINE
  8
LC-003-002-----0
 62
     1
  6
CONTINUOUS
 10
-24.100683
 20
69.523804
 11
-7.057608
 21
69.523804
  0
LINE
  8
LC-006-012-----0
 62
     2
  6
DASHED
 10
-220.967178
 20
108.223808
 11
-220.967178
 21
119.023804
  0
LINE
  8
LC-006-012-----0
 62
     2
  6
DASHED
 10
-225.467178
 20
107.723808
 11
-225.467178
 21
102.223808
  0
LINE
  8
LC-006-012-----0
 62
     2
  6
DASHED
 10
-229.467178
 20
107.723808
 11
-229.467178
 21
102.223808
  0
LINE
  8
LC-006-012-----0
 62
     2
  6
DASHED
 10
-224.967178
 20
102.473808
 11
-224.967178
 21
107.723808
  0
LINE
  8
LC-006-012-----0
 62
     2
  6
DASHED
 10
-229.967178
 20
107.723808
 11
-229.967178
 21
102.473808
  0
LINE
  8
LC-006-012-----0
 62
     2
  6
DASHED
 10
-230.017181
 20
110.223808
 11
-224.917175
 21
110.223808
  0
LINE
  8
LC-006-012-----0
 62
     2
  6
DASHED
 10
-228.967178
 20
99.123810
 11
-225.967178
 21
99.123810
  0
LINE
  8
LC-006-012-----0
 62
     2
  6
DASHED
 10
-225.217178
 20
102.223808
 11
-224.967178
 21
102.473808
  0
LINE
  8
LC-006-012-----0
 62
     2
  6
DASHED
 10
-229.967178
 20
102.473808
 11
-229.717178
 21
102.223808
  0
LINE
  8
LC-006-012-----0
 62
     2
  6
DASHED
 10
-229.967178
 20
102.473808
 11
-224.967178
 21
102.473808
  0
LINE
  8
LC-006-012-----0
 62
     2
  6
DASHED
 10
-233.967178
 20
108.223808
 11
-220.967178
 21
108.223808
  0
LINE
  8
LC-006-012-----0
 62
     2
  6
DASHED
 10
-224.167175
 20
110.076889
 11
-224.167175
 21
108.223808
  0
LINE
  8
LC-006-012-----0
 62
     2
  6
DASHED
 10
-230.767181
 20
110.076889
 11
-230.767181
 21
108.223808
  0
LINE
  8
LC-006-012-----0
 62
     2
  6
DASHED
 10
-225.667175
 20
110.076889
 11
-225.667175
 21
108.223808
  0
LINE
  8
LC-006-012-----0
 62
     2
  6
DASHED
 10
-229.267181
 20
110.076889
 11
-229.267181
 21
108.223808
  0
LINE
  8
LC-006-012-----0
 62
     2
  6
DASHED
 10
-229.717178
 20
102.223808
 11
-225.217178
 21
102.223808
  0
ARC
  8
LC-006-012-----0
 62
     2
  6
DASHED
 10
-227.467178
 20
99.123810
 40
11.100000
 50
80.667580
 51
99.332418
  0
ARC
  8
LC-006-012-----0
 62
     2
  6
DASHED
 10
-230.017181
 20
108.223808
 40
1.999103
 50
67.965286
 51
112.034712
  0
LINE
  8
LC-006-012-----0
 62
     2
  6
DASHED
 10
-225.717178
 20
102.223808
 11
-225.717178
 21
99.373810
  0
ARC
  8
LC-006-012-----0
 62
     2
  6
DASHED
 10
-224.917175
 20
108.223808
 40
1.999103
 50
67.965286
 51
112.034712
  0
LINE
  8
LC-006-012-----0
 62
     2
  6
DASHED
 10
-229.967178
 20
107.723808
 11
-224.967178
 21
107.723808
  0
LINE
  8
LC-006-012-----0
 62
     2
  6
DASHED
 10
-225.267181
 20
108.223808
 11
-225.267181
 21
107.723808
  0
LINE
  8
LC-006-012-----0
 62
     2
  6
DASHED
 10
-229.667175
 20
108.223808
 11
-229.667175
 21
107.723808
  0
LINE
  8
LC-006-012-----0
 62
     2
  6
DASHED
 10
-229.217178
 20
102.223808
 11
-229.217178
 21
99.373810
  0
ARC
  8
LC-006-012-----0
 62
     2
  6
DASHED
 10
-225.967178
 20
99.373810
 40
0.250000
 50
269.999997
 51
0.000000
  0
ARC
  8
LC-006-012-----0
 62
     2
  6
DASHED
 10
-228.967178
 20
99.373810
 40
0.250000
 50
180.000009
 51
269.999997
  0
LINE
  8
LC-006-012-----0
 62
     2
  6
DASHED
 10
-233.967178
 20
108.223808
 11
-233.967178
 21
119.023804
  0
LINE
  8
LC-004-006-----0
 62
     2
  6
DASHDOT
 10
-227.467178
 20
97.804253
 11
-227.467178
 21
121.304565
  0
LINE
  8
LC-006-012-----0
 62
     2
  6
DASHED
 10
-51.100685
 20
108.223808
 11
-51.100685
 21
119.023804
  0
LINE
  8
LC-006-012-----0
 62
     2
  6
DASHED
 10
-55.600685
 20
107.723808
 11
-55.600685
 21
102.223808
  0
LINE
  8
LC-006-012-----0
 62
     2
  6
DASHED
 10
-64.100685
 20
108.223808
 11
-64.100685
 21
119.023804
  0
ARC
  8
LC-006-012-----0
 62
     2
  6
DASHED
 10
-59.100685
 20
99.373810
 40
0.250000
 50
180.000009
 51
269.999997
  0
ARC
  8
LC-006-012-----0
 62
     2
  6
DASHED
 10
-56.100685
 20
99.373810
 40
0.250000
 50
269.999997
 51
0.000000
  0
LINE
  8
LC-006-012-----0
 62
     2
  6
DASHED
 10
-59.350685
 20
102.223808
 11
-59.350685
 21
99.373810
  0
LINE
  8
LC-006-012-----0
 62
     2
  6
DASHED
 10
-59.800686
 20
108.223808
 11
-59.800686
 21
107.723808
  0
LINE
  8
LC-006-012-----0
 62
     2
  6
DASHED
 10
-55.400684
 20
108.223808
 11
-55.400684
 21
107.723808
  0
LINE
  8
LC-006-012-----0
 62
     2
  6
DASHED
 10
-60.100685
 20
107.723808
 11
-55.100685
 21
107.723808
  0
ARC
  8
LC-006-012-----0
 62
     2
  6
DASHED
 10
-55.050686
 20
108.223808
 40
1.999103
 50
67.965286
 51
112.034712
  0
LINE
  8
LC-006-012-----0
 62
     2
  6
DASHED
 10
-55.850685
 20
102.223808
 11
-55.850685
 21
99.373810
  0
ARC
  8
LC-006-012-----0
 62
     2
  6
DASHED
 10
-60.150684
 20
108.223808
 40
1.999103
 50
67.965286
 51
112.034712
  0
ARC
  8
LC-006-012-----0
 62
     2
  6
DASHED
 10
-57.600685
 20
99.123810
 40
11.100000
 50
80.667580
 51
99.332418
  0
LINE
  8
LC-006-012-----0
 62
     2
  6
DASHED
 10
-59.850685
 20
102.223808
 11
-55.350685
 21
102.223808
  0
LINE
  8
LC-006-012-----0
 62
     2
  6
DASHED
 10
-59.400684
 20
110.076889
 11
-59.400684
 21
108.223808
  0
LINE
  8
LC-006-012-----0
 62
     2
  6
DASHED
 10
-55.800686
 20
110.076889
 11
-55.800686
 21
108.223808
  0
LINE
  8
LC-006-012-----0
 62
     2
  6
DASHED
 10
-60.900684
 20
110.076889
 11
-60.900684
 21
108.223808
  0
LINE
  8
LC-006-012-----0
 62
     2
  6
DASHED
 10
-54.300686
 20
110.076889
 11
-54.300686
 21
108.223808
  0
LINE
  8
LC-006-012-----0
 62
     2
  6
DASHED
 10
-64.100685
 20
108.223808
 11
-51.100685
 21
108.223808
  0
LINE
  8
LC-006-012-----0
 62
     2
  6
DASHED
 10
-60.100685
 20
102.473808
 11
-55.100685
 21
102.473808
  0
LINE
  8
LC-006-012-----0
 62
     2
  6
DASHED
 10
-60.100685
 20
102.473808
 11
-59.850685
 21
102.223808
  0
LINE
  8
LC-006-012-----0
 62
     2
  6
DASHED
 10
-55.350685
 20
102.223808
 11
-55.100685
 21
102.473808
  0
LINE
  8
LC-006-012-----0
 62
     2
  6
DASHED
 10
-59.100685
 20
99.123810
 11
-56.100685
 21
99.123810
  0
LINE
  8
LC-006-012-----0
 62
     2
  6
DASHED
 10
-60.150684
 20
110.223808
 11
-55.050686
 21
110.223808
  0
LINE
  8
LC-006-012-----0
 62
     2
  6
DASHED
 10
-60.100685
 20
107.723808
 11
-60.100685
 21
102.473808
  0
LINE
  8
LC-006-012-----0
 62
     2
  6
DASHED
 10
-55.100685
 20
102.473808
 11
-55.100685
 21
107.723808
  0
LINE
  8
LC-006-012-----0
 62
     2
  6
DASHED
 10
-59.600685
 20
107.723808
 11
-59.600685
 21
102.223808
  0
LINE
  8
LC-004-006-----0
 62
     2
  6
DASHDOT
 10
-57.600685
 20
97.804253
 11
-57.600685
 21
121.783524
  0
CIRCLE
  8
LC-003-002-----0
 62
     1
  6
CONTINUOUS
 10
-227.467178
 20
-58.105152
 40
6.500000
  0
LINE
  8
LC-003-002-----0
 62
     1
  6
CONTINUOUS
 10
-230.327179
 20
-59.756374
 11
-227.467178
 21
-61.407593
  0
LINE
  8
LC-003-002-----0
 62
     1
  6
CONTINUOUS
 10
-227.467178
 20
-54.802708
 11
-224.607178
 21
-56.453930
  0
LINE
  8
LC-003-002-----0
 62
     1
  6
CONTINUOUS
 10
-230.327179
 20
-56.453930
 11
-230.327179
 21
-59.756374
  0
LINE
  8
LC-003-002-----0
 62
     1
  6
CONTINUOUS
 10
-224.607178
 20
-56.453930
 11
-224.607178
 21
-59.756374
  0
LINE
  8
LC-003-002-----0
 62
     1
  6
CONTINUOUS
 10
-227.467178
 20
-54.802708
 11
-230.327179
 21
-56.453930
  0
LINE
  8
LC-003-002-----0
 62
     1
  6
CONTINUOUS
 10
-224.607178
 20
-59.756374
 11
-227.467178
 21
-61.407593
  0
CIRCLE
  8
LC-003-002-----0
 62
     1
  6
CONTINUOUS
 10
-227.467178
 20
-58.105152
 40
2.860000
  0
LINE
  8
LC-004-006-----0
 62
     2
  6
DASHDOT
 10
-235.922577
 20
-58.105152
 11
-219.081284
 21
-58.105152
  0
LINE
  8
LC-004-006-----0
 62
     2
  6
DASHDOT
 10
-227.467178
 20
-66.560547
 11
-227.467178
 21
-49.719265
  0
LINE
  8
LC-003-002-----0
 62
     1
  6
CONTINUOUS
 10
-171.967178
 20
110.023804
 11
-180.967178
 21
119.023804
  0
LINE
  8
LC-003-002-----0
 62
     1
  6
CONTINUOUS
 10
-180.967178
 20
-24.605150
 11
-180.967178
 21
-91.605148
  0
LINE
  8
LC-006-012-----0
 62
     2
  6
DASHED
 10
-91.100685
 20
110.023804
 11
-24.100681
 21
110.023804
  0
ENDSEC
  0
EOF
