  0
SECTION
  2
HEADER
  9
$LIMMIN
 10
87.410034
 20
-136.756271
  9
$LIMMAX
 10
405.792297
 20
147.205536
  9
$EXTMIN
 10
87.410034
 20
-136.756271
  9
$EXTMAX
 10
405.792297
 20
147.205536
  0
ENDSEC
  0
SECTION
  2
TABLES
  0
TABLE
  2
LTYPE
 70
     3
  0
LTYPE
  2
CONTINUOUS
 70
    64
  3
Ausgezogene Linie
 72
    65
 73
     0
 40
0.0
  0
LTYPE
  2
DASHED
 70
    64
  3
__ __ __ __ __ __ __ __ __ __ __ __ __ __ __
 72
    65
 73
     2
 40
0.75
 49
0.5
 49
-0.25
  0
LTYPE
  2
DASHDOT
 70
    64
  3
__ . __ . __ . __ . __ . __ . __ . __ . __ . __
 72
    65
 73
     4
 40
1.0
 49
0.5
 49
-0.25
 49
0.0
 49
-0.25
  0
ENDTAB
  0
TABLE
  2
LAYER
 70
     4
  0
LAYER
  2
LC-003-002-----0
 70
    64
 62
     7
  6
CONTINUOUS
  0
LAYER
  2
LC-004-006-----0
 70
    64
 62
     7
  6
CONTINUOUS
  0
LAYER
  2
LC-006-012-----0
 70
    64
 62
     7
  6
CONTINUOUS
  0
LAYER
  2
LC-008-003-----0
 70
    64
 62
     7
  6
CONTINUOUS
  0
ENDTAB
  0
TABLE
  2
STYLE
 70
     1
  0
STYLE
  2
TXT8
 70
    64
 40
0.0
 41
1.0
 50
0.0
 71
     0
 42
3.500000
  3
TXT8
  4

  0
ENDTAB
  0
ENDSEC
  0
SECTION
  2
BLOCKS
  0
ENDSEC
  0
SECTION
  2
ENTITIES
  0
LINE
  8
LC-003-002-----0
 62
     1
  6
CONTINUOUS
 10
87.410034
 20
142.243805
 11
87.410034
 21
102.165665
  0
LINE
  8
LC-003-002-----0
 62
     1
  6
CONTINUOUS
 10
87.410034
 20
42.243809
 11
197.410034
 21
42.243809
  0
LINE
  8
LC-003-002-----0
 62
     1
  6
CONTINUOUS
 10
87.410034
 20
142.243805
 11
185.410034
 21
142.243805
  0
LINE
  8
LC-003-002-----0
 62
     1
  6
CONTINUOUS
 10
197.410034
 20
130.243805
 11
197.410034
 21
42.243813
  0
LINE
  8
LC-004-006-----0
 62
     2
  6
DASHDOT
 10
119.410034
 20
124.194466
 11
119.410034
 21
50.595573
  0
LINE
  8
LC-004-006-----0
 62
     2
  6
DASHDOT
 10
87.410034
 20
87.243813
 11
155.483597
 21
87.243813
  0
CIRCLE
  8
LC-003-002-----0
 62
     1
  6
CONTINUOUS
 10
119.410034
 20
87.243813
 40
20.000000
  0
ARC
  8
LC-003-002-----0
 62
     1
  6
CONTINUOUS
 10
119.410034
 20
87.243813
 40
31.000000
 50
205.000004
 51
154.999996
  0
ARC
  8
LC-003-002-----0
 62
     1
  6
CONTINUOUS
 10
119.410034
 20
87.243813
 40
28.000000
 50
205.000004
 51
154.999996
  0
LINE
  8
LC-003-002-----0
 62
     1
  6
CONTINUOUS
 10
101.283875
 20
95.696175
 11
91.314491
 21
100.344978
  0
LINE
  8
LC-003-002-----0
 62
     1
  6
CONTINUOUS
 10
101.283875
 20
78.791443
 11
91.314491
 21
74.142647
  0
LINE
  8
LC-003-002-----0
 62
     1
  6
CONTINUOUS
 10
87.410034
 20
72.321960
 11
87.410034
 21
42.243813
  0
LINE
  8
LC-004-006-----0
 62
     2
  6
DASHDOT
 10
162.410034
 20
147.205536
 11
162.410034
 21
35.254860
  0
LINE
  8
LC-006-012-----0
 62
     2
  6
DASHED
 10
172.410034
 20
85.243813
 11
172.410034
 21
42.243805
  0
LINE
  8
LC-006-012-----0
 62
     2
  6
DASHED
 10
152.410034
 20
85.243813
 11
152.410034
 21
42.243805
  0
LINE
  8
LC-006-012-----0
 62
     2
  6
DASHED
 10
170.410034
 20
128.243805
 11
170.410034
 21
42.243813
  0
LINE
  8
LC-006-012-----0
 62
     2
  6
DASHED
 10
154.410034
 20
128.243805
 11
154.410034
 21
42.243813
  0
LINE
  8
LC-006-012-----0
 62
     2
  6
DASHED
 10
152.410034
 20
85.243813
 11
172.410034
 21
85.243813
  0
LINE
  8
LC-006-012-----0
 62
     2
  6
DASHED
 10
149.410034
 20
128.243805
 11
175.410034
 21
128.243805
  0
LINE
  8
LC-006-012-----0
 62
     2
  6
DASHED
 10
175.410034
 20
142.243805
 11
175.410034
 21
128.243805
  0
LINE
  8
LC-006-012-----0
 62
     2
  6
DASHED
 10
149.410034
 20
142.243805
 11
149.410034
 21
128.243805
  0
LINE
  8
LC-003-002-----0
 62
     1
  6
CONTINUOUS
 10
91.314491
 20
100.344978
 11
87.410034
 21
102.165657
  0
LINE
  8
LC-003-002-----0
 62
     1
  6
CONTINUOUS
 10
91.314491
 20
74.142647
 11
87.410034
 21
72.321960
  0
LINE
  8
LC-003-002-----0
 62
     1
  6
CONTINUOUS
 10
87.410034
 20
-24.356667
 11
87.410034
 21
-115.356667
  0
LINE
  8
LC-003-002-----0
 62
     1
  6
CONTINUOUS
 10
87.410034
 20
-115.356667
 11
197.410034
 21
-115.356667
  0
LINE
  8
LC-003-002-----0
 62
     1
  6
CONTINUOUS
 10
197.410034
 20
-24.356667
 11
197.410034
 21
-115.356667
  0
LINE
  8
LC-003-002-----0
 62
     1
  6
CONTINUOUS
 10
87.410034
 20
-24.356667
 11
197.410034
 21
-24.356667
  0
LINE
  8
LC-004-006-----0
 62
     2
  6
DASHDOT
 10
162.410034
 20
-29.147160
 11
162.410034
 21
-62.964447
  0
LINE
  8
LC-006-012-----0
 62
     2
  6
DASHED
 10
91.314491
 20
-24.356667
 11
91.314491
 21
-115.356667
  0
LINE
  8
LC-004-006-----0
 62
     2
  6
DASHDOT
 10
145.118515
 20
-45.856667
 11
179.564957
 21
-45.856667
  0
CIRCLE
  8
LC-003-002-----0
 62
     1
  6
CONTINUOUS
 10
162.410034
 20
-45.856667
 40
8.000000
  0
ARC
  8
LC-008-003-----0
 62
     2
  6
CONTINUOUS
 10
162.410034
 20
-45.856667
 40
10.000000
 50
81.402522
 51
8.797182
  0
CIRCLE
  8
LC-003-002-----0
 62
     1
  6
CONTINUOUS
 10
162.410034
 20
-45.856667
 40
13.000000
  0
LINE
  8
LC-004-006-----0
 62
     2
  6
DASHDOT
 10
162.410034
 20
-110.566170
 11
162.410034
 21
-76.748886
  0
LINE
  8
LC-004-006-----0
 62
     2
  6
DASHDOT
 10
145.118515
 20
-93.856667
 11
179.564957
 21
-93.856667
  0
CIRCLE
  8
LC-003-002-----0
 62
     1
  6
CONTINUOUS
 10
162.410034
 20
-93.856667
 40
8.000000
  0
ARC
  8
LC-008-003-----0
 62
     2
  6
CONTINUOUS
 10
162.410034
 20
-93.856667
 40
10.000000
 50
351.202818
 51
278.597478
  0
CIRCLE
  8
LC-003-002-----0
 62
     1
  6
CONTINUOUS
 10
162.410034
 20
-93.856667
 40
13.000000
  0
LINE
  8
LC-006-012-----0
 62
     2
  6
DASHED
 10
101.283875
 20
-24.356667
 11
101.283875
 21
-115.356667
  0
LINE
  8
LC-006-012-----0
 62
     2
  6
DASHED
 10
150.410034
 20
-24.356667
 11
150.410034
 21
-115.356667
  0
LINE
  8
LC-004-006-----0
 62
     2
  6
DASHDOT
 10
119.410034
 20
-3.595369
 11
119.410034
 21
-136.756271
  0
LINE
  8
LC-003-002-----0
 62
     1
  6
CONTINUOUS
 10
99.410034
 20
-7.459763
 11
99.410034
 21
-24.356667
  0
LINE
  8
LC-003-002-----0
 62
     1
  6
CONTINUOUS
 10
139.410034
 20
-7.276847
 11
139.410034
 21
-24.356667
  0
LINE
  8
LC-008-003-----0
 62
     2
  6
CONTINUOUS
 10
99.410034
 20
-7.459763
 11
109.719994
 21
-9.208709
  0
LINE
  8
LC-008-003-----0
 62
     2
  6
CONTINUOUS
 10
109.719994
 20
-9.208709
 11
134.124161
 21
-6.402039
  0
LINE
  8
LC-008-003-----0
 62
     2
  6
CONTINUOUS
 10
134.124161
 20
-6.402039
 11
139.410034
 21
-7.276847
  0
LINE
  8
LC-008-003-----0
 62
     2
  6
CONTINUOUS
 10
99.410034
 20
-131.852264
 11
111.374512
 21
-130.831070
  0
LINE
  8
LC-008-003-----0
 62
     2
  6
CONTINUOUS
 10
111.374512
 20
-130.831070
 11
131.228745
 21
-134.261459
  0
LINE
  8
LC-008-003-----0
 62
     2
  6
CONTINUOUS
 10
131.228745
 20
-134.261459
 11
139.410034
 21
-133.517014
  0
LINE
  8
LC-006-012-----0
 62
     2
  6
DASHED
 10
99.410034
 20
-24.356667
 11
99.410034
 21
-115.356667
  0
LINE
  8
LC-006-012-----0
 62
     2
  6
DASHED
 10
139.410034
 20
-24.356667
 11
139.410034
 21
-115.356667
  0
LINE
  8
LC-003-002-----0
 62
     1
  6
CONTINUOUS
 10
139.410034
 20
-115.356667
 11
139.410034
 21
-133.517014
  0
LINE
  8
LC-003-002-----0
 62
     1
  6
CONTINUOUS
 10
99.410034
 20
-115.356667
 11
99.410034
 21
-131.852264
  0
LINE
  8
LC-003-002-----0
 62
     1
  6
CONTINUOUS
 10
289.629883
 20
42.243809
 11
380.629883
 21
42.243809
  0
LINE
  8
LC-003-002-----0
 62
     1
  6
CONTINUOUS
 10
380.629883
 20
42.243809
 11
380.629883
 21
142.243805
  0
LINE
  8
LC-003-002-----0
 62
     1
  6
CONTINUOUS
 10
289.629883
 20
142.243805
 11
380.629883
 21
142.243805
  0
LINE
  8
LC-003-002-----0
 62
     1
  6
CONTINUOUS
 10
289.629883
 20
42.243809
 11
289.629883
 21
142.243805
  0
LINE
  8
LC-004-006-----0
 62
     2
  6
DASHDOT
 10
359.129883
 20
147.205536
 11
359.129883
 21
35.254860
  0
LINE
  8
LC-004-006-----0
 62
     2
  6
DASHDOT
 10
311.129883
 20
147.205536
 11
311.129883
 21
35.254860
  0
LINE
  8
LC-006-012-----0
 62
     2
  6
DASHED
 10
321.129883
 20
85.243813
 11
321.129883
 21
42.243805
  0
LINE
  8
LC-006-012-----0
 62
     2
  6
DASHED
 10
301.129883
 20
85.243813
 11
301.129883
 21
42.243805
  0
LINE
  8
LC-006-012-----0
 62
     2
  6
DASHED
 10
319.129883
 20
128.243805
 11
319.129883
 21
42.243813
  0
LINE
  8
LC-006-012-----0
 62
     2
  6
DASHED
 10
303.129883
 20
128.243805
 11
303.129883
 21
42.243813
  0
LINE
  8
LC-006-012-----0
 62
     2
  6
DASHED
 10
301.129883
 20
85.243813
 11
321.129883
 21
85.243813
  0
LINE
  8
LC-006-012-----0
 62
     2
  6
DASHED
 10
298.129883
 20
128.243805
 11
324.129883
 21
128.243805
  0
LINE
  8
LC-006-012-----0
 62
     2
  6
DASHED
 10
324.129883
 20
142.243805
 11
324.129883
 21
128.243805
  0
LINE
  8
LC-006-012-----0
 62
     2
  6
DASHED
 10
298.129883
 20
142.243805
 11
298.129883
 21
128.243805
  0
LINE
  8
LC-003-002-----0
 62
     1
  6
CONTINUOUS
 10
266.858002
 20
107.243813
 11
289.629883
 21
107.243813
  0
LINE
  8
LC-006-012-----0
 62
     2
  6
DASHED
 10
369.129883
 20
85.243813
 11
369.129883
 21
42.243805
  0
LINE
  8
LC-006-012-----0
 62
     2
  6
DASHED
 10
349.129883
 20
85.243813
 11
349.129883
 21
42.243805
  0
LINE
  8
LC-006-012-----0
 62
     2
  6
DASHED
 10
367.129883
 20
128.243805
 11
367.129883
 21
42.243813
  0
LINE
  8
LC-006-012-----0
 62
     2
  6
DASHED
 10
351.129883
 20
128.243805
 11
351.129883
 21
42.243813
  0
LINE
  8
LC-006-012-----0
 62
     2
  6
DASHED
 10
349.129883
 20
85.243813
 11
369.129883
 21
85.243813
  0
LINE
  8
LC-006-012-----0
 62
     2
  6
DASHED
 10
346.129883
 20
128.243805
 11
372.129883
 21
128.243805
  0
LINE
  8
LC-006-012-----0
 62
     2
  6
DASHED
 10
372.129883
 20
142.243805
 11
372.129883
 21
128.243805
  0
LINE
  8
LC-006-012-----0
 62
     2
  6
DASHED
 10
346.129883
 20
142.243805
 11
346.129883
 21
128.243805
  0
LINE
  8
LC-003-002-----0
 62
     1
  6
CONTINUOUS
 10
269.930969
 20
67.243813
 11
289.629883
 21
67.243813
  0
LINE
  8
LC-003-002-----0
 62
     1
  6
CONTINUOUS
 10
289.629883
 20
102.165657
 11
380.629883
 21
102.165657
  0
LINE
  8
LC-003-002-----0
 62
     1
  6
CONTINUOUS
 10
289.629883
 20
100.344978
 11
380.629883
 21
100.344978
  0
LINE
  8
LC-003-002-----0
 62
     1
  6
CONTINUOUS
 10
289.629883
 20
95.696175
 11
380.629883
 21
95.696175
  0
LINE
  8
LC-003-002-----0
 62
     1
  6
CONTINUOUS
 10
289.629883
 20
78.791443
 11
380.629883
 21
78.791443
  0
LINE
  8
LC-003-002-----0
 62
     1
  6
CONTINUOUS
 10
289.629883
 20
74.142647
 11
380.629883
 21
74.142647
  0
LINE
  8
LC-003-002-----0
 62
     1
  6
CONTINUOUS
 10
289.629883
 20
72.321960
 11
380.629883
 21
72.321960
  0
LINE
  8
LC-004-006-----0
 62
     2
  6
DASHDOT
 10
264.011566
 20
87.243813
 11
405.792297
 21
87.243813
  0
LINE
  8
LC-008-003-----0
 62
     2
  6
CONTINUOUS
 10
401.492249
 20
67.243813
 11
400.025940
 21
77.746155
  0
LINE
  8
LC-008-003-----0
 62
     2
  6
CONTINUOUS
 10
400.025940
 20
77.746155
 11
400.550140
 21
96.717117
  0
LINE
  8
LC-008-003-----0
 62
     2
  6
CONTINUOUS
 10
400.550140
 20
96.717117
 11
400.042419
 21
107.243813
  0
LINE
  8
LC-008-003-----0
 62
     2
  6
CONTINUOUS
 10
269.930969
 20
67.243813
 11
270.302155
 21
80.117523
  0
LINE
  8
LC-008-003-----0
 62
     2
  6
CONTINUOUS
 10
270.302155
 20
80.117523
 11
266.632629
 21
99.088486
  0
LINE
  8
LC-008-003-----0
 62
     2
  6
CONTINUOUS
 10
266.632629
 20
99.088486
 11
266.858002
 21
107.243813
  0
LINE
  8
LC-006-012-----0
 62
     2
  6
DASHED
 10
289.629883
 20
107.243813
 11
380.629883
 21
107.243813
  0
LINE
  8
LC-006-012-----0
 62
     2
  6
DASHED
 10
289.629883
 20
67.243813
 11
380.629883
 21
67.243813
  0
LINE
  8
LC-003-002-----0
 62
     1
  6
CONTINUOUS
 10
380.629883
 20
67.243813
 11
401.492249
 21
67.243813
  0
LINE
  8
LC-003-002-----0
 62
     1
  6
CONTINUOUS
 10
380.629883
 20
107.243813
 11
400.042419
 21
107.243813
  0
LINE
  8
LC-006-012-----0
 62
     2
  6
DASHED
 10
114.410034
 20
124.443810
 11
114.410034
 21
142.243805
  0
LINE
  8
LC-006-012-----0
 62
     2
  6
DASHED
 10
118.910034
 20
123.943810
 11
118.910034
 21
118.443810
  0
LINE
  8
LC-006-012-----0
 62
     2
  6
DASHED
 10
122.910034
 20
123.943810
 11
122.910034
 21
118.443810
  0
LINE
  8
LC-006-012-----0
 62
     2
  6
DASHED
 10
118.410034
 20
118.693810
 11
118.410034
 21
123.943810
  0
LINE
  8
LC-006-012-----0
 62
     2
  6
DASHED
 10
123.410034
 20
123.943810
 11
123.410034
 21
118.693810
  0
LINE
  8
LC-006-012-----0
 62
     2
  6
DASHED
 10
123.460030
 20
126.443810
 11
118.360031
 21
126.443810
  0
LINE
  8
LC-006-012-----0
 62
     2
  6
DASHED
 10
122.410034
 20
115.343811
 11
119.410034
 21
115.343811
  0
LINE
  8
LC-006-012-----0
 62
     2
  6
DASHED
 10
118.660034
 20
118.443810
 11
118.410034
 21
118.693810
  0
LINE
  8
LC-006-012-----0
 62
     2
  6
DASHED
 10
123.410034
 20
118.693810
 11
123.160034
 21
118.443810
  0
LINE
  8
LC-006-012-----0
 62
     2
  6
DASHED
 10
123.410034
 20
118.693810
 11
118.410034
 21
118.693810
  0
LINE
  8
LC-006-012-----0
 62
     2
  6
DASHED
 10
127.410034
 20
124.443810
 11
114.410034
 21
124.443810
  0
LINE
  8
LC-006-012-----0
 62
     2
  6
DASHED
 10
117.610031
 20
126.296890
 11
117.610031
 21
124.443810
  0
LINE
  8
LC-006-012-----0
 62
     2
  6
DASHED
 10
124.210030
 20
126.296890
 11
124.210030
 21
124.443810
  0
LINE
  8
LC-006-012-----0
 62
     2
  6
DASHED
 10
119.110031
 20
126.296890
 11
119.110031
 21
124.443810
  0
LINE
  8
LC-006-012-----0
 62
     2
  6
DASHED
 10
122.710030
 20
126.296890
 11
122.710030
 21
124.443810
  0
LINE
  8
LC-006-012-----0
 62
     2
  6
DASHED
 10
123.160034
 20
118.443810
 11
118.660034
 21
118.443810
  0
ARC
  8
LC-006-012-----0
 62
     2
  6
DASHED
 10
120.910034
 20
115.343811
 40
11.100000
 50
80.667580
 51
99.332418
  0
ARC
  8
LC-006-012-----0
 62
     2
  6
DASHED
 10
123.460030
 20
124.443810
 40
1.999103
 50
67.965286
 51
112.034712
  0
LINE
  8
LC-006-012-----0
 62
     2
  6
DASHED
 10
119.160034
 20
118.443810
 11
119.160034
 21
115.593811
  0
ARC
  8
LC-006-012-----0
 62
     2
  6
DASHED
 10
118.360031
 20
124.443810
 40
1.999103
 50
67.965286
 51
112.034712
  0
LINE
  8
LC-006-012-----0
 62
     2
  6
DASHED
 10
123.410034
 20
123.943810
 11
118.410034
 21
123.943810
  0
LINE
  8
LC-006-012-----0
 62
     2
  6
DASHED
 10
118.710030
 20
124.443810
 11
118.710030
 21
123.943810
  0
LINE
  8
LC-006-012-----0
 62
     2
  6
DASHED
 10
123.110031
 20
124.443810
 11
123.110031
 21
123.943810
  0
LINE
  8
LC-006-012-----0
 62
     2
  6
DASHED
 10
122.660034
 20
118.443810
 11
122.660034
 21
115.593811
  0
ARC
  8
LC-006-012-----0
 62
     2
  6
DASHED
 10
119.410034
 20
115.593811
 40
0.250000
 50
180.000009
 51
269.999997
  0
ARC
  8
LC-006-012-----0
 62
     2
  6
DASHED
 10
122.410034
 20
115.593811
 40
0.250000
 50
269.999997
 51
0.000000
  0
LINE
  8
LC-006-012-----0
 62
     2
  6
DASHED
 10
127.410034
 20
124.443810
 11
127.410034
 21
142.243805
  0
LINE
  8
LC-004-006-----0
 62
     2
  6
DASHDOT
 10
120.910034
 20
114.169754
 11
120.910034
 21
145.151642
  0
LINE
  8
LC-006-012-----0
 62
     2
  6
DASHED
 10
328.629883
 20
124.443810
 11
328.629883
 21
142.243805
  0
LINE
  8
LC-006-012-----0
 62
     2
  6
DASHED
 10
333.129883
 20
123.943810
 11
333.129883
 21
118.443810
  0
LINE
  8
LC-006-012-----0
 62
     2
  6
DASHED
 10
337.129883
 20
123.943810
 11
337.129883
 21
118.443810
  0
LINE
  8
LC-006-012-----0
 62
     2
  6
DASHED
 10
332.629883
 20
118.693810
 11
332.629883
 21
123.943810
  0
LINE
  8
LC-006-012-----0
 62
     2
  6
DASHED
 10
337.629883
 20
123.943810
 11
337.629883
 21
118.693810
  0
LINE
  8
LC-006-012-----0
 62
     2
  6
DASHED
 10
337.679901
 20
126.443810
 11
332.579895
 21
126.443810
  0
LINE
  8
LC-006-012-----0
 62
     2
  6
DASHED
 10
336.629883
 20
115.343811
 11
333.629883
 21
115.343811
  0
LINE
  8
LC-006-012-----0
 62
     2
  6
DASHED
 10
332.879883
 20
118.443810
 11
332.629883
 21
118.693810
  0
LINE
  8
LC-006-012-----0
 62
     2
  6
DASHED
 10
337.629883
 20
118.693810
 11
337.379883
 21
118.443810
  0
LINE
  8
LC-006-012-----0
 62
     2
  6
DASHED
 10
337.629883
 20
118.693810
 11
332.629883
 21
118.693810
  0
LINE
  8
LC-006-012-----0
 62
     2
  6
DASHED
 10
341.629883
 20
124.443810
 11
328.629883
 21
124.443810
  0
LINE
  8
LC-006-012-----0
 62
     2
  6
DASHED
 10
331.829895
 20
126.296890
 11
331.829895
 21
124.443810
  0
LINE
  8
LC-006-012-----0
 62
     2
  6
DASHED
 10
338.429901
 20
126.296890
 11
338.429901
 21
124.443810
  0
LINE
  8
LC-006-012-----0
 62
     2
  6
DASHED
 10
333.329895
 20
126.296890
 11
333.329895
 21
124.443810
  0
LINE
  8
LC-006-012-----0
 62
     2
  6
DASHED
 10
336.929901
 20
126.296890
 11
336.929901
 21
124.443810
  0
LINE
  8
LC-006-012-----0
 62
     2
  6
DASHED
 10
337.379883
 20
118.443810
 11
332.879883
 21
118.443810
  0
ARC
  8
LC-006-012-----0
 62
     2
  6
DASHED
 10
335.129883
 20
115.343811
 40
11.100000
 50
80.667580
 51
99.332418
  0
ARC
  8
LC-006-012-----0
 62
     2
  6
DASHED
 10
337.679901
 20
124.443810
 40
1.999103
 50
67.965286
 51
112.034712
  0
LINE
  8
LC-006-012-----0
 62
     2
  6
DASHED
 10
333.379883
 20
118.443810
 11
333.379883
 21
115.593811
  0
ARC
  8
LC-006-012-----0
 62
     2
  6
DASHED
 10
332.579895
 20
124.443810
 40
1.999103
 50
67.965286
 51
112.034712
  0
LINE
  8
LC-006-012-----0
 62
     2
  6
DASHED
 10
337.629883
 20
123.943810
 11
332.629883
 21
123.943810
  0
LINE
  8
LC-006-012-----0
 62
     2
  6
DASHED
 10
332.929901
 20
124.443810
 11
332.929901
 21
123.943810
  0
LINE
  8
LC-006-012-----0
 62
     2
  6
DASHED
 10
337.329895
 20
124.443810
 11
337.329895
 21
123.943810
  0
LINE
  8
LC-006-012-----0
 62
     2
  6
DASHED
 10
336.879883
 20
118.443810
 11
336.879883
 21
115.593811
  0
ARC
  8
LC-006-012-----0
 62
     2
  6
DASHED
 10
333.629883
 20
115.593811
 40
0.250000
 50
180.000009
 51
269.999997
  0
ARC
  8
LC-006-012-----0
 62
     2
  6
DASHED
 10
336.629883
 20
115.593811
 40
0.250000
 50
269.999997
 51
0.000000
  0
LINE
  8
LC-006-012-----0
 62
     2
  6
DASHED
 10
341.629883
 20
124.443810
 11
341.629883
 21
142.243805
  0
LINE
  8
LC-004-006-----0
 62
     2
  6
DASHDOT
 10
335.129883
 20
114.169754
 11
335.129883
 21
145.151642
  0
LINE
  8
LC-004-006-----0
 62
     2
  6
DASHDOT
 10
120.910034
 20
-79.359634
 11
120.910034
 21
-59.904610
  0
CIRCLE
  8
LC-003-002-----0
 62
     1
  6
CONTINUOUS
 10
120.910034
 20
-69.856667
 40
6.500000
  0
LINE
  8
LC-003-002-----0
 62
     1
  6
CONTINUOUS
 10
118.050034
 20
-71.507889
 11
120.910034
 21
-73.159111
  0
LINE
  8
LC-003-002-----0
 62
     1
  6
CONTINUOUS
 10
120.910034
 20
-66.554222
 11
123.770035
 21
-68.205444
  0
LINE
  8
LC-003-002-----0
 62
     1
  6
CONTINUOUS
 10
118.050034
 20
-68.205444
 11
118.050034
 21
-71.507889
  0
LINE
  8
LC-003-002-----0
 62
     1
  6
CONTINUOUS
 10
123.770035
 20
-68.205444
 11
123.770035
 21
-71.507889
  0
LINE
  8
LC-003-002-----0
 62
     1
  6
CONTINUOUS
 10
120.910034
 20
-66.554222
 11
118.050034
 21
-68.205444
  0
LINE
  8
LC-003-002-----0
 62
     1
  6
CONTINUOUS
 10
123.770035
 20
-71.507889
 11
120.910034
 21
-73.159111
  0
CIRCLE
  8
LC-003-002-----0
 62
     1
  6
CONTINUOUS
 10
120.910034
 20
-69.856667
 40
2.860000
  0
LINE
  8
LC-004-006-----0
 62
     2
  6
DASHDOT
 10
112.454636
 20
-69.856667
 11
129.295914
 21
-69.856667
  0
LINE
  8
LC-003-002-----0
 62
     1
  6
CONTINUOUS
 10
185.410034
 20
142.243805
 11
197.410034
 21
130.243805
  0
LINE
  8
LC-003-002-----0
 62
     1
  6
CONTINUOUS
 10
185.410034
 20
-24.356667
 11
185.410034
 21
-115.356667
  0
LINE
  8
LC-006-012-----0
 62
     2
  6
DASHED
 10
289.629883
 20
130.243805
 11
380.629883
 21
130.243805
  0
ENDSEC
  0
EOF
