  0
SECTION
  2
HEADER
  9
$ACADVER
  1
AC1014
  9
$ACADMAINTVER
 70
           0
  9
$DWGCODEPAGE
  3
DOS850
  9
$INSBASE
 10
0.0
 20
0.0
 30
0.0
  9
$EXTMIN
 10
-113.242393
 20
484.133698
 30
0.0
  9
$EXTMAX
 10
74.88768
 20
673.051208
 30
0.0
  9
$LIMMIN
 10
-113.242393
 20
484.133698
  9
$LIMMAX
 10
74.88768
 20
673.051208
  9
$ORTHOMODE
 70
           0
  9
$REGENMODE
 70
           1
  9
$FILLMODE
 70
           1
  9
$QTEXTMODE
 70
           0
  9
$MIRRTEXT
 70
           1
  9
$DRAGMODE
 70
           2
  9
$LTSCALE
 40
5.0
  9
$OSMODE
 70
           0
  9
$ATTMODE
 70
           1
  9
$TEXTSIZE
 40
0.2
  9
$TRACEWID
 40
0.05
  9
$TEXTSTYLE
  7
TXT
  9
$CLAYER
  8
0
  9
$CELTYPE
  6
CONTINUOUS
  9
$CECOLOR
 62
         256
  9
$CELTSCALE
 40
1.0
  9
$DELOBJ
 70
           1
  9
$DISPSILH
 70
           0
  9
$DIMSCALE
 40
1.0
  9
$DIMASZ
 40
3.5
  9
$DIMEXO
 40
0.0625
  9
$DIMDLI
 40
0.38
  9
$DIMRND
 40
0.0
  9
$DIMDLE
 40
0.0
  9
$DIMEXE
 40
0.18
  9
$DIMTP
 40
0.0
  9
$DIMTM
 40
0.0
  9
$DIMTXT
 40
3.5
  9
$DIMCEN
 40
0.09
  9
$DIMTSZ
 40
0.0
  9
$DIMTOL
 70
           0
  9
$DIMLIM
 70
           0
  9
$DIMTIH
 70
           1
  9
$DIMTOH
 70
           1
  9
$DIMSE1
 70
           0
  9
$DIMSE2
 70
           0
  9
$DIMTAD
 70
           0
  9
$DIMZIN
 70
           0
  9
$DIMBLK
  1

  9
$DIMASO
 70
           1
  9
$DIMSHO
 70
           1
  9
$DIMPOST
  1

  9
$DIMAPOST
  1

  9
$DIMALT
 70
           0
  9
$DIMALTD
 70
           2
  9
$DIMALTF
 40
25.4
  9
$DIMLFAC
 40
1.0
  9
$DIMTOFL
 70
           0
  9
$DIMTVP
 40
0.0
  9
$DIMTIX
 70
           0
  9
$DIMSOXD
 70
           0
  9
$DIMSAH
 70
           0
  9
$DIMBLK1
  1

  9
$DIMBLK2
  1

  9
$DIMSTYLE
  2
STANDARD
  9
$DIMCLRD
 70
           0
  9
$DIMCLRE
 70
           0
  9
$DIMCLRT
 70
           0
  9
$DIMTFAC
 40
1.0
  9
$DIMGAP
 40
0.09
  9
$DIMJUST
 70
           0
  9
$DIMSD1
 70
           0
  9
$DIMSD2
 70
           0
  9
$DIMTOLJ
 70
           1
  9
$DIMTZIN
 70
           0
  9
$DIMALTZ
 70
           0
  9
$DIMALTTZ
 70
           0
  9
$DIMFIT
 70
           3
  9
$DIMUPT
 70
           0
  9
$DIMUNIT
 70
           2
  9
$DIMDEC
 70
           4
  9
$DIMTDEC
 70
           4
  9
$DIMALTU
 70
           2
  9
$DIMALTTD
 70
           2
  9
$DIMTXSTY
  7
TXT
  9
$DIMAUNIT
 70
           0
  9
$LUNITS
 70
           2
  9
$LUPREC
 70
           2
  9
$SKETCHINC
 40
0.1
  9
$FILLETRAD
 40
0.0
  9
$AUNITS
 70
           0
  9
$AUPREC
 70
           2
  9
$MENU
  1
acad
  9
$ELEVATION
 40
0.0
  9
$PELEVATION
 40
0.0
  9
$THICKNESS
 40
0.0
  9
$LIMCHECK
 70
           0
  9
$BLIPMODE
 70
           1
  9
$CHAMFERA
 40
0.0
  9
$CHAMFERB
 40
0.0
  9
$CHAMFERC
 40
0.0
  9
$CHAMFERD
 40
0.0
  9
$SKPOLY
 70
           0
  9
$TDCREATE
 40
0.000000000
  9
$TDUPDATE
 40
0.000000000
  9
$TDINDWG
 40
0.0000000000
  9
$TDUSRTIMER
 40
0.0000000000
  9
$USRTIMER
 70
           1
  9
$ANGBASE
 50
0.0
  9
$ANGDIR
 70
           0
  9
$PDMODE
 70
           2
  9
$PDSIZE
 40
0.5
  9
$PLINEWID
 40
0.0
  9
$COORDS
 70
           0
  9
$SPLFRAME
 70
           0
  9
$SPLINETYPE
 70
           6
  9
$SPLINESEGS
 70
           8
  9
$ATTDIA
 70
           0
  9
$ATTREQ
 70
           1
  9
$HANDLING
 70
           1
  9
$HANDSEED
  5
165
  9
$SURFTAB1
 70
           6
  9
$SURFTAB2
 70
           6
  9
$SURFTYPE
 70
           6
  9
$SURFU
 70
           6
  9
$SURFV
 70
           6
  9
$UCSNAME
  2

  9
$UCSORG
 10
0.0
 20
0.0
 30
0.0
  9
$UCSXDIR
 10
1.0
 20
0.0
 30
0.0
  9
$UCSYDIR
 10
0.0
 20
1.0
 30
0.0
  9
$PUCSNAME
  2

  9
$PUCSORG
 10
0.0
 20
0.0
 30
0.0
  9
$PUCSXDIR
 10
1.0
 20
0.0
 30
0.0
  9
$PUCSYDIR
 10
0.0
 20
1.0
 30
0.0
  9
$USERI1
 70
           0
  9
$USERI2
 70
           0
  9
$USERI3
 70
           0
  9
$USERI4
 70
           0
  9
$USERI5
 70
           0
  9
$USERR1
 40
0.0
  9
$USERR2
 40
0.0
  9
$USERR3
 40
0.0
  9
$USERR4
 40
0.0
  9
$USERR5
 40
0.0
  9
$WORLDVIEW
 70
           1
  9
$SHADEDGE
 70
           3
  9
$SHADEDIF
 70
          70
  9
$TILEMODE
 70
           1
  9
$MAXACTVP
 70
          16
  9
$PINSBASE
 10
0.0
 20
0.0
 30
0.0
  9
$PLIMCHECK
 70
           0
  9
$PEXTMIN
 10
1.000000000000E+20
 20
1.000000000000E+20
 30
1.000000000000E+20
  9
$PEXTMAX
 10
-1.000000000000E+20
 20
-1.000000000000E+20
 30
-1.000000000000E+20
  9
$PLIMMIN
 10
0.0
 20
0.0
  9
$PLIMMAX
 10
12.0
 20
9.0
  9
$UNITMODE
 70
           0
  9
$VISRETAIN
 70
           0
  9
$PLINEGEN
 70
           1
  9
$PSLTSCALE
 70
           0
  9
$TREEDEPTH
 70
        3020
  9
$PICKSTYLE
 70
           1
  9
$CMLSTYLE
  2
STANDARD
  9
$CMLJUST
 70
           0
  9
$CMLSCALE
 40
1.0
  9
$PROXYGRAPHICS
 70
           0
  9
$MEASUREMENT
 70
           0
  0
ENDSEC
  0
SECTION
  2
CLASSES
  0
CLASS
  1
LWPOLYLINE
  2
AcDbPolyline
  3
"AutoCAD"
 90
        0
280
           0
281
           1
  0
CLASS
  1
IMAGE
  2
AcDbRasterImage
  3
ISM
 90
      127
280
           0
281
           1
  0
CLASS
  1
OLE2FRAME
  2
AcDbOle2Frame
  3
""
 90
        0
280
           0
281
           1
  0
CLASS
  1
HATCH
  2
AcDbHatch
  3
"ACAD_SEDONA"
 90
        0
280
           0
281
           1
  0
CLASS
  1
DICTIONARYVAR
  2
AcDbDictionaryVar
  3
"AutoCAD"
 90
        0
280
           0
281
           0
  0
CLASS
  1
RASTERVARIABLES
  2
AcDbRasterVariables
  3
ISM
 90
        0
280
           0
281
           0
  0
CLASS
  1
IMAGEDEF
  2
AcDbRasterImageDef
  3
ISM
 90
        0
280
           0
281
           0
  0
CLASS
  1
IMAGEDEF_REACTOR
  2
AcDbRasterImageDefReactor
  3
ISM
 90
        1
280
           0
281
           0
  0
CLASS
  1
IDBUFFER
  2
AcDbIdBuffer
  3
"Acad"
 90
        0
280
           0
281
           0
  0
CLASS
  1
SPATIAL_FILTER
  2
AcDbSpatialFilter
  3
"Acad"
 90
        0
280
           0
281
           0
  0
CLASS
  1
XRECORD
  2
AcDbXrecord
  3
"<Built In>"
 90
        0
280
           0
281
           0
  0
CLASS
  1
SORTENTSTABLE
  2
AcDbSortentsTable
  3
"AutoCAD"
 90
        0
280
           0
281
           0
  0
CLASS
  1
LAYER_INDEX
  2
AcDbLayerIndex
  3
"Acad"
 90
        0
280
           0
281
           0
  0
CLASS
  1
SPATIAL_INDEX
  2
AcDbSpatialIndex
  3
"Acad"
 90
        0
280
           0
281
           0
  0
CLASS
  1
OBJECT_PTR
  2
CAseDLPNTableRecord
  3
"ASE-LPNTableRecord"
 90
        1
280
           0
281
           0
  0
CLASS
  1
LAYOUT
  2
AcDbLayout
  3
"AutoCAD 2000"
 90
        1
280
           0
281
           0
  0
CLASS
  1
PLOTSETTINGS
  2
AcDbPlotSettings
  3
"AutoCAD 2000"
 90
        1
280
           0
281
           0
  0
CLASS
  1
ACDBDICTIONARYWDFLT
  2
AcDbDictionaryWithDefault
  3
"AutoCAD 2000"
 90
        1
280
           0
281
           0
  0
CLASS
  1
ACDBPLACEHOLDER
  2
AcDbPlaceHolder
  3
"AutoCAD 2000"
 90
        1
280
           0
281
           0
  0
CLASS
  1
VBA_PROJECT
  2
AcDbVbaProject
  3
"acadvba"
 90
        1
280
           0
281
           0
  0
CLASS
  1
WIPEOUT
  2
AcDbWipeout
  3
WipeOut|AutoCAD Express Tool|expresstools@autodesk.com
 90
      127
280
           0
281
           1
  0
CLASS
  1
WIPEOUTVARIABLES
  2
AcDbWipeoutVariables
  3
WipeOut|AutoCAD Express Tool|expresstools@autodesk.com
 90
        0
280
           0
281
           0
  0
CLASS
  1
RTEXT
  2
RText
  3
RText|AutoCAD Express Tool|expresstools@autodesk.com
 90
        0
280
           0
281
           1
  0
CLASS
  1
ARCALIGNEDTEXT
  2
AcDbArcAlignedText
  3
ATEXT|AutoCAD Express Tool|expresstools@autodesk.com
 90
        0
280
           0
281
           1
  0
ENDSEC
  0
SECTION
  2
TABLES
  0
TABLE
  2
VPORT
  5
7
100
AcDbSymbolTable
 70
           1
  0
VPORT
  5
15
100
AcDbSymbolTableRecord
100
AcDbViewportTableRecord
  2
*ACTIVE
 70
           0
 10
0.0
 20
0.0
 11
1.0
 21
1.0
 12
6.591288
 22
4.579184
 13
0.0
 23
0.0
 14
1.0
 24
1.0
 15
0.0
 25
0.0
 16
0.0
 26
0.0
 36
1.0
 17
0.0
 27
0.0
 37
0.0
 40
9.158369
 41
0.688564
 42
50.0
 43
0.0
 44
0.0
 50
0.0
 51
0.0
 71
           0
 72
         100
 73
           1
 74
           1
 75
           0
 76
           0
 77
           0
 78
           0
  0
ENDTAB
  0
TABLE
  2
LTYPE
  5
4
100
AcDbSymbolTable
 70
           6
  0
LTYPE
  5
11
100
AcDbSymbolTableRecord
100
AcDbLinetypeTableRecord
  2
BYBLOCK
 70
          64
  3

 72
          65
 73
           0
 40
0.0
  0
LTYPE
  5
12
100
AcDbSymbolTableRecord
100
AcDbLinetypeTableRecord
  2
BYLAYER
 70
          64
  3

 72
          65
 73
           0
 40
0.0
  0
LTYPE
  5
13
100
AcDbSymbolTableRecord
100
AcDbLinetypeTableRecord
  2
CONTINUOUS
 70
          64
  3
Solid line
 72
          65
 73
           0
 40
0.0
  0
LTYPE
  5
1D
100
AcDbSymbolTableRecord
100
AcDbLinetypeTableRecord
  2
AUSGEZOGEN
 70
           0
  3

 72
          65
 73
           2
 40
0.5
 49
0.25
 74
           0
 49
-0.25
 74
           0
  0
LTYPE
  5
1E
100
AcDbSymbolTableRecord
100
AcDbLinetypeTableRecord
  2
STRICHLINIE
 70
           0
  3

 72
          65
 73
           2
 40
0.5
 49
0.25
 74
           0
 49
-0.25
 74
           0
  0
LTYPE
  5
1F
100
AcDbSymbolTableRecord
100
AcDbLinetypeTableRecord
  2
STRICHPUNKT
 70
           0
  3

 72
          65
 73
           4
 40
1.0
 49
0.5
 74
           0
 49
-0.25
 74
           0
 49
0.0
 74
           0
 49
-0.25
 74
           0
  0
ENDTAB
  0
TABLE
  2
LAYER
  5
2
100
AcDbSymbolTable
 70
           5
  0
LAYER
  5
14
100
AcDbSymbolTableRecord
100
AcDbLayerTableRecord
  2
0
 70
           0
 62
           7
  6
CONTINUOUS
  0
LAYER
  5
20
100
AcDbSymbolTableRecord
100
AcDbLayerTableRecord
  2
LC-003-002-----0
 70
           0
 62
           7
  6
CONTINUOUS
  0
LAYER
  5
21
100
AcDbSymbolTableRecord
100
AcDbLayerTableRecord
  2
LC-006-012-----0
 70
           0
 62
           7
  6
CONTINUOUS
  0
LAYER
  5
22
100
AcDbSymbolTableRecord
100
AcDbLayerTableRecord
  2
LC-004-006-----0
 70
           0
 62
           7
  6
CONTINUOUS
  0
LAYER
  5
23
100
AcDbSymbolTableRecord
100
AcDbLayerTableRecord
  2
LC-008-003-----0
 70
           0
 62
           7
  6
CONTINUOUS
  0
ENDTAB
  0
TABLE
  2
STYLE
  5
3
100
AcDbSymbolTable
 70
           1
  0
STYLE
  5
17
100
AcDbSymbolTableRecord
100
AcDbTextStyleTableRecord
  2
TXT
 70
           0
 40
3.5
 41
1.0
 50
0.0
 71
           0
 42
3.5
  3
TXT
  4

  0
ENDTAB
  0
TABLE
  2
VIEW
  5
5
100
AcDbSymbolTable
 70
           0
  0
ENDTAB
  0
TABLE
  2
UCS
  5
6
100
AcDbSymbolTable
 70
           0
  0
ENDTAB
  0
TABLE
  2
APPID
  5
8
100
AcDbSymbolTable
 70
           2
  0
APPID
  5
16
100
AcDbSymbolTableRecord
100
AcDbRegAppTableRecord
  2
ACAD
 70
           0
  0
APPID
  5
24
100
AcDbSymbolTableRecord
100
AcDbRegAppTableRecord
  2
MegaCADPntStyle
 70
           0
  0
ENDTAB
  0
TABLE
  2
DIMSTYLE
  5
9
100
AcDbSymbolTable
 70
           1
  0
DIMSTYLE
105
18
100
AcDbSymbolTableRecord
100
AcDbDimStyleTableRecord
  2
STANDARD
 70
           0
  3

  4

  5

  6

  7

 40
1.0
 41
0.18
 42
0.0625
 43
0.38
 44
0.18
 45
0.0
 46
0.0
 47
0.0
 48
0.0
 71
           0
 72
           0
 73
           1
 74
           1
 75
           0
 76
           0
 77
           0
 78
           0
140
0.18
141
0.09
142
0.0
143
25.4
144
1.0
145
0.0
146
1.0
147
0.09
170
           0
171
           2
172
           0
173
           0
174
           0
175
           0
176
           0
177
           0
178
           0
270
           2
271
           4
272
           4
273
           2
274
           2
275
           0
280
           0
281
           0
282
           0
283
           1
284
           0
285
           0
286
           0
287
           0
288
           0
340
17
  0
ENDTAB
  0
TABLE
  2
BLOCK_RECORD
  5
1
100
AcDbSymbolTable
 70
           1
  0
BLOCK_RECORD
  5
A
100
AcDbSymbolTableRecord
100
AcDbBlockTableRecord
  2
*MODEL_SPACE
  0
BLOCK_RECORD
  5
B
100
AcDbSymbolTableRecord
100
AcDbBlockTableRecord
  2
*PAPER_SPACE
  0
BLOCK_RECORD
  5
25
102
{ACAD_XDICTIONARY
360
5C
102
}
100
AcDbSymbolTableRecord
100
AcDbBlockTableRecord
  2
ELIPPSE
  0
ENDTAB
  0
ENDSEC
  0
SECTION
  2
BLOCKS
  0
BLOCK
  5
D
100
AcDbEntity
  8
0
100
AcDbBlockBegin
  2
*MODEL_SPACE
 70
           0
 10
0.0
 20
0.0
 30
0.0
  3
*MODEL_SPACE
  1

  0
ENDBLK
  5
E
100
AcDbEntity
  8
0
100
AcDbBlockEnd
  0
BLOCK
  5
F
100
AcDbEntity
 67
           1
  8
0
100
AcDbBlockBegin
  2
*PAPER_SPACE
 70
           0
 10
0.0
 20
0.0
 30
0.0
  3
*PAPER_SPACE
  1

  0
ENDBLK
  5
10
100
AcDbEntity
 67
           1
  8
0
100
AcDbBlockEnd
  0
BLOCK
  5
162
100
AcDbEntity
  8
0
100
AcDbBlockBegin
  2
ELIPPSE
 70
          64
 10
0.0
 20
0.0
 30
0.0
  3
ELIPPSE
  1

  0
CIRCLE
  5
163
100
AcDbEntity
  8
0
  6
BYBLOCK
 62
           0
100
AcDbCircle
 10
0.0
 20
0.0
 30
0.0
 40
1.0
  0
ENDBLK
  5
164
100
AcDbEntity
  8
0
  6
BYBLOCK
 62
           0
100
AcDbBlockEnd
  0
ENDSEC
  0
SECTION
  2
ENTITIES
  0
ARC
  5
26
100
AcDbEntity
  8
LC-004-006-----0
  6
STRICHLINIE
 62
           2
100
AcDbCircle
 10
42.941719
 20
655.85144
 30
0.0
 40
6.586702
100
AcDbArc
 50
0.0
 51
29.797294
  0
ARC
  5
27
100
AcDbEntity
  8
LC-004-006-----0
  6
STRICHLINIE
 62
           2
100
AcDbCircle
 10
42.994953
 20
655.883362
 30
0.0
 40
6.524623
100
AcDbArc
 50
29.786066
 51
59.785267
  0
ARC
  5
28
100
AcDbEntity
  8
LC-004-006-----0
  6
STRICHLINIE
 62
           2
100
AcDbCircle
 10
43.027153
 20
655.936218
 30
0.0
 40
6.462758
100
AcDbArc
 50
59.796196
 51
89.988767
  0
ARC
  5
29
100
AcDbEntity
  8
LC-004-006-----0
  6
STRICHLINIE
 62
           2
100
AcDbCircle
 10
43.029686
 20
655.936218
 30
0.0
 40
6.462758
100
AcDbArc
 50
90.011231
 51
120.203803
  0
ARC
  5
2A
100
AcDbEntity
  8
LC-004-006-----0
  6
STRICHLINIE
 62
           2
100
AcDbCircle
 10
43.061886
 20
655.883362
 30
0.0
 40
6.524623
100
AcDbArc
 50
120.214731
 51
150.213933
  0
ARC
  5
2B
100
AcDbEntity
  8
LC-004-006-----0
  6
STRICHLINIE
 62
           2
100
AcDbCircle
 10
43.11512
 20
655.85144
 30
0.0
 40
6.586702
100
AcDbArc
 50
150.202704
 51
180.010937
  0
ARC
  5
2C
100
AcDbEntity
  8
LC-004-006-----0
  6
STRICHLINIE
 62
           2
100
AcDbCircle
 10
43.11512
 20
655.848938
 30
0.0
 40
6.586702
100
AcDbArc
 50
179.989063
 51
209.797296
  0
ARC
  5
2D
100
AcDbEntity
  8
LC-004-006-----0
  6
STRICHLINIE
 62
           2
100
AcDbCircle
 10
43.061886
 20
655.816956
 30
0.0
 40
6.524623
100
AcDbArc
 50
209.786067
 51
239.785269
  0
ARC
  5
2E
100
AcDbEntity
  8
LC-004-006-----0
  6
STRICHLINIE
 62
           2
100
AcDbCircle
 10
43.029686
 20
655.764099
 30
0.0
 40
6.462758
100
AcDbArc
 50
239.796197
 51
269.988769
  0
ARC
  5
2F
100
AcDbEntity
  8
LC-004-006-----0
  6
STRICHLINIE
 62
           2
100
AcDbCircle
 10
43.035041656588
 20
657.725690538679
 30
0.0
 40
8.424352016799
100
AcDbArc
 50
269.954965010164
 51
296.38189263471
  0
ARC
  5
30
100
AcDbEntity
  8
LC-004-006-----0
  6
STRICHLINIE
 62
           2
100
AcDbCircle
 10
43.700314197754
 20
654.526934613533
 30
0.0
 40
5.327436913449
100
AcDbArc
 50
305.294784342738
 51
338.515521244927
  0
ARC
  5
31
100
AcDbEntity
  8
LC-004-006-----0
  6
STRICHLINIE
 62
           2
100
AcDbCircle
 10
42.941719
 20
655.848938
 30
0.0
 40
6.586702
100
AcDbArc
 50
330.202706
 51
0.0
  0
ARC
  5
32
100
AcDbEntity
  8
LC-003-002-----0
  6
AUSGEZOGEN
 62
           1
100
AcDbCircle
 10
-1.058282
 20
655.85144
 30
0.0
 40
6.586702
100
AcDbArc
 50
0.0
 51
29.797294
  0
ARC
  5
33
100
AcDbEntity
  8
LC-003-002-----0
  6
AUSGEZOGEN
 62
           1
100
AcDbCircle
 10
-1.005046
 20
655.883362
 30
0.0
 40
6.524623
100
AcDbArc
 50
29.786066
 51
59.785267
  0
ARC
  5
34
100
AcDbEntity
  8
LC-003-002-----0
  6
AUSGEZOGEN
 62
           1
100
AcDbCircle
 10
-0.972847
 20
655.936218
 30
0.0
 40
6.462758
100
AcDbArc
 50
59.796196
 51
89.988767
  0
ARC
  5
35
100
AcDbEntity
  8
LC-003-002-----0
  6
AUSGEZOGEN
 62
           1
100
AcDbCircle
 10
-0.970314
 20
655.936218
 30
0.0
 40
6.462758
100
AcDbArc
 50
90.011231
 51
120.203803
  0
ARC
  5
36
100
AcDbEntity
  8
LC-003-002-----0
  6
AUSGEZOGEN
 62
           1
100
AcDbCircle
 10
-0.938115
 20
655.883362
 30
0.0
 40
6.524623
100
AcDbArc
 50
120.214731
 51
150.213933
  0
ARC
  5
37
100
AcDbEntity
  8
LC-003-002-----0
  6
AUSGEZOGEN
 62
           1
100
AcDbCircle
 10
-0.884879
 20
655.85144
 30
0.0
 40
6.586702
100
AcDbArc
 50
150.202704
 51
180.010937
  0
ARC
  5
38
100
AcDbEntity
  8
LC-003-002-----0
  6
AUSGEZOGEN
 62
           1
100
AcDbCircle
 10
-0.884879
 20
655.848938
 30
0.0
 40
6.586702
100
AcDbArc
 50
179.989063
 51
209.797296
  0
ARC
  5
39
100
AcDbEntity
  8
LC-003-002-----0
  6
AUSGEZOGEN
 62
           1
100
AcDbCircle
 10
-1.643476186328
 20
654.52693463077
 30
0.0
 40
5.327436913952
100
AcDbArc
 50
201.484480094449
 51
234.705218103891
  0
ARC
  5
3A
100
AcDbEntity
  8
LC-003-002-----0
  6
AUSGEZOGEN
 62
           1
100
AcDbCircle
 10
-0.978202686465
 20
657.725690481048
 30
0.0
 40
8.424351959414
100
AcDbArc
 50
243.618108138601
 51
270.045036727642
  0
ARC
  5
3B
100
AcDbEntity
  8
LC-003-002-----0
  6
AUSGEZOGEN
 62
           1
100
AcDbCircle
 10
-0.972847
 20
655.764099
 30
0.0
 40
6.462758
100
AcDbArc
 50
270.011233
 51
300.203804
  0
ARC
  5
3C
100
AcDbEntity
  8
LC-003-002-----0
  6
AUSGEZOGEN
 62
           1
100
AcDbCircle
 10
-1.005046
 20
655.816956
 30
0.0
 40
6.524623
100
AcDbArc
 50
300.214733
 51
330.213934
  0
ARC
  5
3D
100
AcDbEntity
  8
LC-003-002-----0
  6
AUSGEZOGEN
 62
           1
100
AcDbCircle
 10
-1.058282
 20
655.848938
 30
0.0
 40
6.586702
100
AcDbArc
 50
330.202706
 51
0.0
  0
LINE
  5
3E
100
AcDbEntity
  8
LC-003-002-----0
  6
AUSGEZOGEN
 62
           1
100
AcDbLine
 10
-110.562073
 20
667.42865
 30
0.0
 11
-110.562073
 21
640.42865
 31
0.0
  0
LINE
  5
3F
100
AcDbEntity
  8
LC-003-002-----0
  6
AUSGEZOGEN
 62
           1
100
AcDbLine
 10
-110.562073
 20
640.42865
 30
0.0
 11
-68.562073
 21
640.42865
 31
0.0
  0
LINE
  5
40
100
AcDbEntity
  8
LC-003-002-----0
  6
AUSGEZOGEN
 62
           1
100
AcDbLine
 10
-107.562073
 20
670.42865
 30
0.0
 11
-99.279488
 21
670.42865
 31
0.0
  0
LINE
  5
41
100
AcDbEntity
  8
LC-003-002-----0
  6
AUSGEZOGEN
 62
           1
100
AcDbLine
 10
-68.562073
 20
667.42865
 30
0.0
 11
-68.562073
 21
640.42865
 31
0.0
  0
LINE
  5
42
100
AcDbEntity
  8
LC-003-002-----0
  6
AUSGEZOGEN
 62
           1
100
AcDbLine
 10
-107.562073
 20
670.42865
 30
0.0
 11
-110.562073
 21
667.42865
 31
0.0
  0
LINE
  5
43
100
AcDbEntity
  8
LC-003-002-----0
  6
AUSGEZOGEN
 62
           1
100
AcDbLine
 10
-71.562073
 20
670.42865
 30
0.0
 11
-68.562073
 21
667.42865
 31
0.0
  0
LINE
  5
44
100
AcDbEntity
  8
LC-006-012-----0
  6
STRICHPUNKT
 62
           2
100
AcDbLine
 10
-89.562073
 20
636.916321
 30
0.0
 11
-89.562073
 21
673.051208
 31
0.0
  0
LINE
  5
45
100
AcDbEntity
  8
LC-006-012-----0
  6
STRICHPUNKT
 62
           2
100
AcDbLine
 10
-103.098198
 20
658.42865
 30
0.0
 11
-76.396454
 21
658.42865
 31
0.0
  0
CIRCLE
  5
46
100
AcDbEntity
  8
LC-003-002-----0
  6
AUSGEZOGEN
 62
           1
100
AcDbCircle
 10
-89.562073
 20
658.42865
 30
0.0
 40
6.0
  0
ARC
  5
47
100
AcDbEntity
  8
LC-003-002-----0
  6
AUSGEZOGEN
 62
           1
100
AcDbCircle
 10
-89.562073
 20
658.42865
 30
0.0
 40
11.0
100
AcDbArc
 50
128.999993
 51
51.000001
  0
ARC
  5
48
100
AcDbEntity
  8
LC-003-002-----0
  6
AUSGEZOGEN
 62
           1
100
AcDbCircle
 10
-89.562073
 20
658.42865
 30
0.0
 40
9.0
100
AcDbArc
 50
128.999993
 51
51.000001
  0
LINE
  5
49
100
AcDbEntity
  8
LC-006-012-----0
  6
STRICHPUNKT
 62
           2
100
AcDbLine
 10
-73.562073
 20
638.422241
 30
0.0
 11
-73.562073
 21
673.051208
 31
0.0
  0
LINE
  5
4A
100
AcDbEntity
  8
LC-004-006-----0
  6
STRICHLINIE
 62
           2
100
AcDbLine
 10
-71.062073
 20
640.42865
 30
0.0
 11
-71.062073
 21
651.42865
 31
0.0
  0
LINE
  5
4B
100
AcDbEntity
  8
LC-004-006-----0
  6
STRICHLINIE
 62
           2
100
AcDbLine
 10
-76.062073
 20
640.42865
 30
0.0
 11
-76.062073
 21
651.42865
 31
0.0
  0
LINE
  5
4C
100
AcDbEntity
  8
LC-004-006-----0
  6
STRICHLINIE
 62
           2
100
AcDbLine
 10
-71.412079
 20
640.42865
 30
0.0
 11
-71.412079
 21
666.42865
 31
0.0
  0
LINE
  5
4D
100
AcDbEntity
  8
LC-004-006-----0
  6
STRICHLINIE
 62
           2
100
AcDbLine
 10
-75.712074
 20
640.42865
 30
0.0
 11
-75.712074
 21
666.42865
 31
0.0
  0
LINE
  5
4E
100
AcDbEntity
  8
LC-006-012-----0
  6
STRICHPUNKT
 62
           2
100
AcDbLine
 10
-0.971581
 20
648.657227
 30
0.0
 11
-0.971581
 21
663.58905
 31
0.0
  0
LINE
  5
4F
100
AcDbEntity
  8
LC-004-006-----0
  6
STRICHLINIE
 62
           2
100
AcDbLine
 10
-68.562073
 20
666.42865
 30
0.0
 11
-78.062073
 21
666.42865
 31
0.0
  0
LINE
  5
50
100
AcDbEntity
  8
LC-004-006-----0
  6
STRICHLINIE
 62
           2
100
AcDbLine
 10
-78.062073
 20
666.42865
 30
0.0
 11
-78.062073
 21
670.42865
 31
0.0
  0
LINE
  5
51
100
AcDbEntity
  8
LC-006-012-----0
  6
STRICHPUNKT
 62
           2
100
AcDbLine
 10
-105.562073
 20
638.422241
 30
0.0
 11
-105.562073
 21
673.051208
 31
0.0
  0
LINE
  5
52
100
AcDbEntity
  8
LC-004-006-----0
  6
STRICHLINIE
 62
           2
100
AcDbLine
 10
-108.062073
 20
640.42865
 30
0.0
 11
-108.062073
 21
651.42865
 31
0.0
  0
LINE
  5
53
100
AcDbEntity
  8
LC-004-006-----0
  6
STRICHLINIE
 62
           2
100
AcDbLine
 10
-103.062073
 20
640.42865
 30
0.0
 11
-103.062073
 21
651.42865
 31
0.0
  0
LINE
  5
54
100
AcDbEntity
  8
LC-004-006-----0
  6
STRICHLINIE
 62
           2
100
AcDbLine
 10
-107.712074
 20
640.42865
 30
0.0
 11
-107.712074
 21
666.42865
 31
0.0
  0
LINE
  5
55
100
AcDbEntity
  8
LC-004-006-----0
  6
STRICHLINIE
 62
           2
100
AcDbLine
 10
-103.412079
 20
640.42865
 30
0.0
 11
-103.412079
 21
666.42865
 31
0.0
  0
LINE
  5
56
100
AcDbEntity
  8
LC-004-006-----0
  6
STRICHLINIE
 62
           2
100
AcDbLine
 10
-110.562073
 20
666.42865
 30
0.0
 11
-101.062073
 21
666.42865
 31
0.0
  0
LINE
  5
57
100
AcDbEntity
  8
LC-004-006-----0
  6
STRICHLINIE
 62
           2
100
AcDbLine
 10
-101.062073
 20
666.42865
 30
0.0
 11
-101.062073
 21
670.42865
 31
0.0
  0
LINE
  5
58
100
AcDbEntity
  8
LC-003-002-----0
  6
AUSGEZOGEN
 62
           1
100
AcDbLine
 10
-16.971581
 20
667.42865
 30
0.0
 11
-11.471582
 21
667.42865
 31
0.0
  0
LINE
  5
59
100
AcDbEntity
  8
LC-003-002-----0
  6
AUSGEZOGEN
 62
           1
100
AcDbLine
 10
-2.471581
 20
667.42865
 30
0.0
 11
44.528419
 21
667.42865
 31
0.0
  0
LINE
  5
5A
100
AcDbEntity
  8
LC-003-002-----0
  6
AUSGEZOGEN
 62
           1
100
AcDbLine
 10
-110.562073
 20
574.006042
 30
0.0
 11
-110.562073
 21
498.005981
 31
0.0
  0
LINE
  5
5B
100
AcDbEntity
  8
LC-003-002-----0
  6
AUSGEZOGEN
 62
           1
100
AcDbLine
 10
-110.562073
 20
498.006012
 30
0.0
 11
-68.562073
 21
498.006012
 31
0.0
  0
LINE
  5
5C
100
AcDbEntity
  8
LC-003-002-----0
  6
AUSGEZOGEN
 62
           1
100
AcDbLine
 10
-110.562073
 20
574.006042
 30
0.0
 11
-68.562073
 21
574.006042
 31
0.0
  0
LINE
  5
5D
100
AcDbEntity
  8
LC-003-002-----0
  6
AUSGEZOGEN
 62
           1
100
AcDbLine
 10
-68.562073
 20
574.006042
 30
0.0
 11
-68.562073
 21
498.005981
 31
0.0
  0
LINE
  5
5E
100
AcDbEntity
  8
LC-006-012-----0
  6
STRICHPUNKT
 62
           2
100
AcDbLine
 10
-89.562073
 20
587.00116
 30
0.0
 11
-89.562073
 21
484.133698
 31
0.0
  0
LINE
  5
5F
100
AcDbEntity
  8
LC-004-006-----0
  6
STRICHLINIE
 62
           2
100
AcDbLine
 10
-100.562073
 20
574.006042
 30
0.0
 11
-100.562073
 21
542.006042
 31
0.0
  0
LINE
  5
60
100
AcDbEntity
  8
LC-006-012-----0
  6
STRICHPUNKT
 62
           2
100
AcDbLine
 10
-81.738998
 20
564.006042
 30
0.0
 11
-67.721397
 21
564.006042
 31
0.0
  0
LINE
  5
61
100
AcDbEntity
  8
LC-006-012-----0
  6
STRICHPUNKT
 62
           2
100
AcDbLine
 10
-73.562073
 20
570.865662
 30
0.0
 11
-73.562073
 21
557.348267
 31
0.0
  0
LINE
  5
62
100
AcDbEntity
  8
LC-004-006-----0
  6
STRICHLINIE
 62
           2
100
AcDbLine
 10
-78.562073
 20
574.006042
 30
0.0
 11
-78.562073
 21
542.006042
 31
0.0
  0
LINE
  5
63
100
AcDbEntity
  8
LC-006-012-----0
  6
STRICHPUNKT
 62
           2
100
AcDbLine
 10
-81.738998
 20
508.006012
 30
0.0
 11
-67.721397
 21
508.006012
 31
0.0
  0
LINE
  5
64
100
AcDbEntity
  8
LC-006-012-----0
  6
STRICHPUNKT
 62
           2
100
AcDbLine
 10
-73.562073
 20
501.146332
 30
0.0
 11
-73.562073
 21
514.663757
 31
0.0
  0
LINE
  5
65
100
AcDbEntity
  8
LC-006-012-----0
  6
STRICHPUNKT
 62
           2
100
AcDbLine
 10
-97.385155
 20
564.006042
 30
0.0
 11
-111.402756
 21
564.006042
 31
0.0
  0
LINE
  5
66
100
AcDbEntity
  8
LC-006-012-----0
  6
STRICHPUNKT
 62
           2
100
AcDbLine
 10
-97.385155
 20
508.006012
 30
0.0
 11
-111.402756
 21
508.006012
 31
0.0
  0
LINE
  5
67
100
AcDbEntity
  8
LC-006-012-----0
  6
STRICHPUNKT
 62
           2
100
AcDbLine
 10
-105.562073
 20
501.146332
 30
0.0
 11
-105.562073
 21
514.663757
 31
0.0
  0
LINE
  5
68
100
AcDbEntity
  8
LC-006-012-----0
  6
STRICHPUNKT
 62
           2
100
AcDbLine
 10
-105.562073
 20
570.865662
 30
0.0
 11
-105.562073
 21
557.348267
 31
0.0
  0
LINE
  5
69
100
AcDbEntity
  8
LC-003-002-----0
  6
AUSGEZOGEN
 62
           1
100
AcDbLine
 10
53.528419
 20
667.42865
 30
0.0
 11
59.028419
 21
667.42865
 31
0.0
  0
LINE
  5
6A
100
AcDbEntity
  8
LC-003-002-----0
  6
AUSGEZOGEN
 62
           1
100
AcDbLine
 10
-16.971581
 20
640.42865
 30
0.0
 11
59.028419
 21
640.42865
 31
0.0
  0
LINE
  5
6B
100
AcDbEntity
  8
LC-004-006-----0
  6
STRICHLINIE
 62
           2
100
AcDbLine
 10
-100.562073
 20
530.006042
 30
0.0
 11
-99.279488
 21
530.006042
 31
0.0
  0
LINE
  5
6C
100
AcDbEntity
  8
LC-004-006-----0
  6
STRICHLINIE
 62
           2
100
AcDbLine
 10
-100.562073
 20
542.006042
 30
0.0
 11
-99.279488
 21
542.006042
 31
0.0
  0
LINE
  5
6D
100
AcDbEntity
  8
LC-003-002-----0
  6
AUSGEZOGEN
 62
           1
100
AcDbLine
 10
-95.562073
 20
584.233154
 30
0.0
 11
-95.562073
 21
574.006042
 31
0.0
  0
LINE
  5
6E
100
AcDbEntity
  8
LC-003-002-----0
  6
AUSGEZOGEN
 62
           1
100
AcDbLine
 10
-83.562073
 20
584.547607
 30
0.0
 11
-83.562073
 21
574.006042
 31
0.0
  0
LINE
  5
6F
100
AcDbEntity
  8
LC-008-003-----0
  6
AUSGEZOGEN
 62
           2
100
AcDbLine
 10
-95.562073
 20
584.233154
 30
0.0
 11
-92.823227
 21
583.679138
 31
0.0
  0
LINE
  5
70
100
AcDbEntity
  8
LC-008-003-----0
  6
AUSGEZOGEN
 62
           2
100
AcDbLine
 10
-92.823227
 20
583.679138
 30
0.0
 11
-85.986053
 21
584.939209
 31
0.0
  0
LINE
  5
71
100
AcDbEntity
  8
LC-008-003-----0
  6
AUSGEZOGEN
 62
           2
100
AcDbLine
 10
-85.986053
 20
584.939209
 30
0.0
 11
-83.562073
 21
584.547607
 31
0.0
  0
LINE
  5
72
100
AcDbEntity
  8
LC-008-003-----0
  6
AUSGEZOGEN
 62
           2
100
AcDbLine
 10
-95.562073
 20
488.584778
 30
0.0
 11
-92.367416
 21
487.799377
 31
0.0
  0
LINE
  5
73
100
AcDbEntity
  8
LC-008-003-----0
  6
AUSGEZOGEN
 62
           2
100
AcDbLine
 10
-92.367416
 20
487.799377
 30
0.0
 11
-86.441864
 21
488.830322
 31
0.0
  0
LINE
  5
74
100
AcDbEntity
  8
LC-008-003-----0
  6
AUSGEZOGEN
 62
           2
100
AcDbLine
 10
-86.441864
 20
488.830322
 30
0.0
 11
-83.562073
 21
487.916168
 31
0.0
  0
LINE
  5
75
100
AcDbEntity
  8
LC-004-006-----0
  6
STRICHLINIE
 62
           2
100
AcDbLine
 10
-95.562073
 20
574.006042
 30
0.0
 11
-95.562073
 21
542.006042
 31
0.0
  0
LINE
  5
76
100
AcDbEntity
  8
LC-004-006-----0
  6
STRICHLINIE
 62
           2
100
AcDbLine
 10
-83.562073
 20
574.006042
 30
0.0
 11
-83.562073
 21
542.006042
 31
0.0
  0
LINE
  5
77
100
AcDbEntity
  8
LC-003-002-----0
  6
AUSGEZOGEN
 62
           1
100
AcDbLine
 10
-95.562073
 20
498.006012
 30
0.0
 11
-95.562073
 21
488.584778
 31
0.0
  0
LINE
  5
78
100
AcDbEntity
  8
LC-003-002-----0
  6
AUSGEZOGEN
 62
           1
100
AcDbLine
 10
-83.562073
 20
498.006012
 30
0.0
 11
-83.562073
 21
487.916168
 31
0.0
  0
LINE
  5
79
100
AcDbEntity
  8
LC-003-002-----0
  6
AUSGEZOGEN
 62
           1
100
AcDbLine
 10
59.028419
 20
640.42865
 30
0.0
 11
59.028419
 21
670.42865
 31
0.0
  0
LINE
  5
7A
100
AcDbEntity
  8
LC-003-002-----0
  6
AUSGEZOGEN
 62
           1
100
AcDbLine
 10
-16.971581
 20
670.42865
 30
0.0
 11
59.028419
 21
670.42865
 31
0.0
  0
LINE
  5
7B
100
AcDbEntity
  8
LC-003-002-----0
  6
AUSGEZOGEN
 62
           1
100
AcDbLine
 10
-16.971581
 20
640.42865
 30
0.0
 11
-16.971581
 21
670.42865
 31
0.0
  0
LINE
  5
7C
100
AcDbEntity
  8
LC-006-012-----0
  6
STRICHPUNKT
 62
           2
100
AcDbLine
 10
49.028419
 20
638.422241
 30
0.0
 11
49.028419
 21
673.051208
 31
0.0
  0
LINE
  5
7D
100
AcDbEntity
  8
LC-006-012-----0
  6
STRICHPUNKT
 62
           2
100
AcDbLine
 10
49.028419
 20
638.422241
 30
0.0
 11
49.028419
 21
673.051208
 31
0.0
  0
LINE
  5
7E
100
AcDbEntity
  8
LC-004-006-----0
  6
STRICHLINIE
 62
           2
100
AcDbLine
 10
51.178417
 20
640.42865
 30
0.0
 11
51.178417
 21
666.42865
 31
0.0
  0
LINE
  5
7F
100
AcDbEntity
  8
LC-004-006-----0
  6
STRICHLINIE
 62
           2
100
AcDbLine
 10
46.878418
 20
640.42865
 30
0.0
 11
46.878418
 21
666.42865
 31
0.0
  0
LINE
  5
80
100
AcDbEntity
  8
LC-003-002-----0
  6
AUSGEZOGEN
 62
           1
100
AcDbLine
 10
53.528419
 20
666.42865
 30
0.0
 11
44.528419
 21
666.42865
 31
0.0
  0
LINE
  5
81
100
AcDbEntity
  8
LC-003-002-----0
  6
AUSGEZOGEN
 62
           1
100
AcDbLine
 10
44.528419
 20
666.42865
 30
0.0
 11
44.528419
 21
670.42865
 31
0.0
  0
LINE
  5
82
100
AcDbEntity
  8
LC-004-006-----0
  6
STRICHLINIE
 62
           2
100
AcDbLine
 10
15.028419
 20
647.42865
 30
0.0
 11
15.028419
 21
666.977234
 31
0.0
  0
LINE
  5
83
100
AcDbEntity
  8
LC-004-006-----0
  6
STRICHLINIE
 62
           2
100
AcDbLine
 10
46.528419
 20
640.42865
 30
0.0
 11
46.528419
 21
651.42865
 31
0.0
  0
LINE
  5
84
100
AcDbEntity
  8
LC-004-006-----0
  6
STRICHLINIE
 62
           2
100
AcDbLine
 10
51.528419
 20
640.42865
 30
0.0
 11
51.528419
 21
651.42865
 31
0.0
  0
LINE
  5
85
100
AcDbEntity
  8
LC-004-006-----0
  6
STRICHLINIE
 62
           2
100
AcDbLine
 10
46.528419
 20
651.42865
 30
0.0
 11
51.528419
 21
651.42865
 31
0.0
  0
LINE
  5
86
100
AcDbEntity
  8
LC-003-002-----0
  6
AUSGEZOGEN
 62
           1
100
AcDbLine
 10
53.528419
 20
666.42865
 30
0.0
 11
53.528419
 21
670.42865
 31
0.0
  0
LINE
  5
87
100
AcDbEntity
  8
LC-006-012-----0
  6
STRICHPUNKT
 62
           2
100
AcDbLine
 10
-6.971581
 20
638.422241
 30
0.0
 11
-6.971581
 21
673.051208
 31
0.0
  0
LINE
  5
88
100
AcDbEntity
  8
LC-006-012-----0
  6
STRICHPUNKT
 62
           2
100
AcDbLine
 10
-6.971581
 20
638.422241
 30
0.0
 11
-6.971581
 21
673.051208
 31
0.0
  0
LINE
  5
89
100
AcDbEntity
  8
LC-004-006-----0
  6
STRICHLINIE
 62
           2
100
AcDbLine
 10
-9.121581
 20
640.42865
 30
0.0
 11
-9.121581
 21
666.42865
 31
0.0
  0
LINE
  5
8A
100
AcDbEntity
  8
LC-004-006-----0
  6
STRICHLINIE
 62
           2
100
AcDbLine
 10
-4.821581
 20
640.42865
 30
0.0
 11
-4.821581
 21
666.42865
 31
0.0
  0
LINE
  5
8B
100
AcDbEntity
  8
LC-003-002-----0
  6
AUSGEZOGEN
 62
           1
100
AcDbLine
 10
-11.471581
 20
666.42865
 30
0.0
 11
-2.471581
 21
666.42865
 31
0.0
  0
LINE
  5
8C
100
AcDbEntity
  8
LC-003-002-----0
  6
AUSGEZOGEN
 62
           1
100
AcDbLine
 10
-2.471581
 20
666.42865
 30
0.0
 11
-2.471581
 21
670.42865
 31
0.0
  0
LINE
  5
8D
100
AcDbEntity
  8
LC-004-006-----0
  6
STRICHLINIE
 62
           2
100
AcDbLine
 10
-4.471581
 20
640.42865
 30
0.0
 11
-4.471581
 21
651.42865
 31
0.0
  0
LINE
  5
8E
100
AcDbEntity
  8
LC-004-006-----0
  6
STRICHLINIE
 62
           2
100
AcDbLine
 10
-9.471581
 20
640.42865
 30
0.0
 11
-9.471581
 21
651.42865
 31
0.0
  0
LINE
  5
8F
100
AcDbEntity
  8
LC-004-006-----0
  6
STRICHLINIE
 62
           2
100
AcDbLine
 10
-4.471581
 20
651.42865
 30
0.0
 11
-9.471581
 21
651.42865
 31
0.0
  0
LINE
  5
90
100
AcDbEntity
  8
LC-003-002-----0
  6
AUSGEZOGEN
 62
           1
100
AcDbLine
 10
-11.471581
 20
666.42865
 30
0.0
 11
-11.471581
 21
670.42865
 31
0.0
  0
LINE
  5
91
100
AcDbEntity
  8
LC-004-006-----0
  6
STRICHLINIE
 62
           2
100
AcDbLine
 10
27.028419
 20
647.42865
 30
0.0
 11
27.028419
 21
666.977234
 31
0.0
  0
LINE
  5
92
100
AcDbEntity
  8
LC-006-012-----0
  6
STRICHPUNKT
 62
           2
100
AcDbLine
 10
-36.339069
 20
658.42865
 30
0.0
 11
74.88768
 21
658.42865
 31
0.0
  0
LINE
  5
93
100
AcDbEntity
  8
LC-004-006-----0
  6
STRICHLINIE
 62
           2
100
AcDbLine
 10
-16.971581
 20
666.977234
 30
0.0
 11
15.028418
 21
666.977234
 31
0.0
  0
LINE
  5
94
100
AcDbEntity
  8
LC-004-006-----0
  6
STRICHLINIE
 62
           2
100
AcDbLine
 10
-16.971581
 20
647.42865
 30
0.0
 11
15.028418
 21
647.42865
 31
0.0
  0
LINE
  5
95
100
AcDbEntity
  8
LC-003-002-----0
  6
AUSGEZOGEN
 62
           1
100
AcDbLine
 10
-31.494692
 20
664.42865
 30
0.0
 11
-16.971581
 21
664.42865
 31
0.0
  0
LINE
  5
96
100
AcDbEntity
  8
LC-003-002-----0
  6
AUSGEZOGEN
 62
           1
100
AcDbLine
 10
-31.73147
 20
652.42865
 30
0.0
 11
-16.971581
 21
652.42865
 31
0.0
  0
LINE
  5
97
100
AcDbEntity
  8
LC-008-003-----0
  6
AUSGEZOGEN
 62
           2
100
AcDbLine
 10
70.716316
 20
652.42865
 30
0.0
 11
71.052277
 21
654.455017
 31
0.0
  0
LINE
  5
98
100
AcDbEntity
  8
LC-008-003-----0
  6
AUSGEZOGEN
 62
           2
100
AcDbLine
 10
71.052277
 20
654.455017
 30
0.0
 11
70.314697
 21
660.683167
 31
0.0
  0
LINE
  5
99
100
AcDbEntity
  8
LC-008-003-----0
  6
AUSGEZOGEN
 62
           2
100
AcDbLine
 10
70.314697
 20
660.683167
 30
0.0
 11
70.66954
 21
664.42865
 31
0.0
  0
LINE
  5
9A
100
AcDbEntity
  8
LC-008-003-----0
  6
AUSGEZOGEN
 62
           2
100
AcDbLine
 10
-31.73147
 20
652.42865
 30
0.0
 11
-31.176023
 21
655.011108
 31
0.0
  0
LINE
  5
9B
100
AcDbEntity
  8
LC-008-003-----0
  6
AUSGEZOGEN
 62
           2
100
AcDbLine
 10
-31.176023
 20
655.011108
 30
0.0
 11
-31.766087
 21
661.461731
 31
0.0
  0
LINE
  5
9C
100
AcDbEntity
  8
LC-008-003-----0
  6
AUSGEZOGEN
 62
           2
100
AcDbLine
 10
-31.766087
 20
661.461731
 30
0.0
 11
-31.494692
 21
664.42865
 31
0.0
  0
LINE
  5
9D
100
AcDbEntity
  8
LC-004-006-----0
  6
STRICHLINIE
 62
           2
100
AcDbLine
 10
-16.971581
 20
664.42865
 30
0.0
 11
59.028419
 21
664.42865
 31
0.0
  0
LINE
  5
9E
100
AcDbEntity
  8
LC-004-006-----0
  6
STRICHLINIE
 62
           2
100
AcDbLine
 10
-16.971581
 20
652.42865
 30
0.0
 11
59.028419
 21
652.42865
 31
0.0
  0
LINE
  5
9F
100
AcDbEntity
  8
LC-003-002-----0
  6
AUSGEZOGEN
 62
           1
100
AcDbLine
 10
59.028419
 20
652.42865
 30
0.0
 11
70.716316
 21
652.42865
 31
0.0
  0
LINE
  5
A0
100
AcDbEntity
  8
LC-003-002-----0
  6
AUSGEZOGEN
 62
           1
100
AcDbLine
 10
59.028419
 20
664.42865
 30
0.0
 11
70.66954
 21
664.42865
 31
0.0
  0
LINE
  5
A1
100
AcDbEntity
  8
LC-003-002-----0
  6
AUSGEZOGEN
 62
           1
100
AcDbLine
 10
-85.786156
 20
663.091492
 30
0.0
 11
-82.639549
 21
666.977234
 31
0.0
  0
LINE
  5
A2
100
AcDbEntity
  8
LC-003-002-----0
  6
AUSGEZOGEN
 62
           1
100
AcDbLine
 10
-93.337997
 20
663.091492
 30
0.0
 11
-96.484596
 21
666.977234
 31
0.0
  0
LINE
  5
A3
100
AcDbEntity
  8
LC-003-002-----0
  6
AUSGEZOGEN
 62
           1
100
AcDbLine
 10
-79.844666
 20
670.42865
 30
0.0
 11
-71.562073
 21
670.42865
 31
0.0
  0
LINE
  5
A4
100
AcDbEntity
  8
LC-003-002-----0
  6
AUSGEZOGEN
 62
           1
100
AcDbLine
 10
-96.484596
 20
666.977234
 30
0.0
 11
-99.279488
 21
670.42865
 31
0.0
  0
LINE
  5
A5
100
AcDbEntity
  8
LC-003-002-----0
  6
AUSGEZOGEN
 62
           1
100
AcDbLine
 10
-82.639549
 20
666.977234
 30
0.0
 11
-79.844666
 21
670.42865
 31
0.0
  0
LINE
  5
A6
100
AcDbEntity
  8
LC-003-002-----0
  6
AUSGEZOGEN
 62
           1
100
AcDbLine
 10
-99.279488
 20
574.006042
 30
0.0
 11
-99.279488
 21
498.005981
 31
0.0
  0
LINE
  5
A7
100
AcDbEntity
  8
LC-003-002-----0
  6
AUSGEZOGEN
 62
           1
100
AcDbLine
 10
-79.844666
 20
574.006042
 30
0.0
 11
-79.844666
 21
498.005981
 31
0.0
  0
LINE
  5
A8
100
AcDbEntity
  8
LC-003-002-----0
  6
AUSGEZOGEN
 62
           1
100
AcDbLine
 10
-96.484596
 20
574.006042
 30
0.0
 11
-96.484596
 21
542.006042
 31
0.0
  0
LINE
  5
A9
100
AcDbEntity
  8
LC-003-002-----0
  6
AUSGEZOGEN
 62
           1
100
AcDbLine
 10
-82.639549
 20
574.006042
 30
0.0
 11
-82.639549
 21
542.006042
 31
0.0
  0
LINE
  5
AA
100
AcDbEntity
  8
LC-003-002-----0
  6
AUSGEZOGEN
 62
           1
100
AcDbLine
 10
-93.337997
 20
574.006042
 30
0.0
 11
-93.337997
 21
542.006042
 31
0.0
  0
LINE
  5
AB
100
AcDbEntity
  8
LC-003-002-----0
  6
AUSGEZOGEN
 62
           1
100
AcDbLine
 10
-85.786156
 20
574.006042
 30
0.0
 11
-85.786156
 21
542.006042
 31
0.0
  0
LINE
  5
AC
100
AcDbEntity
  8
LC-003-002-----0
  6
AUSGEZOGEN
 62
           1
100
AcDbLine
 10
-93.337997
 20
530.006042
 30
0.0
 11
-93.337997
 21
498.005981
 31
0.0
  0
LINE
  5
AD
100
AcDbEntity
  8
LC-003-002-----0
  6
AUSGEZOGEN
 62
           1
100
AcDbLine
 10
-85.786156
 20
530.006042
 30
0.0
 11
-85.786156
 21
498.005981
 31
0.0
  0
LINE
  5
AE
100
AcDbEntity
  8
LC-003-002-----0
  6
AUSGEZOGEN
 62
           1
100
AcDbLine
 10
-96.484596
 20
530.006042
 30
0.0
 11
-96.484596
 21
498.005981
 31
0.0
  0
LINE
  5
AF
100
AcDbEntity
  8
LC-003-002-----0
  6
AUSGEZOGEN
 62
           1
100
AcDbLine
 10
-82.639549
 20
530.006042
 30
0.0
 11
-82.639549
 21
498.005981
 31
0.0
  0
LINE
  5
B0
100
AcDbEntity
  8
LC-003-002-----0
  6
AUSGEZOGEN
 62
           1
100
AcDbLine
 10
-95.562073
 20
542.006042
 30
0.0
 11
-95.562073
 21
530.006042
 31
0.0
  0
LINE
  5
B1
100
AcDbEntity
  8
LC-004-006-----0
  6
STRICHLINIE
 62
           2
100
AcDbLine
 10
-95.562073
 20
530.006042
 30
0.0
 11
-95.562073
 21
498.005981
 31
0.0
  0
LINE
  5
B2
100
AcDbEntity
  8
LC-003-002-----0
  6
AUSGEZOGEN
 62
           1
100
AcDbLine
 10
-83.562073
 20
542.006042
 30
0.0
 11
-83.562073
 21
530.006042
 31
0.0
  0
LINE
  5
B3
100
AcDbEntity
  8
LC-004-006-----0
  6
STRICHLINIE
 62
           2
100
AcDbLine
 10
-83.562073
 20
530.006042
 30
0.0
 11
-83.562073
 21
498.005981
 31
0.0
  0
LINE
  5
B4
100
AcDbEntity
  8
LC-003-002-----0
  6
AUSGEZOGEN
 62
           1
100
AcDbLine
 10
-99.279488
 20
542.006042
 30
0.0
 11
-93.337997
 21
542.006042
 31
0.0
  0
LINE
  5
B5
100
AcDbEntity
  8
LC-004-006-----0
  6
STRICHLINIE
 62
           2
100
AcDbLine
 10
-93.337997
 20
542.006042
 30
0.0
 11
-85.786156
 21
542.006042
 31
0.0
  0
LINE
  5
B6
100
AcDbEntity
  8
LC-003-002-----0
  6
AUSGEZOGEN
 62
           1
100
AcDbLine
 10
-85.786156
 20
542.006042
 30
0.0
 11
-79.844666
 21
542.006042
 31
0.0
  0
LINE
  5
B7
100
AcDbEntity
  8
LC-004-006-----0
  6
STRICHLINIE
 62
           2
100
AcDbLine
 10
-79.844666
 20
542.006042
 30
0.0
 11
-78.562073
 21
542.006042
 31
0.0
  0
LINE
  5
B8
100
AcDbEntity
  8
LC-003-002-----0
  6
AUSGEZOGEN
 62
           1
100
AcDbLine
 10
-85.786156
 20
530.006042
 30
0.0
 11
-79.844666
 21
530.006042
 31
0.0
  0
LINE
  5
B9
100
AcDbEntity
  8
LC-004-006-----0
  6
STRICHLINIE
 62
           2
100
AcDbLine
 10
-79.844666
 20
530.006042
 30
0.0
 11
-78.562073
 21
530.006042
 31
0.0
  0
LINE
  5
BA
100
AcDbEntity
  8
LC-003-002-----0
  6
AUSGEZOGEN
 62
           1
100
AcDbLine
 10
-99.279488
 20
530.006042
 30
0.0
 11
-93.337997
 21
530.006042
 31
0.0
  0
LINE
  5
BB
100
AcDbEntity
  8
LC-004-006-----0
  6
STRICHLINIE
 62
           2
100
AcDbLine
 10
-93.337997
 20
530.006042
 30
0.0
 11
-85.786156
 21
530.006042
 31
0.0
  0
LINE
  5
BC
100
AcDbEntity
  8
LC-004-006-----0
  6
STRICHLINIE
 62
           2
100
AcDbLine
 10
-16.971581
 20
663.091492
 30
0.0
 11
15.028418
 21
663.091492
 31
0.0
  0
LINE
  5
BD
100
AcDbEntity
  8
LC-004-006-----0
  6
STRICHLINIE
 62
           2
100
AcDbLine
 10
27.028419
 20
663.091492
 30
0.0
 11
59.028419
 21
663.091492
 31
0.0
  0
LINE
  5
BE
100
AcDbEntity
  8
LC-003-002-----0
  6
AUSGEZOGEN
 62
           1
100
AcDbLine
 10
-107.562073
 20
574.006042
 30
0.0
 11
-107.562073
 21
568.506042
 31
0.0
  0
LINE
  5
BF
100
AcDbEntity
  8
LC-003-002-----0
  6
AUSGEZOGEN
 62
           1
100
AcDbLine
 10
-107.562073
 20
503.506012
 30
0.0
 11
-107.562073
 21
498.006012
 31
0.0
  0
LINE
  5
C0
100
AcDbEntity
  8
LC-003-002-----0
  6
AUSGEZOGEN
 62
           1
100
AcDbLine
 10
-107.562073
 20
559.506042
 30
0.0
 11
-107.562073
 21
512.506042
 31
0.0
  0
LINE
  5
C1
100
AcDbEntity
  8
LC-003-002-----0
  6
AUSGEZOGEN
 62
           1
100
AcDbLine
 10
-71.562073
 20
574.006042
 30
0.0
 11
-71.562073
 21
568.506042
 31
0.0
  0
LINE
  5
C2
100
AcDbEntity
  8
LC-003-002-----0
  6
AUSGEZOGEN
 62
           1
100
AcDbLine
 10
-71.562073
 20
559.506042
 30
0.0
 11
-71.562073
 21
512.506042
 31
0.0
  0
LINE
  5
C3
100
AcDbEntity
  8
LC-003-002-----0
  6
AUSGEZOGEN
 62
           1
100
AcDbLine
 10
-71.562073
 20
503.506012
 30
0.0
 11
-71.562073
 21
498.006012
 31
0.0
  0
LINE
  5
C4
100
AcDbEntity
  8
LC-004-006-----0
  6
STRICHLINIE
 62
           2
100
AcDbLine
 10
-100.562073
 20
542.006042
 30
0.0
 11
-100.562073
 21
530.006042
 31
0.0
  0
LINE
  5
C5
100
AcDbEntity
  8
LC-004-006-----0
  6
STRICHLINIE
 62
           2
100
AcDbLine
 10
-100.562073
 20
530.006042
 30
0.0
 11
-100.562073
 21
498.005981
 31
0.0
  0
LINE
  5
C6
100
AcDbEntity
  8
LC-004-006-----0
  6
STRICHLINIE
 62
           2
100
AcDbLine
 10
-78.562073
 20
542.006042
 30
0.0
 11
-78.562073
 21
530.006042
 31
0.0
  0
LINE
  5
C7
100
AcDbEntity
  8
LC-004-006-----0
  6
STRICHLINIE
 62
           2
100
AcDbLine
 10
-78.562073
 20
530.006042
 30
0.0
 11
-78.562073
 21
498.005981
 31
0.0
  0
LINE
  5
C8
100
AcDbEntity
  8
LC-004-006-----0
  6
STRICHLINIE
 62
           2
100
AcDbLine
 10
15.028419
 20
647.42865
 30
0.0
 11
27.028419
 21
647.42865
 31
0.0
  0
LINE
  5
C9
100
AcDbEntity
  8
LC-004-006-----0
  6
STRICHLINIE
 62
           2
100
AcDbLine
 10
27.028419
 20
647.42865
 30
0.0
 11
59.028419
 21
647.42865
 31
0.0
  0
LINE
  5
CA
100
AcDbEntity
  8
LC-004-006-----0
  6
STRICHLINIE
 62
           2
100
AcDbLine
 10
27.028419
 20
666.977234
 30
0.0
 11
59.028419
 21
666.977234
 31
0.0
  0
LINE
  5
CB
100
AcDbEntity
  8
LC-004-006-----0
  6
STRICHLINIE
 62
           2
100
AcDbLine
 10
-76.062073
 20
651.42865
 30
0.0
 11
-71.062073
 21
651.42865
 31
0.0
  0
LINE
  5
CC
100
AcDbEntity
  8
LC-004-006-----0
  6
STRICHLINIE
 62
           2
100
AcDbLine
 10
-70.900322
 20
649.58844
 30
0.0
 11
-68.562073
 21
649.301331
 31
0.0
  0
LINE
  5
CD
100
AcDbEntity
  8
LC-004-006-----0
  6
STRICHLINIE
 62
           2
100
AcDbLine
 10
-70.848183
 20
654.115845
 30
0.0
 11
-76.30719
 21
654.786133
 31
0.0
  0
LINE
  5
CE
100
AcDbEntity
  8
LC-004-006-----0
  6
STRICHLINIE
 62
           2
100
AcDbLine
 10
-70.360703
 20
658.08606
 30
0.0
 11
-75.81971
 21
658.756287
 31
0.0
  0
LINE
  5
CF
100
AcDbEntity
  8
LC-004-006-----0
  6
STRICHLINIE
 62
           2
100
AcDbLine
 10
-76.119987
 20
654.259399
 30
0.0
 11
-70.909119
 21
653.619568
 31
0.0
  0
LINE
  5
D0
100
AcDbEntity
  8
LC-004-006-----0
  6
STRICHLINIE
 62
           2
100
AcDbLine
 10
-70.299774
 20
658.582275
 30
0.0
 11
-75.510635
 21
659.222107
 31
0.0
  0
LINE
  5
D1
100
AcDbEntity
  8
LC-004-006-----0
  6
STRICHLINIE
 62
           2
100
AcDbLine
 10
-67.812309
 20
658.327271
 30
0.0
 11
-68.433846
 21
653.265259
 31
0.0
  0
LINE
  5
D2
100
AcDbEntity
  8
LC-004-006-----0
  6
STRICHLINIE
 62
           2
100
AcDbLine
 10
-78.957535
 20
658.637817
 30
0.0
 11
-79.323143
 21
655.660217
 31
0.0
  0
LINE
  5
D3
100
AcDbEntity
  8
LC-004-006-----0
  6
STRICHLINIE
 62
           2
100
AcDbLine
 10
-76.337654
 20
654.537964
 30
0.0
 11
-76.119987
 21
654.259399
 31
0.0
  0
LINE
  5
D4
100
AcDbEntity
  8
LC-004-006-----0
  6
STRICHLINIE
 62
           2
100
AcDbLine
 10
-75.510635
 20
659.222107
 30
0.0
 11
-75.789246
 21
659.004456
 31
0.0
  0
LINE
  5
D5
100
AcDbEntity
  8
LC-004-006-----0
  6
STRICHLINIE
 62
           2
100
AcDbLine
 10
-75.510635
 20
659.222107
 30
0.0
 11
-76.119987
 21
654.259399
 31
0.0
  0
LINE
  5
D6
100
AcDbEntity
  8
LC-004-006-----0
  6
STRICHLINIE
 62
           2
100
AcDbLine
 10
-69.316025
 20
662.491577
 30
0.0
 11
-70.900322
 21
649.58844
 31
0.0
  0
LINE
  5
D7
100
AcDbEntity
  8
LC-004-006-----0
  6
STRICHLINIE
 62
           2
100
AcDbLine
 10
-68.671074
 20
652.538757
 30
0.0
 11
-70.510338
 21
652.764587
 31
0.0
  0
LINE
  5
D8
100
AcDbEntity
  8
LC-004-006-----0
  6
STRICHLINIE
 62
           2
100
AcDbLine
 10
-67.86673
 20
659.0896
 30
0.0
 11
-69.706001
 21
659.31543
 31
0.0
  0
LINE
  5
D9
100
AcDbEntity
  8
LC-004-006-----0
  6
STRICHLINIE
 62
           2
100
AcDbLine
 10
-68.488266
 20
654.027588
 30
0.0
 11
-70.327538
 21
654.253418
 31
0.0
  0
LINE
  5
DA
100
AcDbEntity
  8
LC-004-006-----0
  6
STRICHLINIE
 62
           2
100
AcDbLine
 10
-68.049538
 20
657.600769
 30
0.0
 11
-69.888809
 21
657.826599
 31
0.0
  0
LINE
  5
DB
100
AcDbEntity
  8
LC-004-006-----0
  6
STRICHLINIE
 62
           2
100
AcDbLine
 10
-75.789246
 20
659.004456
 30
0.0
 11
-76.337654
 21
654.537964
 31
0.0
  0
ARC
  5
DC
100
AcDbEntity
  8
LC-004-006-----0
  6
STRICHLINIE
 62
           2
100
AcDbCircle
 10
-79.140343
 20
657.148987
 30
0.0
 40
11.1
100
AcDbArc
 50
343.667582
 51
2.332418
  0
ARC
  5
DD
100
AcDbEntity
  8
LC-004-006-----0
  6
STRICHLINIE
 62
           2
100
AcDbCircle
 10
-69.797401
 20
658.570984
 30
0.0
 40
1.999103
100
AcDbArc
 50
330.965286
 51
15.034714999999
  0
LINE
  5
DE
100
AcDbEntity
  8
LC-004-006-----0
  6
STRICHLINIE
 62
           2
100
AcDbLine
 10
-76.276718
 20
655.034241
 30
0.0
 11
-79.105476
 21
655.381592
 31
0.0
  0
ARC
  5
DF
100
AcDbEntity
  8
LC-004-006-----0
  6
STRICHLINIE
 62
           2
100
AcDbCircle
 10
-70.418938
 20
653.509033
 30
0.0
 40
1.999103
100
AcDbArc
 50
330.965286
 51
15.034714999999
  0
LINE
  5
E0
100
AcDbEntity
  8
LC-004-006-----0
  6
STRICHLINIE
 62
           2
100
AcDbLine
 10
-70.299774
 20
658.582275
 30
0.0
 11
-70.909119
 21
653.619568
 31
0.0
  0
LINE
  5
E1
100
AcDbEntity
  8
LC-004-006-----0
  6
STRICHLINIE
 62
           2
100
AcDbLine
 10
-70.376282
 20
653.856384
 30
0.0
 11
-70.872559
 21
653.917358
 31
0.0
  0
LINE
  5
E2
100
AcDbEntity
  8
LC-004-006-----0
  6
STRICHLINIE
 62
           2
100
AcDbLine
 10
-69.840057
 20
658.223633
 30
0.0
 11
-70.336334
 21
658.284546
 31
0.0
  0
LINE
  5
E3
100
AcDbEntity
  8
LC-004-006-----0
  6
STRICHLINIE
 62
           2
100
AcDbLine
 10
-75.850174
 20
658.508179
 30
0.0
 11
-78.678932
 21
658.85553
 31
0.0
  0
ARC
  5
E4
100
AcDbEntity
  8
LC-004-006-----0
  6
STRICHLINIE
 62
           2
100
AcDbCircle
 10
-79.075012
 20
655.6297
 30
0.0
 40
0.25
100
AcDbArc
 50
173.000004000008
 51
263.000003000001
  0
ARC
  5
E5
100
AcDbEntity
  8
LC-004-006-----0
  6
STRICHLINIE
 62
           2
100
AcDbCircle
 10
-78.709404
 20
658.607361
 30
0.0
 40
0.25
100
AcDbArc
 50
83.000001
 51
173.000004000008
  0
LINE
  5
E6
100
AcDbEntity
  8
LC-004-006-----0
  6
STRICHLINIE
 62
           2
100
AcDbLine
 10
-69.316025
 20
662.491577
 30
0.0
 11
-68.562073
 21
662.398987
 31
0.0
  0
LINE
  5
E7
100
AcDbEntity
  8
LC-006-012-----0
  6
STRICHPUNKT
 62
           2
100
AcDbLine
 10
-80.347137
 20
657.29718
 30
0.0
 11
-66.715439
 21
655.623413
 31
0.0
  0
LINE
  5
E8
100
AcDbEntity
  8
LC-003-002-----0
  6
AUSGEZOGEN
 62
           1
100
AcDbLine
 10
-3.831581
 20
657.501404
 30
0.0
 11
-0.971581
 21
659.152588
 31
0.0
  0
LINE
  5
E9
100
AcDbEntity
  8
LC-003-002-----0
  6
AUSGEZOGEN
 62
           1
100
AcDbLine
 10
-3.831581
 20
654.198975
 30
0.0
 11
-3.831581
 21
657.501404
 31
0.0
  0
LINE
  5
EA
100
AcDbEntity
  8
LC-003-002-----0
  6
AUSGEZOGEN
 62
           1
100
AcDbLine
 10
1.888419
 20
654.198975
 30
0.0
 11
1.888419
 21
657.501404
 31
0.0
  0
CIRCLE
  5
EB
100
AcDbEntity
  8
LC-003-002-----0
  6
AUSGEZOGEN
 62
           1
100
AcDbCircle
 10
-0.971581
 20
655.850159
 30
0.0
 40
2.86
  0
LINE
  5
EC
100
AcDbEntity
  8
LC-006-012-----0
  6
STRICHPUNKT
 62
           2
100
AcDbLine
 10
-8.459991
 20
655.850159
 30
0.0
 11
6.493701
 21
655.850159
 31
0.0
  0
LINE
  5
ED
100
AcDbEntity
  8
LC-003-002-----0
  6
AUSGEZOGEN
 62
           1
100
AcDbLine
 10
1.888419
 20
657.501404
 30
0.0
 11
-0.971581
 21
659.152588
 31
0.0
  0
LINE
  5
EE
100
AcDbEntity
  8
LC-003-002-----0
  6
AUSGEZOGEN
 62
           1
100
AcDbLine
 10
-0.971581
 20
652.547729
 30
0.0
 11
1.888419
 21
654.198975
 31
0.0
  0
LINE
  5
EF
100
AcDbEntity
  8
LC-003-002-----0
  6
AUSGEZOGEN
 62
           1
100
AcDbLine
 10
-0.971581
 20
652.547729
 30
0.0
 11
-3.831581
 21
654.198975
 31
0.0
  0
LINE
  5
F0
100
AcDbEntity
  8
LC-004-006-----0
  6
STRICHLINIE
 62
           2
100
AcDbLine
 10
-103.062073
 20
651.42865
 30
0.0
 11
-108.062073
 21
651.42865
 31
0.0
  0
LINE
  5
F1
100
AcDbEntity
  8
LC-006-012-----0
  6
STRICHPUNKT
 62
           2
100
AcDbLine
 10
43.028419
 20
648.657227
 30
0.0
 11
43.028419
 21
663.58905
 31
0.0
  0
LINE
  5
F2
100
AcDbEntity
  8
LC-004-006-----0
  6
STRICHLINIE
 62
           2
100
AcDbLine
 10
45.88842
 20
657.501404
 30
0.0
 11
43.028419
 21
659.152588
 31
0.0
  0
LINE
  5
F3
100
AcDbEntity
  8
LC-004-006-----0
  6
STRICHLINIE
 62
           2
100
AcDbLine
 10
45.88842
 20
654.198975
 30
0.0
 11
45.88842
 21
657.501404
 31
0.0
  0
LINE
  5
F4
100
AcDbEntity
  8
LC-004-006-----0
  6
STRICHLINIE
 62
           2
100
AcDbLine
 10
40.168419
 20
654.198975
 30
0.0
 11
40.168419
 21
657.501404
 31
0.0
  0
CIRCLE
  5
F5
100
AcDbEntity
  8
LC-004-006-----0
  6
STRICHLINIE
 62
           2
100
AcDbCircle
 10
43.028419
 20
655.850159
 30
0.0
 40
2.86
  0
LINE
  5
F6
100
AcDbEntity
  8
LC-006-012-----0
  6
STRICHPUNKT
 62
           2
100
AcDbLine
 10
50.51683
 20
655.850159
 30
0.0
 11
35.563137
 21
655.850159
 31
0.0
  0
LINE
  5
F7
100
AcDbEntity
  8
LC-004-006-----0
  6
STRICHLINIE
 62
           2
100
AcDbLine
 10
40.168419
 20
657.501404
 30
0.0
 11
43.028419
 21
659.152588
 31
0.0
  0
LINE
  5
F8
100
AcDbEntity
  8
LC-004-006-----0
  6
STRICHLINIE
 62
           2
100
AcDbLine
 10
43.028419
 20
652.547729
 30
0.0
 11
40.168419
 21
654.198975
 31
0.0
  0
LINE
  5
F9
100
AcDbEntity
  8
LC-004-006-----0
  6
STRICHLINIE
 62
           2
100
AcDbLine
 10
43.028419
 20
652.547729
 30
0.0
 11
45.88842
 21
654.198975
 31
0.0
  0
LINE
  5
FA
100
AcDbEntity
  8
LC-004-006-----0
  6
STRICHLINIE
 62
           2
100
AcDbLine
 10
-108.223831
 20
649.58844
 30
0.0
 11
-110.562073
 21
649.301331
 31
0.0
  0
LINE
  5
FB
100
AcDbEntity
  8
LC-004-006-----0
  6
STRICHLINIE
 62
           2
100
AcDbLine
 10
-108.27597
 20
654.115845
 30
0.0
 11
-102.816963
 21
654.786133
 31
0.0
  0
LINE
  5
FC
100
AcDbEntity
  8
LC-006-012-----0
  6
STRICHPUNKT
 62
           2
100
AcDbLine
 10
-97.797577
 20
558.006042
 30
0.0
 11
-113.242393
 21
558.006042
 31
0.0
  0
LINE
  5
FD
100
AcDbEntity
  8
LC-004-006-----0
  6
STRICHLINIE
 62
           2
100
AcDbLine
 10
-109.162079
 20
564.506042
 30
0.0
 11
-110.562073
 21
564.506042
 31
0.0
  0
LINE
  5
FE
100
AcDbEntity
  8
LC-004-006-----0
  6
STRICHLINIE
 62
           2
100
AcDbLine
 10
-108.662079
 20
560.006042
 30
0.0
 11
-103.162079
 21
560.006042
 31
0.0
  0
LINE
  5
FF
100
AcDbEntity
  8
LC-004-006-----0
  6
STRICHLINIE
 62
           2
100
AcDbLine
 10
-108.662079
 20
556.006042
 30
0.0
 11
-103.162079
 21
556.006042
 31
0.0
  0
LINE
  5
100
100
AcDbEntity
  8
LC-004-006-----0
  6
STRICHLINIE
 62
           2
100
AcDbLine
 10
-103.412079
 20
560.506042
 30
0.0
 11
-108.662079
 21
560.506042
 31
0.0
  0
LINE
  5
101
100
AcDbEntity
  8
LC-004-006-----0
  6
STRICHLINIE
 62
           2
100
AcDbLine
 10
-108.662079
 20
555.506042
 30
0.0
 11
-103.412079
 21
555.506042
 31
0.0
  0
LINE
  5
102
100
AcDbEntity
  8
LC-004-006-----0
  6
STRICHLINIE
 62
           2
100
AcDbLine
 10
-111.162079
 20
555.455994
 30
0.0
 11
-111.162079
 21
560.55603
 31
0.0
  0
LINE
  5
103
100
AcDbEntity
  8
LC-004-006-----0
  6
STRICHLINIE
 62
           2
100
AcDbLine
 10
-100.062073
 20
556.506042
 30
0.0
 11
-100.062073
 21
559.506042
 31
0.0
  0
LINE
  5
104
100
AcDbEntity
  8
LC-004-006-----0
  6
STRICHLINIE
 62
           2
100
AcDbLine
 10
-103.162079
 20
560.256042
 30
0.0
 11
-103.412079
 21
560.506042
 31
0.0
  0
LINE
  5
105
100
AcDbEntity
  8
LC-004-006-----0
  6
STRICHLINIE
 62
           2
100
AcDbLine
 10
-103.412079
 20
555.506042
 30
0.0
 11
-103.162079
 21
555.756042
 31
0.0
  0
LINE
  5
106
100
AcDbEntity
  8
LC-004-006-----0
  6
STRICHLINIE
 62
           2
100
AcDbLine
 10
-103.412079
 20
555.506042
 30
0.0
 11
-103.412079
 21
560.506042
 31
0.0
  0
LINE
  5
107
100
AcDbEntity
  8
LC-004-006-----0
  6
STRICHLINIE
 62
           2
100
AcDbLine
 10
-109.162079
 20
551.506042
 30
0.0
 11
-109.162079
 21
564.506042
 31
0.0
  0
LINE
  5
108
100
AcDbEntity
  8
LC-004-006-----0
  6
STRICHLINIE
 62
           2
100
AcDbLine
 10
-111.01516
 20
561.30603
 30
0.0
 11
-109.162079
 21
561.30603
 31
0.0
  0
LINE
  5
109
100
AcDbEntity
  8
LC-004-006-----0
  6
STRICHLINIE
 62
           2
100
AcDbLine
 10
-111.01516
 20
554.705994
 30
0.0
 11
-109.162079
 21
554.705994
 31
0.0
  0
LINE
  5
10A
100
AcDbEntity
  8
LC-004-006-----0
  6
STRICHLINIE
 62
           2
100
AcDbLine
 10
-111.01516
 20
559.80603
 30
0.0
 11
-109.162079
 21
559.80603
 31
0.0
  0
LINE
  5
10B
100
AcDbEntity
  8
LC-004-006-----0
  6
STRICHLINIE
 62
           2
100
AcDbLine
 10
-111.01516
 20
556.205994
 30
0.0
 11
-109.162079
 21
556.205994
 31
0.0
  0
LINE
  5
10C
100
AcDbEntity
  8
LC-004-006-----0
  6
STRICHLINIE
 62
           2
100
AcDbLine
 10
-103.162079
 20
555.756042
 30
0.0
 11
-103.162079
 21
560.256042
 31
0.0
  0
ARC
  5
10D
100
AcDbEntity
  8
LC-004-006-----0
  6
STRICHLINIE
 62
           2
100
AcDbCircle
 10
-100.062073
 20
558.006042
 30
0.0
 40
11.1
100
AcDbArc
 50
170.667576
 51
189.332424
  0
ARC
  5
10E
100
AcDbEntity
  8
LC-004-006-----0
  6
STRICHLINIE
 62
           2
100
AcDbCircle
 10
-109.162079
 20
555.455994
 30
0.0
 40
1.999103
100
AcDbArc
 50
157.965282000001
 51
202.034717999999
  0
LINE
  5
10F
100
AcDbEntity
  8
LC-004-006-----0
  6
STRICHLINIE
 62
           2
100
AcDbLine
 10
-103.162079
 20
559.756042
 30
0.0
 11
-100.312073
 21
559.756042
 31
0.0
  0
ARC
  5
110
100
AcDbEntity
  8
LC-004-006-----0
  6
STRICHLINIE
 62
           2
100
AcDbCircle
 10
-109.162079
 20
560.55603
 30
0.0
 40
1.999103
100
AcDbArc
 50
157.965282000001
 51
202.034717999999
  0
LINE
  5
111
100
AcDbEntity
  8
LC-004-006-----0
  6
STRICHLINIE
 62
           2
100
AcDbLine
 10
-108.662079
 20
555.506042
 30
0.0
 11
-108.662079
 21
560.506042
 31
0.0
  0
LINE
  5
112
100
AcDbEntity
  8
LC-004-006-----0
  6
STRICHLINIE
 62
           2
100
AcDbLine
 10
-109.162079
 20
560.205994
 30
0.0
 11
-108.662079
 21
560.205994
 31
0.0
  0
LINE
  5
113
100
AcDbEntity
  8
LC-004-006-----0
  6
STRICHLINIE
 62
           2
100
AcDbLine
 10
-109.162079
 20
555.80603
 30
0.0
 11
-108.662079
 21
555.80603
 31
0.0
  0
LINE
  5
114
100
AcDbEntity
  8
LC-004-006-----0
  6
STRICHLINIE
 62
           2
100
AcDbLine
 10
-103.162079
 20
556.256042
 30
0.0
 11
-100.312073
 21
556.256042
 31
0.0
  0
ARC
  5
115
100
AcDbEntity
  8
LC-004-006-----0
  6
STRICHLINIE
 62
           2
100
AcDbCircle
 10
-100.312073
 20
559.506042
 30
0.0
 40
0.25
100
AcDbArc
 50
0.0
 51
90.000003000001
  0
ARC
  5
116
100
AcDbEntity
  8
LC-004-006-----0
  6
STRICHLINIE
 62
           2
100
AcDbCircle
 10
-100.312073
 20
556.506042
 30
0.0
 40
0.25
100
AcDbArc
 50
269.999996999998
 51
0.0
  0
LINE
  5
117
100
AcDbEntity
  8
LC-004-006-----0
  6
STRICHLINIE
 62
           2
100
AcDbLine
 10
-109.162079
 20
551.506042
 30
0.0
 11
-110.562073
 21
551.506042
 31
0.0
  0
LINE
  5
118
100
AcDbEntity
  8
LC-004-006-----0
  6
STRICHLINIE
 62
           2
100
AcDbLine
 10
-108.763443
 20
658.08606
 30
0.0
 11
-103.304443
 21
658.756287
 31
0.0
  0
LINE
  5
119
100
AcDbEntity
  8
LC-004-006-----0
  6
STRICHLINIE
 62
           2
100
AcDbLine
 10
-103.004166
 20
654.259399
 30
0.0
 11
-108.215034
 21
653.619568
 31
0.0
  0
LINE
  5
11A
100
AcDbEntity
  8
LC-004-006-----0
  6
STRICHLINIE
 62
           2
100
AcDbLine
 10
-108.824379
 20
658.582275
 30
0.0
 11
-103.613518
 21
659.222107
 31
0.0
  0
LINE
  5
11B
100
AcDbEntity
  8
LC-004-006-----0
  6
STRICHLINIE
 62
           2
100
AcDbLine
 10
-111.311836
 20
658.327271
 30
0.0
 11
-110.690308
 21
653.265259
 31
0.0
  0
LINE
  5
11C
100
AcDbEntity
  8
LC-004-006-----0
  6
STRICHLINIE
 62
           2
100
AcDbLine
 10
-100.166618
 20
658.637817
 30
0.0
 11
-99.80101
 21
655.660217
 31
0.0
  0
LINE
  5
11D
100
AcDbEntity
  8
LC-004-006-----0
  6
STRICHLINIE
 62
           2
100
AcDbLine
 10
-102.786499
 20
654.537964
 30
0.0
 11
-103.004166
 21
654.259399
 31
0.0
  0
LINE
  5
11E
100
AcDbEntity
  8
LC-004-006-----0
  6
STRICHLINIE
 62
           2
100
AcDbLine
 10
-103.613518
 20
659.222107
 30
0.0
 11
-103.334908
 21
659.004456
 31
0.0
  0
LINE
  5
11F
100
AcDbEntity
  8
LC-004-006-----0
  6
STRICHLINIE
 62
           2
100
AcDbLine
 10
-103.613518
 20
659.222107
 30
0.0
 11
-103.004166
 21
654.259399
 31
0.0
  0
LINE
  5
120
100
AcDbEntity
  8
LC-004-006-----0
  6
STRICHLINIE
 62
           2
100
AcDbLine
 10
-109.808128
 20
662.491577
 30
0.0
 11
-108.223831
 21
649.58844
 31
0.0
  0
LINE
  5
121
100
AcDbEntity
  8
LC-004-006-----0
  6
STRICHLINIE
 62
           2
100
AcDbLine
 10
-110.453079
 20
652.538757
 30
0.0
 11
-108.613815
 21
652.764587
 31
0.0
  0
LINE
  5
122
100
AcDbEntity
  8
LC-004-006-----0
  6
STRICHLINIE
 62
           2
100
AcDbLine
 10
-111.257416
 20
659.0896
 30
0.0
 11
-109.418152
 21
659.31543
 31
0.0
  0
LINE
  5
123
100
AcDbEntity
  8
LC-004-006-----0
  6
STRICHLINIE
 62
           2
100
AcDbLine
 10
-110.635887
 20
654.027588
 30
0.0
 11
-108.796616
 21
654.253418
 31
0.0
  0
LINE
  5
124
100
AcDbEntity
  8
LC-004-006-----0
  6
STRICHLINIE
 62
           2
100
AcDbLine
 10
-111.074615
 20
657.600769
 30
0.0
 11
-109.235344
 21
657.826599
 31
0.0
  0
LINE
  5
125
100
AcDbEntity
  8
LC-004-006-----0
  6
STRICHLINIE
 62
           2
100
AcDbLine
 10
-103.334908
 20
659.004456
 30
0.0
 11
-102.786499
 21
654.537964
 31
0.0
  0
ARC
  5
126
100
AcDbEntity
  8
LC-004-006-----0
  6
STRICHLINIE
 62
           2
100
AcDbCircle
 10
-99.98381
 20
657.148987
 30
0.0
 40
11.1
100
AcDbArc
 50
177.667577
 51
196.332412
  0
ARC
  5
127
100
AcDbEntity
  8
LC-004-006-----0
  6
STRICHLINIE
 62
           2
100
AcDbCircle
 10
-109.326744
 20
658.570984
 30
0.0
 40
1.999103
100
AcDbArc
 50
164.965282999998
 51
209.034719
  0
LINE
  5
128
100
AcDbEntity
  8
LC-004-006-----0
  6
STRICHLINIE
 62
           2
100
AcDbLine
 10
-102.847435
 20
655.034241
 30
0.0
 11
-100.018677
 21
655.381592
 31
0.0
  0
ARC
  5
129
100
AcDbEntity
  8
LC-004-006-----0
  6
STRICHLINIE
 62
           2
100
AcDbCircle
 10
-108.705215
 20
653.509033
 30
0.0
 40
1.999103
100
AcDbArc
 50
164.965282999998
 51
209.034719
  0
LINE
  5
12A
100
AcDbEntity
  8
LC-004-006-----0
  6
STRICHLINIE
 62
           2
100
AcDbLine
 10
-108.824379
 20
658.582275
 30
0.0
 11
-108.215034
 21
653.619568
 31
0.0
  0
LINE
  5
12B
100
AcDbEntity
  8
LC-004-006-----0
  6
STRICHLINIE
 62
           2
100
AcDbLine
 10
-108.747871
 20
653.856384
 30
0.0
 11
-108.251595
 21
653.917358
 31
0.0
  0
LINE
  5
12C
100
AcDbEntity
  8
LC-004-006-----0
  6
STRICHLINIE
 62
           2
100
AcDbLine
 10
-109.284096
 20
658.223633
 30
0.0
 11
-108.787819
 21
658.284546
 31
0.0
  0
LINE
  5
12D
100
AcDbEntity
  8
LC-004-006-----0
  6
STRICHLINIE
 62
           2
100
AcDbLine
 10
-103.273972
 20
658.508179
 30
0.0
 11
-100.445221
 21
658.85553
 31
0.0
  0
ARC
  5
12E
100
AcDbEntity
  8
LC-004-006-----0
  6
STRICHLINIE
 62
           2
100
AcDbCircle
 10
-100.049141
 20
655.6297
 30
0.0
 40
0.25
100
AcDbArc
 50
276.999998999999
 51
7.000000000006
  0
ARC
  5
12F
100
AcDbEntity
  8
LC-004-006-----0
  6
STRICHLINIE
 62
           2
100
AcDbCircle
 10
-100.414749
 20
658.607361
 30
0.0
 40
0.25
100
AcDbArc
 50
7.000000000006
 51
96.999996999999
  0
LINE
  5
130
100
AcDbEntity
  8
LC-004-006-----0
  6
STRICHLINIE
 62
           2
100
AcDbLine
 10
-109.808128
 20
662.491577
 30
0.0
 11
-110.562073
 21
662.398987
 31
0.0
  0
LINE
  5
131
100
AcDbEntity
  8
LC-006-012-----0
  6
STRICHPUNKT
 62
           2
100
AcDbLine
 10
-98.777016
 20
657.29718
 30
0.0
 11
-112.408714
 21
655.623413
 31
0.0
  0
LINE
  5
132
100
AcDbEntity
  8
LC-006-012-----0
  6
STRICHPUNKT
 62
           2
100
AcDbLine
 10
-81.326576
 20
514.006042
 30
0.0
 11
-65.88176
 21
514.006042
 31
0.0
  0
LINE
  5
133
100
AcDbEntity
  8
LC-004-006-----0
  6
STRICHLINIE
 62
           2
100
AcDbLine
 10
-69.962074
 20
507.506012
 30
0.0
 11
-68.562073
 21
507.506012
 31
0.0
  0
LINE
  5
134
100
AcDbEntity
  8
LC-004-006-----0
  6
STRICHLINIE
 62
           2
100
AcDbLine
 10
-69.962074
 20
520.506042
 30
0.0
 11
-68.562073
 21
520.506042
 31
0.0
  0
ARC
  5
135
100
AcDbEntity
  8
LC-004-006-----0
  6
STRICHLINIE
 62
           2
100
AcDbCircle
 10
-78.812073
 20
515.506042
 30
0.0
 40
0.25
100
AcDbArc
 50
90.000003000001
 51
180.000009000006
  0
ARC
  5
136
100
AcDbEntity
  8
LC-004-006-----0
  6
STRICHLINIE
 62
           2
100
AcDbCircle
 10
-78.812073
 20
512.506042
 30
0.0
 40
0.25
100
AcDbArc
 50
180.000009000006
 51
269.999996999998
  0
LINE
  5
137
100
AcDbEntity
  8
LC-004-006-----0
  6
STRICHLINIE
 62
           2
100
AcDbLine
 10
-75.962074
 20
515.756042
 30
0.0
 11
-78.812073
 21
515.756042
 31
0.0
  0
LINE
  5
138
100
AcDbEntity
  8
LC-004-006-----0
  6
STRICHLINIE
 62
           2
100
AcDbLine
 10
-69.962074
 20
516.205994
 30
0.0
 11
-70.462074
 21
516.205994
 31
0.0
  0
LINE
  5
139
100
AcDbEntity
  8
LC-004-006-----0
  6
STRICHLINIE
 62
           2
100
AcDbLine
 10
-69.962074
 20
511.80603
 30
0.0
 11
-70.462074
 21
511.80603
 31
0.0
  0
LINE
  5
13A
100
AcDbEntity
  8
LC-004-006-----0
  6
STRICHLINIE
 62
           2
100
AcDbLine
 10
-70.462074
 20
516.506042
 30
0.0
 11
-70.462074
 21
511.505981
 31
0.0
  0
ARC
  5
13B
100
AcDbEntity
  8
LC-004-006-----0
  6
STRICHLINIE
 62
           2
100
AcDbCircle
 10
-69.962074
 20
511.456024
 30
0.0
 40
1.999103
100
AcDbArc
 50
337.965286000001
 51
22.034713999999
  0
LINE
  5
13C
100
AcDbEntity
  8
LC-004-006-----0
  6
STRICHLINIE
 62
           2
100
AcDbLine
 10
-75.962074
 20
512.256042
 30
0.0
 11
-78.812073
 21
512.256042
 31
0.0
  0
ARC
  5
13D
100
AcDbEntity
  8
LC-004-006-----0
  6
STRICHLINIE
 62
           2
100
AcDbCircle
 10
-69.962074
 20
516.55603
 30
0.0
 40
1.999103
100
AcDbArc
 50
337.965285999999
 51
22.034714
  0
ARC
  5
13E
100
AcDbEntity
  8
LC-004-006-----0
  6
STRICHLINIE
 62
           2
100
AcDbCircle
 10
-79.062073
 20
514.006042
 30
0.0
 40
11.1
100
AcDbArc
 50
350.667582
 51
9.332418
  0
LINE
  5
13F
100
AcDbEntity
  8
LC-004-006-----0
  6
STRICHLINIE
 62
           2
100
AcDbLine
 10
-75.962074
 20
516.256042
 30
0.0
 11
-75.962074
 21
511.755981
 31
0.0
  0
LINE
  5
140
100
AcDbEntity
  8
LC-004-006-----0
  6
STRICHLINIE
 62
           2
100
AcDbLine
 10
-68.108994
 20
515.80603
 30
0.0
 11
-69.962074
 21
515.80603
 31
0.0
  0
LINE
  5
141
100
AcDbEntity
  8
LC-004-006-----0
  6
STRICHLINIE
 62
           2
100
AcDbLine
 10
-68.108994
 20
512.205994
 30
0.0
 11
-69.962074
 21
512.205994
 31
0.0
  0
LINE
  5
142
100
AcDbEntity
  8
LC-004-006-----0
  6
STRICHLINIE
 62
           2
100
AcDbLine
 10
-68.108994
 20
517.30603
 30
0.0
 11
-69.962074
 21
517.30603
 31
0.0
  0
LINE
  5
143
100
AcDbEntity
  8
LC-004-006-----0
  6
STRICHLINIE
 62
           2
100
AcDbLine
 10
-68.108994
 20
510.706024
 30
0.0
 11
-69.962074
 21
510.706024
 31
0.0
  0
LINE
  5
144
100
AcDbEntity
  8
LC-004-006-----0
  6
STRICHLINIE
 62
           2
100
AcDbLine
 10
-69.962074
 20
520.506042
 30
0.0
 11
-69.962074
 21
507.505981
 31
0.0
  0
LINE
  5
145
100
AcDbEntity
  8
LC-004-006-----0
  6
STRICHLINIE
 62
           2
100
AcDbLine
 10
-75.712074
 20
516.506042
 30
0.0
 11
-75.712074
 21
511.505981
 31
0.0
  0
LINE
  5
146
100
AcDbEntity
  8
LC-004-006-----0
  6
STRICHLINIE
 62
           2
100
AcDbLine
 10
-75.712074
 20
516.506042
 30
0.0
 11
-75.962074
 21
516.256042
 31
0.0
  0
LINE
  5
147
100
AcDbEntity
  8
LC-004-006-----0
  6
STRICHLINIE
 62
           2
100
AcDbLine
 10
-75.962074
 20
511.756012
 30
0.0
 11
-75.712074
 21
511.506012
 31
0.0
  0
LINE
  5
148
100
AcDbEntity
  8
LC-004-006-----0
  6
STRICHLINIE
 62
           2
100
AcDbLine
 10
-79.062073
 20
515.506042
 30
0.0
 11
-79.062073
 21
512.506042
 31
0.0
  0
LINE
  5
149
100
AcDbEntity
  8
LC-004-006-----0
  6
STRICHLINIE
 62
           2
100
AcDbLine
 10
-67.962074
 20
516.55603
 30
0.0
 11
-67.962074
 21
511.456024
 31
0.0
  0
LINE
  5
14A
100
AcDbEntity
  8
LC-004-006-----0
  6
STRICHLINIE
 62
           2
100
AcDbLine
 10
-70.462074
 20
516.506042
 30
0.0
 11
-75.712074
 21
516.506042
 31
0.0
  0
LINE
  5
14B
100
AcDbEntity
  8
LC-004-006-----0
  6
STRICHLINIE
 62
           2
100
AcDbLine
 10
-75.712074
 20
511.506012
 30
0.0
 11
-70.462074
 21
511.506012
 31
0.0
  0
LINE
  5
14C
100
AcDbEntity
  8
LC-004-006-----0
  6
STRICHLINIE
 62
           2
100
AcDbLine
 10
-70.462074
 20
516.006042
 30
0.0
 11
-75.962074
 21
516.006042
 31
0.0
  0
LINE
  5
14D
100
AcDbEntity
  8
LC-004-006-----0
  6
STRICHLINIE
 62
           2
100
AcDbLine
 10
-70.462074
 20
512.006042
 30
0.0
 11
-75.962074
 21
512.006042
 31
0.0
  0
ARC
  5
14E
100
AcDbEntity
  8
LC-003-002-----0
  6
AUSGEZOGEN
 62
           1
100
AcDbCircle
 10
-73.562073
 20
564.006042
 30
0.0
 40
4.5
100
AcDbArc
 50
90.000003
 51
269.999997
  0
LINE
  5
14F
100
AcDbEntity
  8
LC-003-002-----0
  6
AUSGEZOGEN
 62
           1
100
AcDbLine
 10
-73.562073
 20
568.506042
 30
0.0
 11
-68.562073
 21
568.506042
 31
0.0
  0
LINE
  5
150
100
AcDbEntity
  8
LC-003-002-----0
  6
AUSGEZOGEN
 62
           1
100
AcDbLine
 10
-73.562073
 20
559.506042
 30
0.0
 11
-68.562073
 21
559.506042
 31
0.0
  0
ARC
  5
151
100
AcDbEntity
  8
LC-003-002-----0
  6
AUSGEZOGEN
 62
           1
100
AcDbCircle
 10
-105.562073
 20
564.006042
 30
0.0
 40
4.5
100
AcDbArc
 50
269.999997
 51
90.000003
  0
LINE
  5
152
100
AcDbEntity
  8
LC-003-002-----0
  6
AUSGEZOGEN
 62
           1
100
AcDbLine
 10
-105.562073
 20
568.506042
 30
0.0
 11
-110.562073
 21
568.506042
 31
0.0
  0
LINE
  5
153
100
AcDbEntity
  8
LC-003-002-----0
  6
AUSGEZOGEN
 62
           1
100
AcDbLine
 10
-105.562073
 20
559.506042
 30
0.0
 11
-110.562073
 21
559.506042
 31
0.0
  0
CIRCLE
  5
154
100
AcDbEntity
  8
LC-003-002-----0
  6
AUSGEZOGEN
 62
           1
100
AcDbCircle
 10
-73.562073
 20
564.006042
 30
0.0
 40
2.15
  0
CIRCLE
  5
155
100
AcDbEntity
  8
LC-003-002-----0
  6
AUSGEZOGEN
 62
           1
100
AcDbCircle
 10
-105.562073
 20
564.006042
 30
0.0
 40
2.15
  0
ARC
  5
156
100
AcDbEntity
  8
LC-008-003-----0
  6
AUSGEZOGEN
 62
           2
100
AcDbCircle
 10
-73.562073
 20
564.006042
 30
0.0
 40
2.5
100
AcDbArc
 50
86.171852
 51
9.330622
  0
ARC
  5
157
100
AcDbEntity
  8
LC-008-003-----0
  6
AUSGEZOGEN
 62
           2
100
AcDbCircle
 10
-105.562073
 20
564.006042
 30
0.0
 40
2.5
100
AcDbArc
 50
170.669379
 51
93.828146
  0
ARC
  5
158
100
AcDbEntity
  8
LC-008-003-----0
  6
AUSGEZOGEN
 62
           2
100
AcDbCircle
 10
-73.562073
 20
508.006012
 30
0.0
 40
2.5
100
AcDbArc
 50
350.669378
 51
273.828148
  0
ARC
  5
159
100
AcDbEntity
  8
LC-008-003-----0
  6
AUSGEZOGEN
 62
           2
100
AcDbCircle
 10
-105.562073
 20
508.006012
 30
0.0
 40
2.5
100
AcDbArc
 50
266.171854
 51
189.330621
  0
LINE
  5
15A
100
AcDbEntity
  8
LC-003-002-----0
  6
AUSGEZOGEN
 62
           1
100
AcDbLine
 10
-73.562073
 20
512.506042
 30
0.0
 11
-68.562073
 21
512.506042
 31
0.0
  0
ARC
  5
15B
100
AcDbEntity
  8
LC-003-002-----0
  6
AUSGEZOGEN
 62
           1
100
AcDbCircle
 10
-73.562073
 20
508.006012
 30
0.0
 40
4.5
100
AcDbArc
 50
90.000003
 51
269.999997
  0
LINE
  5
15C
100
AcDbEntity
  8
LC-003-002-----0
  6
AUSGEZOGEN
 62
           1
100
AcDbLine
 10
-73.562073
 20
503.506012
 30
0.0
 11
-68.562073
 21
503.506012
 31
0.0
  0
CIRCLE
  5
15D
100
AcDbEntity
  8
LC-003-002-----0
  6
AUSGEZOGEN
 62
           1
100
AcDbCircle
 10
-73.562073
 20
508.006012
 30
0.0
 40
2.15
  0
CIRCLE
  5
15E
100
AcDbEntity
  8
LC-003-002-----0
  6
AUSGEZOGEN
 62
           1
100
AcDbCircle
 10
-105.562073
 20
508.006012
 30
0.0
 40
2.15
  0
LINE
  5
15F
100
AcDbEntity
  8
LC-003-002-----0
  6
AUSGEZOGEN
 62
           1
100
AcDbLine
 10
-105.562073
 20
503.506012
 30
0.0
 11
-110.562073
 21
503.506012
 31
0.0
  0
LINE
  5
160
100
AcDbEntity
  8
LC-003-002-----0
  6
AUSGEZOGEN
 62
           1
100
AcDbLine
 10
-105.562073
 20
512.506042
 30
0.0
 11
-110.562073
 21
512.506042
 31
0.0
  0
ARC
  5
161
100
AcDbEntity
  8
LC-003-002-----0
  6
AUSGEZOGEN
 62
           1
100
AcDbCircle
 10
-105.562073
 20
508.006012
 30
0.0
 40
4.5
100
AcDbArc
 50
269.999997
 51
90.000003
  0
ENDSEC
  0
SECTION
  2
OBJECTS
  0
DICTIONARY
  5
19
100
AcDbDictionary
  3
ACAD_GROUP
350
1A
  3
ACAD_MLINESTYLE
350
1B
  0
DICTIONARY
  5
1A
102
{ACAD_REACTORS
330
19
102
}
100
AcDbDictionary
  0
DICTIONARY
  5
1B
102
{ACAD_REACTORS
330
19
102
}
100
AcDbDictionary
  3
STANDARD
350
1C
  0
MLINESTYLE
  5
1C
102
{ACAD_REACTORS
330
1B
102
}
100
AcDbMlineStyle
  2
STANDARD
 70
           0
  3

 62
           0
 51
90.0
 52
90.0
 71
           2
 49
0.5
 62
         256
  6
BYLAYER
 49
-0.5
 62
         256
  6
BYLAYER
  0
ENDSEC
  0
EOF
