  0
SECTION
  2
HEADER
  9
$ACADVER
  1
AC1014
  9
$ACADMAINTVER
 70
           0
  9
$DWGCODEPAGE
  3
DOS850
  9
$INSBASE
 10
0.0
 20
0.0
 30
0.0
  9
$EXTMIN
 10
-114.282524
 20
216.175858
 30
0.0
  9
$EXTMAX
 10
107.239746
 20
429.722534
 30
0.0
  9
$LIMMIN
 10
-114.282524
 20
216.175858
  9
$LIMMAX
 10
107.239746
 20
429.722534
  9
$ORTHOMODE
 70
           0
  9
$REGENMODE
 70
           1
  9
$FILLMODE
 70
           1
  9
$QTEXTMODE
 70
           0
  9
$MIRRTEXT
 70
           1
  9
$DRAGMODE
 70
           2
  9
$LTSCALE
 40
5.0
  9
$OSMODE
 70
           0
  9
$ATTMODE
 70
           1
  9
$TEXTSIZE
 40
0.2
  9
$TRACEWID
 40
0.05
  9
$TEXTSTYLE
  7
TXT
  9
$CLAYER
  8
0
  9
$CELTYPE
  6
CONTINUOUS
  9
$CECOLOR
 62
         256
  9
$CELTSCALE
 40
1.0
  9
$DELOBJ
 70
           1
  9
$DISPSILH
 70
           0
  9
$DIMSCALE
 40
1.0
  9
$DIMASZ
 40
3.5
  9
$DIMEXO
 40
0.0625
  9
$DIMDLI
 40
0.38
  9
$DIMRND
 40
0.0
  9
$DIMDLE
 40
0.0
  9
$DIMEXE
 40
0.18
  9
$DIMTP
 40
0.0
  9
$DIMTM
 40
0.0
  9
$DIMTXT
 40
3.5
  9
$DIMCEN
 40
0.09
  9
$DIMTSZ
 40
0.0
  9
$DIMTOL
 70
           0
  9
$DIMLIM
 70
           0
  9
$DIMTIH
 70
           1
  9
$DIMTOH
 70
           1
  9
$DIMSE1
 70
           0
  9
$DIMSE2
 70
           0
  9
$DIMTAD
 70
           0
  9
$DIMZIN
 70
           0
  9
$DIMBLK
  1

  9
$DIMASO
 70
           1
  9
$DIMSHO
 70
           1
  9
$DIMPOST
  1

  9
$DIMAPOST
  1

  9
$DIMALT
 70
           0
  9
$DIMALTD
 70
           2
  9
$DIMALTF
 40
25.4
  9
$DIMLFAC
 40
1.0
  9
$DIMTOFL
 70
           0
  9
$DIMTVP
 40
0.0
  9
$DIMTIX
 70
           0
  9
$DIMSOXD
 70
           0
  9
$DIMSAH
 70
           0
  9
$DIMBLK1
  1

  9
$DIMBLK2
  1

  9
$DIMSTYLE
  2
STANDARD
  9
$DIMCLRD
 70
           0
  9
$DIMCLRE
 70
           0
  9
$DIMCLRT
 70
           0
  9
$DIMTFAC
 40
1.0
  9
$DIMGAP
 40
0.09
  9
$DIMJUST
 70
           0
  9
$DIMSD1
 70
           0
  9
$DIMSD2
 70
           0
  9
$DIMTOLJ
 70
           1
  9
$DIMTZIN
 70
           0
  9
$DIMALTZ
 70
           0
  9
$DIMALTTZ
 70
           0
  9
$DIMFIT
 70
           3
  9
$DIMUPT
 70
           0
  9
$DIMUNIT
 70
           2
  9
$DIMDEC
 70
           4
  9
$DIMTDEC
 70
           4
  9
$DIMALTU
 70
           2
  9
$DIMALTTD
 70
           2
  9
$DIMTXSTY
  7
TXT
  9
$DIMAUNIT
 70
           0
  9
$LUNITS
 70
           2
  9
$LUPREC
 70
           2
  9
$SKETCHINC
 40
0.1
  9
$FILLETRAD
 40
0.0
  9
$AUNITS
 70
           0
  9
$AUPREC
 70
           2
  9
$MENU
  1
acad
  9
$ELEVATION
 40
0.0
  9
$PELEVATION
 40
0.0
  9
$THICKNESS
 40
0.0
  9
$LIMCHECK
 70
           0
  9
$BLIPMODE
 70
           1
  9
$CHAMFERA
 40
0.0
  9
$CHAMFERB
 40
0.0
  9
$CHAMFERC
 40
0.0
  9
$CHAMFERD
 40
0.0
  9
$SKPOLY
 70
           0
  9
$TDCREATE
 40
0.000000000
  9
$TDUPDATE
 40
0.000000000
  9
$TDINDWG
 40
0.0000000000
  9
$TDUSRTIMER
 40
0.0000000000
  9
$USRTIMER
 70
           1
  9
$ANGBASE
 50
0.0
  9
$ANGDIR
 70
           0
  9
$PDMODE
 70
           2
  9
$PDSIZE
 40
0.5
  9
$PLINEWID
 40
0.0
  9
$COORDS
 70
           0
  9
$SPLFRAME
 70
           0
  9
$SPLINETYPE
 70
           6
  9
$SPLINESEGS
 70
           8
  9
$ATTDIA
 70
           0
  9
$ATTREQ
 70
           1
  9
$HANDLING
 70
           1
  9
$HANDSEED
  5
14A
  9
$SURFTAB1
 70
           6
  9
$SURFTAB2
 70
           6
  9
$SURFTYPE
 70
           6
  9
$SURFU
 70
           6
  9
$SURFV
 70
           6
  9
$UCSNAME
  2

  9
$UCSORG
 10
0.0
 20
0.0
 30
0.0
  9
$UCSXDIR
 10
1.0
 20
0.0
 30
0.0
  9
$UCSYDIR
 10
0.0
 20
1.0
 30
0.0
  9
$PUCSNAME
  2

  9
$PUCSORG
 10
0.0
 20
0.0
 30
0.0
  9
$PUCSXDIR
 10
1.0
 20
0.0
 30
0.0
  9
$PUCSYDIR
 10
0.0
 20
1.0
 30
0.0
  9
$USERI1
 70
           0
  9
$USERI2
 70
           0
  9
$USERI3
 70
           0
  9
$USERI4
 70
           0
  9
$USERI5
 70
           0
  9
$USERR1
 40
0.0
  9
$USERR2
 40
0.0
  9
$USERR3
 40
0.0
  9
$USERR4
 40
0.0
  9
$USERR5
 40
0.0
  9
$WORLDVIEW
 70
           1
  9
$SHADEDGE
 70
           3
  9
$SHADEDIF
 70
          70
  9
$TILEMODE
 70
           1
  9
$MAXACTVP
 70
          16
  9
$PINSBASE
 10
0.0
 20
0.0
 30
0.0
  9
$PLIMCHECK
 70
           0
  9
$PEXTMIN
 10
1.000000000000E+20
 20
1.000000000000E+20
 30
1.000000000000E+20
  9
$PEXTMAX
 10
-1.000000000000E+20
 20
-1.000000000000E+20
 30
-1.000000000000E+20
  9
$PLIMMIN
 10
0.0
 20
0.0
  9
$PLIMMAX
 10
12.0
 20
9.0
  9
$UNITMODE
 70
           0
  9
$VISRETAIN
 70
           0
  9
$PLINEGEN
 70
           1
  9
$PSLTSCALE
 70
           0
  9
$TREEDEPTH
 70
        3020
  9
$PICKSTYLE
 70
           1
  9
$CMLSTYLE
  2
STANDARD
  9
$CMLJUST
 70
           0
  9
$CMLSCALE
 40
1.0
  9
$PROXYGRAPHICS
 70
           0
  9
$MEASUREMENT
 70
           0
  0
ENDSEC
  0
SECTION
  2
CLASSES
  0
CLASS
  1
LWPOLYLINE
  2
AcDbPolyline
  3
"AutoCAD"
 90
        0
280
           0
281
           1
  0
CLASS
  1
IMAGE
  2
AcDbRasterImage
  3
ISM
 90
      127
280
           0
281
           1
  0
CLASS
  1
OLE2FRAME
  2
AcDbOle2Frame
  3
""
 90
        0
280
           0
281
           1
  0
CLASS
  1
HATCH
  2
AcDbHatch
  3
"ACAD_SEDONA"
 90
        0
280
           0
281
           1
  0
CLASS
  1
DICTIONARYVAR
  2
AcDbDictionaryVar
  3
"AutoCAD"
 90
        0
280
           0
281
           0
  0
CLASS
  1
RASTERVARIABLES
  2
AcDbRasterVariables
  3
ISM
 90
        0
280
           0
281
           0
  0
CLASS
  1
IMAGEDEF
  2
AcDbRasterImageDef
  3
ISM
 90
        0
280
           0
281
           0
  0
CLASS
  1
IMAGEDEF_REACTOR
  2
AcDbRasterImageDefReactor
  3
ISM
 90
        1
280
           0
281
           0
  0
CLASS
  1
IDBUFFER
  2
AcDbIdBuffer
  3
"Acad"
 90
        0
280
           0
281
           0
  0
CLASS
  1
SPATIAL_FILTER
  2
AcDbSpatialFilter
  3
"Acad"
 90
        0
280
           0
281
           0
  0
CLASS
  1
XRECORD
  2
AcDbXrecord
  3
"<Built In>"
 90
        0
280
           0
281
           0
  0
CLASS
  1
SORTENTSTABLE
  2
AcDbSortentsTable
  3
"AutoCAD"
 90
        0
280
           0
281
           0
  0
CLASS
  1
LAYER_INDEX
  2
AcDbLayerIndex
  3
"Acad"
 90
        0
280
           0
281
           0
  0
CLASS
  1
SPATIAL_INDEX
  2
AcDbSpatialIndex
  3
"Acad"
 90
        0
280
           0
281
           0
  0
CLASS
  1
OBJECT_PTR
  2
CAseDLPNTableRecord
  3
"ASE-LPNTableRecord"
 90
        1
280
           0
281
           0
  0
CLASS
  1
LAYOUT
  2
AcDbLayout
  3
"AutoCAD 2000"
 90
        1
280
           0
281
           0
  0
CLASS
  1
PLOTSETTINGS
  2
AcDbPlotSettings
  3
"AutoCAD 2000"
 90
        1
280
           0
281
           0
  0
CLASS
  1
ACDBDICTIONARYWDFLT
  2
AcDbDictionaryWithDefault
  3
"AutoCAD 2000"
 90
        1
280
           0
281
           0
  0
CLASS
  1
ACDBPLACEHOLDER
  2
AcDbPlaceHolder
  3
"AutoCAD 2000"
 90
        1
280
           0
281
           0
  0
CLASS
  1
VBA_PROJECT
  2
AcDbVbaProject
  3
"acadvba"
 90
        1
280
           0
281
           0
  0
CLASS
  1
WIPEOUT
  2
AcDbWipeout
  3
WipeOut|AutoCAD Express Tool|expresstools@autodesk.com
 90
      127
280
           0
281
           1
  0
CLASS
  1
WIPEOUTVARIABLES
  2
AcDbWipeoutVariables
  3
WipeOut|AutoCAD Express Tool|expresstools@autodesk.com
 90
        0
280
           0
281
           0
  0
CLASS
  1
RTEXT
  2
RText
  3
RText|AutoCAD Express Tool|expresstools@autodesk.com
 90
        0
280
           0
281
           1
  0
CLASS
  1
ARCALIGNEDTEXT
  2
AcDbArcAlignedText
  3
ATEXT|AutoCAD Express Tool|expresstools@autodesk.com
 90
        0
280
           0
281
           1
  0
ENDSEC
  0
SECTION
  2
TABLES
  0
TABLE
  2
VPORT
  5
7
100
AcDbSymbolTable
 70
           1
  0
VPORT
  5
15
100
AcDbSymbolTableRecord
100
AcDbViewportTableRecord
  2
*ACTIVE
 70
           0
 10
0.0
 20
0.0
 11
1.0
 21
1.0
 12
6.591288
 22
4.579184
 13
0.0
 23
0.0
 14
1.0
 24
1.0
 15
0.0
 25
0.0
 16
0.0
 26
0.0
 36
1.0
 17
0.0
 27
0.0
 37
0.0
 40
9.158369
 41
0.688564
 42
50.0
 43
0.0
 44
0.0
 50
0.0
 51
0.0
 71
           0
 72
         100
 73
           1
 74
           1
 75
           0
 76
           0
 77
           0
 78
           0
  0
ENDTAB
  0
TABLE
  2
LTYPE
  5
4
100
AcDbSymbolTable
 70
           6
  0
LTYPE
  5
11
100
AcDbSymbolTableRecord
100
AcDbLinetypeTableRecord
  2
BYBLOCK
 70
          64
  3

 72
          65
 73
           0
 40
0.0
  0
LTYPE
  5
12
100
AcDbSymbolTableRecord
100
AcDbLinetypeTableRecord
  2
BYLAYER
 70
          64
  3

 72
          65
 73
           0
 40
0.0
  0
LTYPE
  5
13
100
AcDbSymbolTableRecord
100
AcDbLinetypeTableRecord
  2
CONTINUOUS
 70
          64
  3
Solid line
 72
          65
 73
           0
 40
0.0
  0
LTYPE
  5
1D
100
AcDbSymbolTableRecord
100
AcDbLinetypeTableRecord
  2
AUSGEZOGEN
 70
           0
  3

 72
          65
 73
           2
 40
0.5
 49
0.25
 74
           0
 49
-0.25
 74
           0
  0
LTYPE
  5
1E
100
AcDbSymbolTableRecord
100
AcDbLinetypeTableRecord
  2
STRICHLINIE
 70
           0
  3

 72
          65
 73
           2
 40
0.5
 49
0.25
 74
           0
 49
-0.25
 74
           0
  0
LTYPE
  5
1F
100
AcDbSymbolTableRecord
100
AcDbLinetypeTableRecord
  2
STRICHPUNKT
 70
           0
  3

 72
          65
 73
           4
 40
1.0
 49
0.5
 74
           0
 49
-0.25
 74
           0
 49
0.0
 74
           0
 49
-0.25
 74
           0
  0
ENDTAB
  0
TABLE
  2
LAYER
  5
2
100
AcDbSymbolTable
 70
           5
  0
LAYER
  5
14
100
AcDbSymbolTableRecord
100
AcDbLayerTableRecord
  2
0
 70
           0
 62
           7
  6
CONTINUOUS
  0
LAYER
  5
20
100
AcDbSymbolTableRecord
100
AcDbLayerTableRecord
  2
LC-003-002-----0
 70
           0
 62
           7
  6
CONTINUOUS
  0
LAYER
  5
21
100
AcDbSymbolTableRecord
100
AcDbLayerTableRecord
  2
LC-006-012-----0
 70
           0
 62
           7
  6
CONTINUOUS
  0
LAYER
  5
22
100
AcDbSymbolTableRecord
100
AcDbLayerTableRecord
  2
LC-004-006-----0
 70
           0
 62
           7
  6
CONTINUOUS
  0
LAYER
  5
23
100
AcDbSymbolTableRecord
100
AcDbLayerTableRecord
  2
LC-008-003-----0
 70
           0
 62
           7
  6
CONTINUOUS
  0
ENDTAB
  0
TABLE
  2
STYLE
  5
3
100
AcDbSymbolTable
 70
           1
  0
STYLE
  5
17
100
AcDbSymbolTableRecord
100
AcDbTextStyleTableRecord
  2
TXT
 70
           0
 40
3.5
 41
1.0
 50
0.0
 71
           0
 42
3.5
  3
TXT
  4

  0
ENDTAB
  0
TABLE
  2
VIEW
  5
5
100
AcDbSymbolTable
 70
           0
  0
ENDTAB
  0
TABLE
  2
UCS
  5
6
100
AcDbSymbolTable
 70
           0
  0
ENDTAB
  0
TABLE
  2
APPID
  5
8
100
AcDbSymbolTable
 70
           2
  0
APPID
  5
16
100
AcDbSymbolTableRecord
100
AcDbRegAppTableRecord
  2
ACAD
 70
           0
  0
APPID
  5
24
100
AcDbSymbolTableRecord
100
AcDbRegAppTableRecord
  2
MegaCADPntStyle
 70
           0
  0
ENDTAB
  0
TABLE
  2
DIMSTYLE
  5
9
100
AcDbSymbolTable
 70
           1
  0
DIMSTYLE
105
18
100
AcDbSymbolTableRecord
100
AcDbDimStyleTableRecord
  2
STANDARD
 70
           0
  3

  4

  5

  6

  7

 40
1.0
 41
0.18
 42
0.0625
 43
0.38
 44
0.18
 45
0.0
 46
0.0
 47
0.0
 48
0.0
 71
           0
 72
           0
 73
           1
 74
           1
 75
           0
 76
           0
 77
           0
 78
           0
140
0.18
141
0.09
142
0.0
143
25.4
144
1.0
145
0.0
146
1.0
147
0.09
170
           0
171
           2
172
           0
173
           0
174
           0
175
           0
176
           0
177
           0
178
           0
270
           2
271
           4
272
           4
273
           2
274
           2
275
           0
280
           0
281
           0
282
           0
283
           1
284
           0
285
           0
286
           0
287
           0
288
           0
340
17
  0
ENDTAB
  0
TABLE
  2
BLOCK_RECORD
  5
1
100
AcDbSymbolTable
 70
           1
  0
BLOCK_RECORD
  5
A
100
AcDbSymbolTableRecord
100
AcDbBlockTableRecord
  2
*MODEL_SPACE
  0
BLOCK_RECORD
  5
B
100
AcDbSymbolTableRecord
100
AcDbBlockTableRecord
  2
*PAPER_SPACE
  0
BLOCK_RECORD
  5
25
102
{ACAD_XDICTIONARY
360
5C
102
}
100
AcDbSymbolTableRecord
100
AcDbBlockTableRecord
  2
ELIPPSE
  0
ENDTAB
  0
ENDSEC
  0
SECTION
  2
BLOCKS
  0
BLOCK
  5
D
100
AcDbEntity
  8
0
100
AcDbBlockBegin
  2
*MODEL_SPACE
 70
           0
 10
0.0
 20
0.0
 30
0.0
  3
*MODEL_SPACE
  1

  0
ENDBLK
  5
E
100
AcDbEntity
  8
0
100
AcDbBlockEnd
  0
BLOCK
  5
F
100
AcDbEntity
 67
           1
  8
0
100
AcDbBlockBegin
  2
*PAPER_SPACE
 70
           0
 10
0.0
 20
0.0
 30
0.0
  3
*PAPER_SPACE
  1

  0
ENDBLK
  5
10
100
AcDbEntity
 67
           1
  8
0
100
AcDbBlockEnd
  0
BLOCK
  5
147
100
AcDbEntity
  8
0
100
AcDbBlockBegin
  2
ELIPPSE
 70
          64
 10
0.0
 20
0.0
 30
0.0
  3
ELIPPSE
  1

  0
CIRCLE
  5
148
100
AcDbEntity
  8
0
  6
BYBLOCK
 62
           0
100
AcDbCircle
 10
0.0
 20
0.0
 30
0.0
 40
1.0
  0
ENDBLK
  5
149
100
AcDbEntity
  8
0
  6
BYBLOCK
 62
           0
100
AcDbBlockEnd
  0
ENDSEC
  0
SECTION
  2
ENTITIES
  0
LINE
  5
26
100
AcDbEntity
  8
LC-004-006-----0
  6
STRICHLINIE
 62
           2
100
AcDbLine
 10
-63.462074
 20
420.20694
 30
0.0
 11
-58.562077
 21
420.20694
 31
0.0
  0
LINE
  5
27
100
AcDbEntity
  8
LC-003-002-----0
  6
AUSGEZOGEN
 62
           1
100
AcDbLine
 10
-110.562073
 20
422.70694
 30
0.0
 11
-106.562073
 21
426.70694
 31
0.0
  0
LINE
  5
28
100
AcDbEntity
  8
LC-003-002-----0
  6
AUSGEZOGEN
 62
           1
100
AcDbLine
 10
-58.562077
 20
422.70694
 30
0.0
 11
-62.562077
 21
426.70694
 31
0.0
  0
LINE
  5
29
100
AcDbEntity
  8
LC-003-002-----0
  6
AUSGEZOGEN
 62
           1
100
AcDbLine
 10
6.226843
 20
422.70694
 30
0.0
 11
11.226843
 21
422.70694
 31
0.0
  0
LINE
  5
2A
100
AcDbEntity
  8
LC-003-002-----0
  6
AUSGEZOGEN
 62
           1
100
AcDbLine
 10
21.226843
 20
422.70694
 30
0.0
 11
75.226845
 21
422.70694
 31
0.0
  0
LINE
  5
2B
100
AcDbEntity
  8
LC-003-002-----0
  6
AUSGEZOGEN
 62
           1
100
AcDbLine
 10
85.226845
 20
422.70694
 30
0.0
 11
90.226845
 21
422.70694
 31
0.0
  0
LINE
  5
2C
100
AcDbEntity
  8
LC-003-002-----0
  6
AUSGEZOGEN
 62
           1
100
AcDbLine
 10
-110.562073
 20
391.70694
 30
0.0
 11
-110.562073
 21
422.70694
 31
0.0
  0
LINE
  5
2D
100
AcDbEntity
  8
LC-003-002-----0
  6
AUSGEZOGEN
 62
           1
100
AcDbLine
 10
-110.562073
 20
391.70694
 30
0.0
 11
-58.56208
 21
391.70694
 31
0.0
  0
LINE
  5
2E
100
AcDbEntity
  8
LC-003-002-----0
  6
AUSGEZOGEN
 62
           1
100
AcDbLine
 10
-62.562077
 20
426.70694
 30
0.0
 11
-74.034882
 21
426.70694
 31
0.0
  0
LINE
  5
2F
100
AcDbEntity
  8
LC-003-002-----0
  6
AUSGEZOGEN
 62
           1
100
AcDbLine
 10
-58.562077
 20
391.70694
 30
0.0
 11
-58.562077
 21
422.70694
 31
0.0
  0
LINE
  5
30
100
AcDbEntity
  8
LC-006-012-----0
  6
STRICHPUNKT
 62
           2
100
AcDbLine
 10
-84.562073
 20
386.69278
 30
0.0
 11
-84.562073
 21
429.722534
 31
0.0
  0
LINE
  5
31
100
AcDbEntity
  8
LC-006-012-----0
  6
STRICHPUNKT
 62
           2
100
AcDbLine
 10
-114.282524
 20
413.70694
 30
0.0
 11
-55.111866
 21
413.70694
 31
0.0
  0
CIRCLE
  5
32
100
AcDbEntity
  8
LC-003-002-----0
  6
AUSGEZOGEN
 62
           1
100
AcDbCircle
 10
-84.562073
 20
413.70694
 30
0.0
 40
8.0
  0
ARC
  5
33
100
AcDbEntity
  8
LC-003-002-----0
  6
AUSGEZOGEN
 62
           1
100
AcDbCircle
 10
-84.562073
 20
413.70694
 30
0.0
 40
13.0
100
AcDbArc
 50
128.999993
 51
51.000001
  0
ARC
  5
34
100
AcDbEntity
  8
LC-003-002-----0
  6
AUSGEZOGEN
 62
           1
100
AcDbCircle
 10
-84.562073
 20
413.70694
 30
0.0
 40
11.0
100
AcDbArc
 50
128.999993
 51
51.000001
  0
LINE
  5
35
100
AcDbEntity
  8
LC-006-012-----0
  6
STRICHPUNKT
 62
           2
100
AcDbLine
 10
-64.562073
 20
389.068024
 30
0.0
 11
-64.562073
 21
429.722534
 31
0.0
  0
LINE
  5
36
100
AcDbEntity
  8
LC-004-006-----0
  6
STRICHLINIE
 62
           2
100
AcDbLine
 10
-61.562077
 20
391.70694
 30
0.0
 11
-61.562077
 21
404.70694
 31
0.0
  0
LINE
  5
37
100
AcDbEntity
  8
LC-004-006-----0
  6
STRICHLINIE
 62
           2
100
AcDbLine
 10
-67.562073
 20
391.70694
 30
0.0
 11
-67.562073
 21
404.70694
 31
0.0
  0
LINE
  5
38
100
AcDbEntity
  8
LC-004-006-----0
  6
STRICHLINIE
 62
           2
100
AcDbLine
 10
-61.912075
 20
391.70694
 30
0.0
 11
-61.912075
 21
421.70694
 31
0.0
  0
LINE
  5
39
100
AcDbEntity
  8
LC-004-006-----0
  6
STRICHLINIE
 62
           2
100
AcDbLine
 10
-67.212074
 20
391.70694
 30
0.0
 11
-67.212074
 21
421.70694
 31
0.0
  0
LINE
  5
3A
100
AcDbEntity
  8
LC-004-006-----0
  6
STRICHLINIE
 62
           2
100
AcDbLine
 10
-67.562073
 20
404.70694
 30
0.0
 11
-61.56208
 21
404.70694
 31
0.0
  0
LINE
  5
3B
100
AcDbEntity
  8
LC-004-006-----0
  6
STRICHLINIE
 62
           2
100
AcDbLine
 10
-58.562077
 20
421.70694
 30
0.0
 11
-69.562073
 21
421.70694
 31
0.0
  0
LINE
  5
3C
100
AcDbEntity
  8
LC-004-006-----0
  6
STRICHLINIE
 62
           2
100
AcDbLine
 10
-69.562073
 20
421.70694
 30
0.0
 11
-69.562073
 21
426.70694
 31
0.0
  0
LINE
  5
3D
100
AcDbEntity
  8
LC-006-012-----0
  6
STRICHPUNKT
 62
           2
100
AcDbLine
 10
-104.562073
 20
389.068024
 30
0.0
 11
-104.562073
 21
429.722534
 31
0.0
  0
LINE
  5
3E
100
AcDbEntity
  8
LC-004-006-----0
  6
STRICHLINIE
 62
           2
100
AcDbLine
 10
-101.562073
 20
391.70694
 30
0.0
 11
-101.562073
 21
404.70694
 31
0.0
  0
LINE
  5
3F
100
AcDbEntity
  8
LC-004-006-----0
  6
STRICHLINIE
 62
           2
100
AcDbLine
 10
-107.562073
 20
391.70694
 30
0.0
 11
-107.562073
 21
404.70694
 31
0.0
  0
LINE
  5
40
100
AcDbEntity
  8
LC-004-006-----0
  6
STRICHLINIE
 62
           2
100
AcDbLine
 10
-110.562073
 20
421.70694
 30
0.0
 11
-99.562073
 21
421.70694
 31
0.0
  0
LINE
  5
41
100
AcDbEntity
  8
LC-004-006-----0
  6
STRICHLINIE
 62
           2
100
AcDbLine
 10
-99.562073
 20
421.70694
 30
0.0
 11
-99.562073
 21
426.70694
 31
0.0
  0
LINE
  5
42
100
AcDbEntity
  8
LC-004-006-----0
  6
STRICHLINIE
 62
           2
100
AcDbLine
 10
-101.912079
 20
391.70694
 30
0.0
 11
-101.912079
 21
421.70694
 31
0.0
  0
LINE
  5
43
100
AcDbEntity
  8
LC-004-006-----0
  6
STRICHLINIE
 62
           2
100
AcDbLine
 10
-107.212074
 20
391.70694
 30
0.0
 11
-107.212074
 21
421.70694
 31
0.0
  0
LINE
  5
44
100
AcDbEntity
  8
LC-004-006-----0
  6
STRICHLINIE
 62
           2
100
AcDbLine
 10
-101.562073
 20
404.70694
 30
0.0
 11
-107.562073
 21
404.70694
 31
0.0
  0
LINE
  5
45
100
AcDbEntity
  8
LC-003-002-----0
  6
AUSGEZOGEN
 62
           1
100
AcDbLine
 10
-110.562073
 20
323.219666
 30
0.0
 11
-110.562073
 21
239.219696
 31
0.0
  0
LINE
  5
46
100
AcDbEntity
  8
LC-003-002-----0
  6
AUSGEZOGEN
 62
           1
100
AcDbLine
 10
-110.562073
 20
239.219681
 30
0.0
 11
-58.56208
 21
239.219681
 31
0.0
  0
LINE
  5
47
100
AcDbEntity
  8
LC-003-002-----0
  6
AUSGEZOGEN
 62
           1
100
AcDbLine
 10
-58.562077
 20
323.219666
 30
0.0
 11
-58.562077
 21
239.219696
 31
0.0
  0
LINE
  5
48
100
AcDbEntity
  8
LC-003-002-----0
  6
AUSGEZOGEN
 62
           1
100
AcDbLine
 10
-110.562073
 20
323.219666
 30
0.0
 11
-58.56208
 21
323.219666
 31
0.0
  0
LINE
  5
49
100
AcDbEntity
  8
LC-006-012-----0
  6
STRICHPUNKT
 62
           2
100
AcDbLine
 10
-84.562073
 20
340.400635
 30
0.0
 11
-84.562073
 21
216.175858
 31
0.0
  0
LINE
  5
4A
100
AcDbEntity
  8
LC-006-012-----0
  6
STRICHPUNKT
 62
           2
100
AcDbLine
 10
-71.450272
 20
313.219666
 30
0.0
 11
-53.989079
 21
313.219666
 31
0.0
  0
LINE
  5
4B
100
AcDbEntity
  8
LC-006-012-----0
  6
STRICHPUNKT
 62
           2
100
AcDbLine
 10
-64.562073
 20
320.629547
 30
0.0
 11
-64.562073
 21
304.782593
 31
0.0
  0
CIRCLE
  5
4C
100
AcDbEntity
  8
LC-003-002-----0
  6
AUSGEZOGEN
 62
           1
100
AcDbCircle
 10
-64.562073
 20
313.219666
 30
0.0
 40
2.65
  0
ARC
  5
4D
100
AcDbEntity
  8
LC-003-002-----0
  6
AUSGEZOGEN
 62
           1
100
AcDbCircle
 10
-64.562073
 20
313.219666
 30
0.0
 40
5.0
100
AcDbArc
 50
90.000003
 51
269.999997
  0
ARC
  5
4E
100
AcDbEntity
  8
LC-008-003-----0
  6
AUSGEZOGEN
 62
           2
100
AcDbCircle
 10
-64.562073
 20
313.219666
 30
0.0
 40
3.0
100
AcDbArc
 50
77.598066
 51
11.411341
  0
LINE
  5
4F
100
AcDbEntity
  8
LC-003-002-----0
  6
AUSGEZOGEN
 62
           1
100
AcDbLine
 10
-64.562073
 20
308.219666
 30
0.0
 11
-58.56208
 21
308.219666
 31
0.0
  0
LINE
  5
50
100
AcDbEntity
  8
LC-003-002-----0
  6
AUSGEZOGEN
 62
           1
100
AcDbLine
 10
-64.562073
 20
318.219666
 30
0.0
 11
-58.56208
 21
318.219666
 31
0.0
  0
LINE
  5
51
100
AcDbEntity
  8
LC-006-012-----0
  6
STRICHPUNKT
 62
           2
100
AcDbLine
 10
-73.450272
 20
249.219681
 30
0.0
 11
-55.989079
 21
249.219681
 31
0.0
  0
LINE
  5
52
100
AcDbEntity
  8
LC-006-012-----0
  6
STRICHPUNKT
 62
           2
100
AcDbLine
 10
-64.562073
 20
241.809814
 30
0.0
 11
-64.562073
 21
257.656769
 31
0.0
  0
CIRCLE
  5
53
100
AcDbEntity
  8
LC-003-002-----0
  6
AUSGEZOGEN
 62
           1
100
AcDbCircle
 10
-64.562073
 20
249.219681
 30
0.0
 40
2.65
  0
ARC
  5
54
100
AcDbEntity
  8
LC-003-002-----0
  6
AUSGEZOGEN
 62
           1
100
AcDbCircle
 10
-64.562073
 20
249.219681
 30
0.0
 40
5.0
100
AcDbArc
 50
90.000003
 51
269.999997
  0
ARC
  5
55
100
AcDbEntity
  8
LC-008-003-----0
  6
AUSGEZOGEN
 62
           2
100
AcDbCircle
 10
-64.562073
 20
249.219681
 30
0.0
 40
3.0
100
AcDbArc
 50
348.588659
 51
282.401934
  0
LINE
  5
56
100
AcDbEntity
  8
LC-003-002-----0
  6
AUSGEZOGEN
 62
           1
100
AcDbLine
 10
-64.562073
 20
254.219681
 30
0.0
 11
-58.56208
 21
254.219681
 31
0.0
  0
LINE
  5
57
100
AcDbEntity
  8
LC-003-002-----0
  6
AUSGEZOGEN
 62
           1
100
AcDbLine
 10
-64.562073
 20
244.219681
 30
0.0
 11
-58.56208
 21
244.219681
 31
0.0
  0
LINE
  5
58
100
AcDbEntity
  8
LC-006-012-----0
  6
STRICHPUNKT
 62
           2
100
AcDbLine
 10
-97.673882
 20
313.219666
 30
0.0
 11
-113.135078
 21
313.219666
 31
0.0
  0
LINE
  5
59
100
AcDbEntity
  8
LC-006-012-----0
  6
STRICHPUNKT
 62
           2
100
AcDbLine
 10
-104.562073
 20
320.629547
 30
0.0
 11
-104.562073
 21
304.782593
 31
0.0
  0
CIRCLE
  5
5A
100
AcDbEntity
  8
LC-003-002-----0
  6
AUSGEZOGEN
 62
           1
100
AcDbCircle
 10
-104.562073
 20
313.219666
 30
0.0
 40
2.65
  0
ARC
  5
5B
100
AcDbEntity
  8
LC-003-002-----0
  6
AUSGEZOGEN
 62
           1
100
AcDbCircle
 10
-104.562073
 20
313.219666
 30
0.0
 40
5.0
100
AcDbArc
 50
269.999997
 51
90.000003
  0
ARC
  5
5C
100
AcDbEntity
  8
LC-008-003-----0
  6
AUSGEZOGEN
 62
           2
100
AcDbCircle
 10
-104.562073
 20
313.219666
 30
0.0
 40
3.0
100
AcDbArc
 50
168.588658
 51
102.401939
  0
LINE
  5
5D
100
AcDbEntity
  8
LC-003-002-----0
  6
AUSGEZOGEN
 62
           1
100
AcDbLine
 10
-104.562073
 20
308.219666
 30
0.0
 11
-110.562073
 21
308.219666
 31
0.0
  0
LINE
  5
5E
100
AcDbEntity
  8
LC-003-002-----0
  6
AUSGEZOGEN
 62
           1
100
AcDbLine
 10
-104.562073
 20
318.219666
 30
0.0
 11
-110.562073
 21
318.219666
 31
0.0
  0
LINE
  5
5F
100
AcDbEntity
  8
LC-006-012-----0
  6
STRICHPUNKT
 62
           2
100
AcDbLine
 10
-97.673882
 20
249.219681
 30
0.0
 11
-113.135078
 21
249.219681
 31
0.0
  0
CIRCLE
  5
60
100
AcDbEntity
  8
LC-003-002-----0
  6
AUSGEZOGEN
 62
           1
100
AcDbCircle
 10
-104.562073
 20
249.219681
 30
0.0
 40
2.65
  0
ARC
  5
61
100
AcDbEntity
  8
LC-003-002-----0
  6
AUSGEZOGEN
 62
           1
100
AcDbCircle
 10
-104.562073
 20
249.219681
 30
0.0
 40
5.0
100
AcDbArc
 50
269.999997
 51
90.000003
  0
ARC
  5
62
100
AcDbEntity
  8
LC-008-003-----0
  6
AUSGEZOGEN
 62
           2
100
AcDbCircle
 10
-104.562073
 20
249.219681
 30
0.0
 40
3.0
100
AcDbArc
 50
257.598061
 51
191.411342
  0
LINE
  5
63
100
AcDbEntity
  8
LC-003-002-----0
  6
AUSGEZOGEN
 62
           1
100
AcDbLine
 10
-104.562073
 20
254.219681
 30
0.0
 11
-110.562073
 21
254.219681
 31
0.0
  0
LINE
  5
64
100
AcDbEntity
  8
LC-003-002-----0
  6
AUSGEZOGEN
 62
           1
100
AcDbLine
 10
-104.562073
 20
244.219681
 30
0.0
 11
-110.562073
 21
244.219681
 31
0.0
  0
LINE
  5
65
100
AcDbEntity
  8
LC-004-006-----0
  6
STRICHLINIE
 62
           2
100
AcDbLine
 10
-97.562073
 20
323.219666
 30
0.0
 11
-97.562073
 21
287.219666
 31
0.0
  0
LINE
  5
66
100
AcDbEntity
  8
LC-004-006-----0
  6
STRICHLINIE
 62
           2
100
AcDbLine
 10
-71.562073
 20
323.219666
 30
0.0
 11
-71.562073
 21
287.219666
 31
0.0
  0
LINE
  5
67
100
AcDbEntity
  8
LC-004-006-----0
  6
STRICHLINIE
 62
           2
100
AcDbLine
 10
-97.562073
 20
275.219666
 30
0.0
 11
-95.089272
 21
275.219666
 31
0.0
  0
LINE
  5
68
100
AcDbEntity
  8
LC-004-006-----0
  6
STRICHLINIE
 62
           2
100
AcDbLine
 10
-97.562073
 20
287.219666
 30
0.0
 11
-95.089272
 21
287.219666
 31
0.0
  0
LINE
  5
69
100
AcDbEntity
  8
LC-003-002-----0
  6
AUSGEZOGEN
 62
           1
100
AcDbLine
 10
6.226843
 20
391.70694
 30
0.0
 11
90.226845
 21
391.70694
 31
0.0
  0
LINE
  5
6A
100
AcDbEntity
  8
LC-003-002-----0
  6
AUSGEZOGEN
 62
           1
100
AcDbLine
 10
90.226845
 20
391.70694
 30
0.0
 11
90.226845
 21
426.70694
 31
0.0
  0
LINE
  5
6B
100
AcDbEntity
  8
LC-003-002-----0
  6
AUSGEZOGEN
 62
           1
100
AcDbLine
 10
6.226843
 20
426.70694
 30
0.0
 11
90.226845
 21
426.70694
 31
0.0
  0
LINE
  5
6C
100
AcDbEntity
  8
LC-003-002-----0
  6
AUSGEZOGEN
 62
           1
100
AcDbLine
 10
6.226843
 20
391.70694
 30
0.0
 11
6.226843
 21
426.70694
 31
0.0
  0
LINE
  5
6D
100
AcDbEntity
  8
LC-003-002-----0
  6
AUSGEZOGEN
 62
           1
100
AcDbLine
 10
-92.562073
 20
336.927368
 30
0.0
 11
-92.562073
 21
323.219666
 31
0.0
  0
LINE
  5
6E
100
AcDbEntity
  8
LC-008-003-----0
  6
AUSGEZOGEN
 62
           2
100
AcDbLine
 10
-92.562073
 20
336.927368
 30
0.0
 11
-88.241875
 21
337.651184
 31
0.0
  0
LINE
  5
6F
100
AcDbEntity
  8
LC-008-003-----0
  6
AUSGEZOGEN
 62
           2
100
AcDbLine
 10
-88.241875
 20
337.651184
 30
0.0
 11
-80.616829
 21
335.651581
 31
0.0
  0
LINE
  5
70
100
AcDbEntity
  8
LC-008-003-----0
  6
AUSGEZOGEN
 62
           2
100
AcDbLine
 10
-80.616829
 20
335.651581
 30
0.0
 11
-76.562073
 21
337.041168
 31
0.0
  0
LINE
  5
71
100
AcDbEntity
  8
LC-008-003-----0
  6
AUSGEZOGEN
 62
           2
100
AcDbLine
 10
-92.562073
 20
222.544174
 30
0.0
 11
-88.573402
 21
220.924896
 31
0.0
  0
LINE
  5
72
100
AcDbEntity
  8
LC-008-003-----0
  6
AUSGEZOGEN
 62
           2
100
AcDbLine
 10
-88.573402
 20
220.924896
 30
0.0
 11
-80.948349
 21
222.674545
 31
0.0
  0
LINE
  5
73
100
AcDbEntity
  8
LC-008-003-----0
  6
AUSGEZOGEN
 62
           2
100
AcDbLine
 10
-80.948349
 20
222.674545
 30
0.0
 11
-76.562073
 21
221.635208
 31
0.0
  0
LINE
  5
74
100
AcDbEntity
  8
LC-004-006-----0
  6
STRICHLINIE
 62
           2
100
AcDbLine
 10
-92.562073
 20
323.219666
 30
0.0
 11
-92.562073
 21
287.219666
 31
0.0
  0
LINE
  5
75
100
AcDbEntity
  8
LC-003-002-----0
  6
AUSGEZOGEN
 62
           1
100
AcDbLine
 10
-76.562073
 20
337.041168
 30
0.0
 11
-76.562073
 21
323.219666
 31
0.0
  0
LINE
  5
76
100
AcDbEntity
  8
LC-004-006-----0
  6
STRICHLINIE
 62
           2
100
AcDbLine
 10
-76.562073
 20
323.219666
 30
0.0
 11
-76.562073
 21
287.219666
 31
0.0
  0
LINE
  5
77
100
AcDbEntity
  8
LC-003-002-----0
  6
AUSGEZOGEN
 62
           1
100
AcDbLine
 10
-76.562073
 20
239.219681
 30
0.0
 11
-76.562073
 21
221.635208
 31
0.0
  0
LINE
  5
78
100
AcDbEntity
  8
LC-003-002-----0
  6
AUSGEZOGEN
 62
           1
100
AcDbLine
 10
-92.562073
 20
239.219681
 30
0.0
 11
-92.562073
 21
222.544174
 31
0.0
  0
LINE
  5
79
100
AcDbEntity
  8
LC-003-002-----0
  6
AUSGEZOGEN
 62
           1
100
AcDbLine
 10
85.226845
 20
421.70694
 30
0.0
 11
85.226845
 21
426.70694
 31
0.0
  0
LINE
  5
7A
100
AcDbEntity
  8
LC-006-012-----0
  6
STRICHPUNKT
 62
           2
100
AcDbLine
 10
80.226845
 20
389.068024
 30
0.0
 11
80.226845
 21
429.722534
 31
0.0
  0
LINE
  5
7B
100
AcDbEntity
  8
LC-004-006-----0
  6
STRICHLINIE
 62
           2
100
AcDbLine
 10
83.226845
 20
391.70694
 30
0.0
 11
83.226845
 21
404.70694
 31
0.0
  0
LINE
  5
7C
100
AcDbEntity
  8
LC-004-006-----0
  6
STRICHLINIE
 62
           2
100
AcDbLine
 10
77.226845
 20
391.70694
 30
0.0
 11
77.226845
 21
404.70694
 31
0.0
  0
LINE
  5
7D
100
AcDbEntity
  8
LC-004-006-----0
  6
STRICHLINIE
 62
           2
100
AcDbLine
 10
82.876846
 20
391.70694
 30
0.0
 11
82.876846
 21
421.70694
 31
0.0
  0
LINE
  5
7E
100
AcDbEntity
  8
LC-004-006-----0
  6
STRICHLINIE
 62
           2
100
AcDbLine
 10
77.576843
 20
391.70694
 30
0.0
 11
77.576843
 21
421.70694
 31
0.0
  0
LINE
  5
7F
100
AcDbEntity
  8
LC-003-002-----0
  6
AUSGEZOGEN
 62
           1
100
AcDbLine
 10
-5.423632
 20
421.70694
 30
0.0
 11
6.226843
 21
421.70694
 31
0.0
  0
LINE
  5
80
100
AcDbEntity
  8
LC-003-002-----0
  6
AUSGEZOGEN
 62
           1
100
AcDbLine
 10
75.226845
 20
421.70694
 30
0.0
 11
75.226845
 21
426.70694
 31
0.0
  0
LINE
  5
81
100
AcDbEntity
  8
LC-003-002-----0
  6
AUSGEZOGEN
 62
           1
100
AcDbLine
 10
85.226845
 20
421.70694
 30
0.0
 11
75.226845
 21
421.70694
 31
0.0
  0
LINE
  5
82
100
AcDbEntity
  8
LC-004-006-----0
  6
STRICHLINIE
 62
           2
100
AcDbLine
 10
77.226845
 20
404.70694
 30
0.0
 11
83.226845
 21
404.70694
 31
0.0
  0
LINE
  5
83
100
AcDbEntity
  8
LC-003-002-----0
  6
AUSGEZOGEN
 62
           1
100
AcDbLine
 10
11.226843
 20
421.70694
 30
0.0
 11
11.226843
 21
426.70694
 31
0.0
  0
LINE
  5
84
100
AcDbEntity
  8
LC-006-012-----0
  6
STRICHPUNKT
 62
           2
100
AcDbLine
 10
16.226843
 20
389.068024
 30
0.0
 11
16.226843
 21
429.722534
 31
0.0
  0
LINE
  5
85
100
AcDbEntity
  8
LC-004-006-----0
  6
STRICHLINIE
 62
           2
100
AcDbLine
 10
13.226843
 20
391.70694
 30
0.0
 11
13.226843
 21
404.70694
 31
0.0
  0
LINE
  5
86
100
AcDbEntity
  8
LC-004-006-----0
  6
STRICHLINIE
 62
           2
100
AcDbLine
 10
19.226843
 20
391.70694
 30
0.0
 11
19.226843
 21
404.70694
 31
0.0
  0
LINE
  5
87
100
AcDbEntity
  8
LC-004-006-----0
  6
STRICHLINIE
 62
           2
100
AcDbLine
 10
13.576843
 20
391.70694
 30
0.0
 11
13.576843
 21
421.70694
 31
0.0
  0
LINE
  5
88
100
AcDbEntity
  8
LC-004-006-----0
  6
STRICHLINIE
 62
           2
100
AcDbLine
 10
18.876842
 20
391.70694
 30
0.0
 11
18.876842
 21
421.70694
 31
0.0
  0
LINE
  5
89
100
AcDbEntity
  8
LC-003-002-----0
  6
AUSGEZOGEN
 62
           1
100
AcDbLine
 10
21.226843
 20
421.70694
 30
0.0
 11
21.226843
 21
426.70694
 31
0.0
  0
LINE
  5
8A
100
AcDbEntity
  8
LC-003-002-----0
  6
AUSGEZOGEN
 62
           1
100
AcDbLine
 10
11.226843
 20
421.70694
 30
0.0
 11
21.226843
 21
421.70694
 31
0.0
  0
LINE
  5
8B
100
AcDbEntity
  8
LC-004-006-----0
  6
STRICHLINIE
 62
           2
100
AcDbLine
 10
19.226843
 20
404.70694
 30
0.0
 11
13.226843
 21
404.70694
 31
0.0
  0
LINE
  5
8C
100
AcDbEntity
  8
LC-004-006-----0
  6
STRICHLINIE
 62
           2
100
AcDbLine
 10
6.226843
 20
423.809845
 30
0.0
 11
42.226845
 21
423.809845
 31
0.0
  0
LINE
  5
8D
100
AcDbEntity
  8
LC-004-006-----0
  6
STRICHLINIE
 62
           2
100
AcDbLine
 10
6.226843
 20
400.70694
 30
0.0
 11
42.226845
 21
400.70694
 31
0.0
  0
LINE
  5
8E
100
AcDbEntity
  8
LC-006-012-----0
  6
STRICHPUNKT
 62
           2
100
AcDbLine
 10
-8.560431
 20
413.70694
 30
0.0
 11
107.239746
 21
413.70694
 31
0.0
  0
LINE
  5
8F
100
AcDbEntity
  8
LC-004-006-----0
  6
STRICHLINIE
 62
           2
100
AcDbLine
 10
42.226845
 20
400.70694
 30
0.0
 11
42.226845
 21
423.809845
 31
0.0
  0
LINE
  5
90
100
AcDbEntity
  8
LC-004-006-----0
  6
STRICHLINIE
 62
           2
100
AcDbLine
 10
54.226845
 20
400.70694
 30
0.0
 11
54.226845
 21
423.809845
 31
0.0
  0
LINE
  5
91
100
AcDbEntity
  8
LC-008-003-----0
  6
AUSGEZOGEN
 62
           2
100
AcDbLine
 10
-5.786202
 20
405.70694
 30
0.0
 11
-4.639432
 21
411.903229
 31
0.0
  0
LINE
  5
92
100
AcDbEntity
  8
LC-008-003-----0
  6
AUSGEZOGEN
 62
           2
100
AcDbLine
 10
-4.639432
 20
411.903229
 30
0.0
 11
-5.423632
 21
418.012695
 31
0.0
  0
LINE
  5
93
100
AcDbEntity
  8
LC-008-003-----0
  6
AUSGEZOGEN
 62
           2
100
AcDbLine
 10
-5.423632
 20
418.012695
 30
0.0
 11
-5.423632
 21
421.70694
 31
0.0
  0
LINE
  5
94
100
AcDbEntity
  8
LC-008-003-----0
  6
AUSGEZOGEN
 62
           2
100
AcDbLine
 10
102.995583
 20
405.70694
 30
0.0
 11
103.841545
 21
409.932404
 31
0.0
  0
LINE
  5
95
100
AcDbEntity
  8
LC-008-003-----0
  6
AUSGEZOGEN
 62
           2
100
AcDbLine
 10
103.841545
 20
409.932404
 30
0.0
 11
102.273148
 21
418.801025
 31
0.0
  0
LINE
  5
96
100
AcDbEntity
  8
LC-008-003-----0
  6
AUSGEZOGEN
 62
           2
100
AcDbLine
 10
102.273148
 20
418.801025
 30
0.0
 11
102.437157
 21
421.70694
 31
0.0
  0
LINE
  5
97
100
AcDbEntity
  8
LC-004-006-----0
  6
STRICHLINIE
 62
           2
100
AcDbLine
 10
6.226843
 20
421.70694
 30
0.0
 11
90.226845
 21
421.70694
 31
0.0
  0
LINE
  5
98
100
AcDbEntity
  8
LC-003-002-----0
  6
AUSGEZOGEN
 62
           1
100
AcDbLine
 10
-5.786202
 20
405.70694
 30
0.0
 11
6.226843
 21
405.70694
 31
0.0
  0
LINE
  5
99
100
AcDbEntity
  8
LC-004-006-----0
  6
STRICHLINIE
 62
           2
100
AcDbLine
 10
6.226843
 20
405.70694
 30
0.0
 11
90.226845
 21
405.70694
 31
0.0
  0
LINE
  5
9A
100
AcDbEntity
  8
LC-003-002-----0
  6
AUSGEZOGEN
 62
           1
100
AcDbLine
 10
90.226845
 20
421.70694
 30
0.0
 11
102.437157
 21
421.70694
 31
0.0
  0
LINE
  5
9B
100
AcDbEntity
  8
LC-003-002-----0
  6
AUSGEZOGEN
 62
           1
100
AcDbLine
 10
90.226845
 20
405.70694
 30
0.0
 11
102.995583
 21
405.70694
 31
0.0
  0
LINE
  5
9C
100
AcDbEntity
  8
LC-003-002-----0
  6
AUSGEZOGEN
 62
           1
100
AcDbLine
 10
-92.562073
 20
287.219666
 30
0.0
 11
-92.562073
 21
275.219666
 31
0.0
  0
LINE
  5
9D
100
AcDbEntity
  8
LC-004-006-----0
  6
STRICHLINIE
 62
           2
100
AcDbLine
 10
-92.562073
 20
275.219666
 30
0.0
 11
-92.562073
 21
239.219696
 31
0.0
  0
LINE
  5
9E
100
AcDbEntity
  8
LC-003-002-----0
  6
AUSGEZOGEN
 62
           1
100
AcDbLine
 10
-79.527512
 20
419.924103
 30
0.0
 11
-76.380913
 21
423.809845
 31
0.0
  0
LINE
  5
9F
100
AcDbEntity
  8
LC-003-002-----0
  6
AUSGEZOGEN
 62
           1
100
AcDbLine
 10
-89.596642
 20
419.924103
 30
0.0
 11
-92.74324
 21
423.809845
 31
0.0
  0
LINE
  5
A0
100
AcDbEntity
  8
LC-003-002-----0
  6
AUSGEZOGEN
 62
           1
100
AcDbLine
 10
-95.089272
 20
426.70694
 30
0.0
 11
-106.562073
 21
426.70694
 31
0.0
  0
LINE
  5
A1
100
AcDbEntity
  8
LC-003-002-----0
  6
AUSGEZOGEN
 62
           1
100
AcDbLine
 10
-92.74324
 20
423.809845
 30
0.0
 11
-95.089272
 21
426.70694
 31
0.0
  0
LINE
  5
A2
100
AcDbEntity
  8
LC-003-002-----0
  6
AUSGEZOGEN
 62
           1
100
AcDbLine
 10
-76.380913
 20
423.809845
 30
0.0
 11
-74.034882
 21
426.70694
 31
0.0
  0
LINE
  5
A3
100
AcDbEntity
  8
LC-003-002-----0
  6
AUSGEZOGEN
 62
           1
100
AcDbLine
 10
-95.089272
 20
323.219666
 30
0.0
 11
-95.089272
 21
239.219696
 31
0.0
  0
LINE
  5
A4
100
AcDbEntity
  8
LC-003-002-----0
  6
AUSGEZOGEN
 62
           1
100
AcDbLine
 10
-74.034882
 20
323.219666
 30
0.0
 11
-74.034882
 21
239.219696
 31
0.0
  0
LINE
  5
A5
100
AcDbEntity
  8
LC-003-002-----0
  6
AUSGEZOGEN
 62
           1
100
AcDbLine
 10
-92.74324
 20
323.219666
 30
0.0
 11
-92.74324
 21
287.219666
 31
0.0
  0
LINE
  5
A6
100
AcDbEntity
  8
LC-003-002-----0
  6
AUSGEZOGEN
 62
           1
100
AcDbLine
 10
-76.380913
 20
323.219666
 30
0.0
 11
-76.380913
 21
287.219666
 31
0.0
  0
LINE
  5
A7
100
AcDbEntity
  8
LC-003-002-----0
  6
AUSGEZOGEN
 62
           1
100
AcDbLine
 10
-89.596642
 20
323.219666
 30
0.0
 11
-89.596642
 21
287.219666
 31
0.0
  0
LINE
  5
A8
100
AcDbEntity
  8
LC-003-002-----0
  6
AUSGEZOGEN
 62
           1
100
AcDbLine
 10
-79.527512
 20
323.219666
 30
0.0
 11
-79.527512
 21
287.219666
 31
0.0
  0
LINE
  5
A9
100
AcDbEntity
  8
LC-003-002-----0
  6
AUSGEZOGEN
 62
           1
100
AcDbLine
 10
-89.596642
 20
275.219666
 30
0.0
 11
-89.596642
 21
239.219696
 31
0.0
  0
LINE
  5
AA
100
AcDbEntity
  8
LC-003-002-----0
  6
AUSGEZOGEN
 62
           1
100
AcDbLine
 10
-79.527512
 20
275.219666
 30
0.0
 11
-79.527512
 21
239.219696
 31
0.0
  0
LINE
  5
AB
100
AcDbEntity
  8
LC-003-002-----0
  6
AUSGEZOGEN
 62
           1
100
AcDbLine
 10
-76.562073
 20
287.219666
 30
0.0
 11
-76.562073
 21
275.219666
 31
0.0
  0
LINE
  5
AC
100
AcDbEntity
  8
LC-003-002-----0
  6
AUSGEZOGEN
 62
           1
100
AcDbLine
 10
-92.74324
 20
275.219666
 30
0.0
 11
-92.74324
 21
239.219696
 31
0.0
  0
LINE
  5
AD
100
AcDbEntity
  8
LC-004-006-----0
  6
STRICHLINIE
 62
           2
100
AcDbLine
 10
-76.562073
 20
275.219666
 30
0.0
 11
-76.562073
 21
239.219696
 31
0.0
  0
LINE
  5
AE
100
AcDbEntity
  8
LC-003-002-----0
  6
AUSGEZOGEN
 62
           1
100
AcDbLine
 10
-76.380913
 20
275.219666
 30
0.0
 11
-76.380913
 21
239.219696
 31
0.0
  0
LINE
  5
AF
100
AcDbEntity
  8
LC-003-002-----0
  6
AUSGEZOGEN
 62
           1
100
AcDbLine
 10
-95.089272
 20
287.219666
 30
0.0
 11
-89.596642
 21
287.219666
 31
0.0
  0
LINE
  5
B0
100
AcDbEntity
  8
LC-004-006-----0
  6
STRICHLINIE
 62
           2
100
AcDbLine
 10
-89.596642
 20
287.219666
 30
0.0
 11
-79.527512
 21
287.219666
 31
0.0
  0
LINE
  5
B1
100
AcDbEntity
  8
LC-003-002-----0
  6
AUSGEZOGEN
 62
           1
100
AcDbLine
 10
-95.089272
 20
275.219666
 30
0.0
 11
-89.596642
 21
275.219666
 31
0.0
  0
LINE
  5
B2
100
AcDbEntity
  8
LC-004-006-----0
  6
STRICHLINIE
 62
           2
100
AcDbLine
 10
-89.596642
 20
275.219666
 30
0.0
 11
-79.527512
 21
275.219666
 31
0.0
  0
LINE
  5
B3
100
AcDbEntity
  8
LC-003-002-----0
  6
AUSGEZOGEN
 62
           1
100
AcDbLine
 10
-79.527512
 20
275.219666
 30
0.0
 11
-74.034882
 21
275.219666
 31
0.0
  0
LINE
  5
B4
100
AcDbEntity
  8
LC-004-006-----0
  6
STRICHLINIE
 62
           2
100
AcDbLine
 10
-74.034882
 20
275.219666
 30
0.0
 11
-71.562073
 21
275.219666
 31
0.0
  0
LINE
  5
B5
100
AcDbEntity
  8
LC-003-002-----0
  6
AUSGEZOGEN
 62
           1
100
AcDbLine
 10
-79.527512
 20
287.219666
 30
0.0
 11
-74.034882
 21
287.219666
 31
0.0
  0
LINE
  5
B6
100
AcDbEntity
  8
LC-004-006-----0
  6
STRICHLINIE
 62
           2
100
AcDbLine
 10
-74.034882
 20
287.219666
 30
0.0
 11
-71.562073
 21
287.219666
 31
0.0
  0
LINE
  5
B7
100
AcDbEntity
  8
LC-004-006-----0
  6
STRICHLINIE
 62
           2
100
AcDbLine
 10
6.226843
 20
419.924103
 30
0.0
 11
42.226845
 21
419.924103
 31
0.0
  0
LINE
  5
B8
100
AcDbEntity
  8
LC-004-006-----0
  6
STRICHLINIE
 62
           2
100
AcDbLine
 10
54.226845
 20
419.924103
 30
0.0
 11
90.226845
 21
419.924103
 31
0.0
  0
LINE
  5
B9
100
AcDbEntity
  8
LC-003-002-----0
  6
AUSGEZOGEN
 62
           1
100
AcDbLine
 10
-104.562073
 20
426.70694
 30
0.0
 11
-97.562073
 21
426.70694
 31
0.0
  0
LINE
  5
BA
100
AcDbEntity
  8
LC-003-002-----0
  6
AUSGEZOGEN
 62
           1
100
AcDbLine
 10
-106.562073
 20
323.219666
 30
0.0
 11
-106.562073
 21
318.219666
 31
0.0
  0
LINE
  5
BB
100
AcDbEntity
  8
LC-003-002-----0
  6
AUSGEZOGEN
 62
           1
100
AcDbLine
 10
-106.562073
 20
308.219666
 30
0.0
 11
-106.562073
 21
254.219696
 31
0.0
  0
LINE
  5
BC
100
AcDbEntity
  8
LC-003-002-----0
  6
AUSGEZOGEN
 62
           1
100
AcDbLine
 10
-106.562073
 20
244.219681
 30
0.0
 11
-106.562073
 21
239.219681
 31
0.0
  0
LINE
  5
BD
100
AcDbEntity
  8
LC-006-012-----0
  6
STRICHPUNKT
 62
           2
100
AcDbLine
 10
-104.562073
 20
241.809814
 30
0.0
 11
-104.562073
 21
257.656769
 31
0.0
  0
LINE
  5
BE
100
AcDbEntity
  8
LC-003-002-----0
  6
AUSGEZOGEN
 62
           1
100
AcDbLine
 10
-62.562077
 20
323.219666
 30
0.0
 11
-62.562077
 21
318.219666
 31
0.0
  0
LINE
  5
BF
100
AcDbEntity
  8
LC-003-002-----0
  6
AUSGEZOGEN
 62
           1
100
AcDbLine
 10
-62.562077
 20
308.219666
 30
0.0
 11
-62.562077
 21
254.219696
 31
0.0
  0
LINE
  5
C0
100
AcDbEntity
  8
LC-003-002-----0
  6
AUSGEZOGEN
 62
           1
100
AcDbLine
 10
-62.562077
 20
244.219681
 30
0.0
 11
-62.562077
 21
239.219681
 31
0.0
  0
LINE
  5
C1
100
AcDbEntity
  8
LC-004-006-----0
  6
STRICHLINIE
 62
           2
100
AcDbLine
 10
-97.562073
 20
287.219666
 30
0.0
 11
-97.562073
 21
275.219666
 31
0.0
  0
LINE
  5
C2
100
AcDbEntity
  8
LC-004-006-----0
  6
STRICHLINIE
 62
           2
100
AcDbLine
 10
-97.562073
 20
275.219666
 30
0.0
 11
-97.562073
 21
239.219696
 31
0.0
  0
LINE
  5
C3
100
AcDbEntity
  8
LC-004-006-----0
  6
STRICHLINIE
 62
           2
100
AcDbLine
 10
-71.562073
 20
287.219666
 30
0.0
 11
-71.562073
 21
275.219666
 31
0.0
  0
LINE
  5
C4
100
AcDbEntity
  8
LC-004-006-----0
  6
STRICHLINIE
 62
           2
100
AcDbLine
 10
-71.562073
 20
275.219666
 30
0.0
 11
-71.562073
 21
239.219696
 31
0.0
  0
LINE
  5
C5
100
AcDbEntity
  8
LC-004-006-----0
  6
STRICHLINIE
 62
           2
100
AcDbLine
 10
42.226845
 20
400.70694
 30
0.0
 11
54.226845
 21
400.70694
 31
0.0
  0
LINE
  5
C6
100
AcDbEntity
  8
LC-004-006-----0
  6
STRICHLINIE
 62
           2
100
AcDbLine
 10
54.226845
 20
400.70694
 30
0.0
 11
90.226845
 21
400.70694
 31
0.0
  0
LINE
  5
C7
100
AcDbEntity
  8
LC-004-006-----0
  6
STRICHLINIE
 62
           2
100
AcDbLine
 10
54.226845
 20
423.809845
 30
0.0
 11
90.226845
 21
423.809845
 31
0.0
  0
LINE
  5
C8
100
AcDbEntity
  8
LC-004-006-----0
  6
STRICHLINIE
 62
           2
100
AcDbLine
 10
-63.962074
 20
415.70694
 30
0.0
 11
-69.462074
 21
415.70694
 31
0.0
  0
LINE
  5
C9
100
AcDbEntity
  8
LC-004-006-----0
  6
STRICHLINIE
 62
           2
100
AcDbLine
 10
-63.962074
 20
411.70694
 30
0.0
 11
-69.462074
 21
411.70694
 31
0.0
  0
LINE
  5
CA
100
AcDbEntity
  8
LC-004-006-----0
  6
STRICHLINIE
 62
           2
100
AcDbLine
 10
-69.212074
 20
416.20694
 30
0.0
 11
-63.962074
 21
416.20694
 31
0.0
  0
LINE
  5
CB
100
AcDbEntity
  8
LC-004-006-----0
  6
STRICHLINIE
 62
           2
100
AcDbLine
 10
-63.962074
 20
411.20694
 30
0.0
 11
-69.212074
 21
411.20694
 31
0.0
  0
LINE
  5
CC
100
AcDbEntity
  8
LC-004-006-----0
  6
STRICHLINIE
 62
           2
100
AcDbLine
 10
-61.462074
 20
411.156952
 30
0.0
 11
-61.462074
 21
416.256958
 31
0.0
  0
LINE
  5
CD
100
AcDbEntity
  8
LC-004-006-----0
  6
STRICHLINIE
 62
           2
100
AcDbLine
 10
-72.562073
 20
412.20694
 30
0.0
 11
-72.562073
 21
415.20694
 31
0.0
  0
LINE
  5
CE
100
AcDbEntity
  8
LC-004-006-----0
  6
STRICHLINIE
 62
           2
100
AcDbLine
 10
-69.462074
 20
415.95694
 30
0.0
 11
-69.212074
 21
416.20694
 31
0.0
  0
LINE
  5
CF
100
AcDbEntity
  8
LC-004-006-----0
  6
STRICHLINIE
 62
           2
100
AcDbLine
 10
-69.212074
 20
411.20694
 30
0.0
 11
-69.462074
 21
411.45694
 31
0.0
  0
LINE
  5
D0
100
AcDbEntity
  8
LC-004-006-----0
  6
STRICHLINIE
 62
           2
100
AcDbLine
 10
-69.212074
 20
411.20694
 30
0.0
 11
-69.212074
 21
416.20694
 31
0.0
  0
LINE
  5
D1
100
AcDbEntity
  8
LC-004-006-----0
  6
STRICHLINIE
 62
           2
100
AcDbLine
 10
-61.608994
 20
417.006958
 30
0.0
 11
-63.462074
 21
417.006958
 31
0.0
  0
LINE
  5
D2
100
AcDbEntity
  8
LC-004-006-----0
  6
STRICHLINIE
 62
           2
100
AcDbLine
 10
-61.608994
 20
410.406952
 30
0.0
 11
-63.462074
 21
410.406952
 31
0.0
  0
LINE
  5
D3
100
AcDbEntity
  8
LC-004-006-----0
  6
STRICHLINIE
 62
           2
100
AcDbLine
 10
-61.608994
 20
415.506958
 30
0.0
 11
-63.462074
 21
415.506958
 31
0.0
  0
LINE
  5
D4
100
AcDbEntity
  8
LC-004-006-----0
  6
STRICHLINIE
 62
           2
100
AcDbLine
 10
-61.608994
 20
411.906952
 30
0.0
 11
-63.462074
 21
411.906952
 31
0.0
  0
LINE
  5
D5
100
AcDbEntity
  8
LC-004-006-----0
  6
STRICHLINIE
 62
           2
100
AcDbLine
 10
-69.462074
 20
411.45694
 30
0.0
 11
-69.462074
 21
415.95694
 31
0.0
  0
ARC
  5
D6
100
AcDbEntity
  8
LC-004-006-----0
  6
STRICHLINIE
 62
           2
100
AcDbCircle
 10
-72.562073
 20
413.70694
 30
0.0
 40
11.1
100
AcDbArc
 50
350.667582
 51
9.332418
  0
ARC
  5
D7
100
AcDbEntity
  8
LC-004-006-----0
  6
STRICHLINIE
 62
           2
100
AcDbCircle
 10
-63.462074
 20
411.156952
 30
0.0
 40
1.999103
100
AcDbArc
 50
337.965286000001
 51
22.034714
  0
LINE
  5
D8
100
AcDbEntity
  8
LC-004-006-----0
  6
STRICHLINIE
 62
           2
100
AcDbLine
 10
-69.462074
 20
415.45694
 30
0.0
 11
-72.312073
 21
415.45694
 31
0.0
  0
ARC
  5
D9
100
AcDbEntity
  8
LC-004-006-----0
  6
STRICHLINIE
 62
           2
100
AcDbCircle
 10
-63.462074
 20
416.256958
 30
0.0
 40
1.999103
100
AcDbArc
 50
337.965286000001
 51
22.034714
  0
LINE
  5
DA
100
AcDbEntity
  8
LC-004-006-----0
  6
STRICHLINIE
 62
           2
100
AcDbLine
 10
-63.962074
 20
411.20694
 30
0.0
 11
-63.962074
 21
416.20694
 31
0.0
  0
LINE
  5
DB
100
AcDbEntity
  8
LC-004-006-----0
  6
STRICHLINIE
 62
           2
100
AcDbLine
 10
-63.462074
 20
415.906952
 30
0.0
 11
-63.962074
 21
415.906952
 31
0.0
  0
LINE
  5
DC
100
AcDbEntity
  8
LC-004-006-----0
  6
STRICHLINIE
 62
           2
100
AcDbLine
 10
-63.462074
 20
411.506958
 30
0.0
 11
-63.962074
 21
411.506958
 31
0.0
  0
LINE
  5
DD
100
AcDbEntity
  8
LC-004-006-----0
  6
STRICHLINIE
 62
           2
100
AcDbLine
 10
-69.462074
 20
411.95694
 30
0.0
 11
-72.312073
 21
411.95694
 31
0.0
  0
ARC
  5
DE
100
AcDbEntity
  8
LC-004-006-----0
  6
STRICHLINIE
 62
           2
100
AcDbCircle
 10
-72.312073
 20
415.20694
 30
0.0
 40
0.25
100
AcDbArc
 50
90.000003000001
 51
180.000009000006
  0
ARC
  5
DF
100
AcDbEntity
  8
LC-004-006-----0
  6
STRICHLINIE
 62
           2
100
AcDbCircle
 10
-72.312073
 20
412.20694
 30
0.0
 40
0.25
100
AcDbArc
 50
180.000009000006
 51
269.999996999998
  0
LINE
  5
E0
100
AcDbEntity
  8
LC-004-006-----0
  6
STRICHLINIE
 62
           2
100
AcDbLine
 10
-63.462074
 20
407.20694
 30
0.0
 11
-58.562077
 21
407.20694
 31
0.0
  0
LINE
  5
E1
100
AcDbEntity
  8
LC-004-006-----0
  6
STRICHLINIE
 62
           2
100
AcDbLine
 10
-63.462074
 20
407.20694
 30
0.0
 11
-63.462074
 21
420.20694
 31
0.0
  0
CIRCLE
  5
E2
100
AcDbEntity
  8
LC-003-002-----0
  6
AUSGEZOGEN
 62
           1
100
AcDbCircle
 10
24.226843
 20
413.70694
 30
0.0
 40
6.5
  0
LINE
  5
E3
100
AcDbEntity
  8
LC-004-006-----0
  6
STRICHLINIE
 62
           2
100
AcDbLine
 10
-105.162079
 20
415.70694
 30
0.0
 11
-99.662079
 21
415.70694
 31
0.0
  0
LINE
  5
E4
100
AcDbEntity
  8
LC-004-006-----0
  6
STRICHLINIE
 62
           2
100
AcDbLine
 10
-105.162079
 20
411.70694
 30
0.0
 11
-99.662079
 21
411.70694
 31
0.0
  0
LINE
  5
E5
100
AcDbEntity
  8
LC-004-006-----0
  6
STRICHLINIE
 62
           2
100
AcDbLine
 10
-99.912079
 20
416.20694
 30
0.0
 11
-105.162079
 21
416.20694
 31
0.0
  0
LINE
  5
E6
100
AcDbEntity
  8
LC-004-006-----0
  6
STRICHLINIE
 62
           2
100
AcDbLine
 10
-105.162079
 20
411.20694
 30
0.0
 11
-99.912079
 21
411.20694
 31
0.0
  0
LINE
  5
E7
100
AcDbEntity
  8
LC-004-006-----0
  6
STRICHLINIE
 62
           2
100
AcDbLine
 10
-107.662079
 20
411.156952
 30
0.0
 11
-107.662079
 21
416.256958
 31
0.0
  0
LINE
  5
E8
100
AcDbEntity
  8
LC-004-006-----0
  6
STRICHLINIE
 62
           2
100
AcDbLine
 10
-96.562073
 20
412.20694
 30
0.0
 11
-96.562073
 21
415.20694
 31
0.0
  0
LINE
  5
E9
100
AcDbEntity
  8
LC-004-006-----0
  6
STRICHLINIE
 62
           2
100
AcDbLine
 10
-99.662079
 20
415.95694
 30
0.0
 11
-99.912079
 21
416.20694
 31
0.0
  0
LINE
  5
EA
100
AcDbEntity
  8
LC-004-006-----0
  6
STRICHLINIE
 62
           2
100
AcDbLine
 10
-99.912079
 20
411.20694
 30
0.0
 11
-99.662079
 21
411.45694
 31
0.0
  0
LINE
  5
EB
100
AcDbEntity
  8
LC-004-006-----0
  6
STRICHLINIE
 62
           2
100
AcDbLine
 10
-99.912079
 20
411.20694
 30
0.0
 11
-99.912079
 21
416.20694
 31
0.0
  0
LINE
  5
EC
100
AcDbEntity
  8
LC-004-006-----0
  6
STRICHLINIE
 62
           2
100
AcDbLine
 10
-107.51516
 20
417.006958
 30
0.0
 11
-105.662079
 21
417.006958
 31
0.0
  0
LINE
  5
ED
100
AcDbEntity
  8
LC-004-006-----0
  6
STRICHLINIE
 62
           2
100
AcDbLine
 10
-107.51516
 20
410.406952
 30
0.0
 11
-105.662079
 21
410.406952
 31
0.0
  0
LINE
  5
EE
100
AcDbEntity
  8
LC-004-006-----0
  6
STRICHLINIE
 62
           2
100
AcDbLine
 10
-107.51516
 20
415.506958
 30
0.0
 11
-105.662079
 21
415.506958
 31
0.0
  0
LINE
  5
EF
100
AcDbEntity
  8
LC-004-006-----0
  6
STRICHLINIE
 62
           2
100
AcDbLine
 10
-107.51516
 20
411.906952
 30
0.0
 11
-105.662079
 21
411.906952
 31
0.0
  0
LINE
  5
F0
100
AcDbEntity
  8
LC-004-006-----0
  6
STRICHLINIE
 62
           2
100
AcDbLine
 10
-99.662079
 20
411.45694
 30
0.0
 11
-99.662079
 21
415.95694
 31
0.0
  0
ARC
  5
F1
100
AcDbEntity
  8
LC-004-006-----0
  6
STRICHLINIE
 62
           2
100
AcDbCircle
 10
-96.562073
 20
413.70694
 30
0.0
 40
11.1
100
AcDbArc
 50
170.667576
 51
189.332424
  0
ARC
  5
F2
100
AcDbEntity
  8
LC-004-006-----0
  6
STRICHLINIE
 62
           2
100
AcDbCircle
 10
-105.662079
 20
411.156952
 30
0.0
 40
1.999103
100
AcDbArc
 50
157.965282000001
 51
202.034718
  0
LINE
  5
F3
100
AcDbEntity
  8
LC-004-006-----0
  6
STRICHLINIE
 62
           2
100
AcDbLine
 10
-99.662079
 20
415.45694
 30
0.0
 11
-96.812073
 21
415.45694
 31
0.0
  0
ARC
  5
F4
100
AcDbEntity
  8
LC-004-006-----0
  6
STRICHLINIE
 62
           2
100
AcDbCircle
 10
-105.662079
 20
416.256958
 30
0.0
 40
1.999103
100
AcDbArc
 50
157.965282000001
 51
202.034718
  0
LINE
  5
F5
100
AcDbEntity
  8
LC-004-006-----0
  6
STRICHLINIE
 62
           2
100
AcDbLine
 10
-105.162079
 20
411.20694
 30
0.0
 11
-105.162079
 21
416.20694
 31
0.0
  0
LINE
  5
F6
100
AcDbEntity
  8
LC-004-006-----0
  6
STRICHLINIE
 62
           2
100
AcDbLine
 10
-105.662079
 20
415.906952
 30
0.0
 11
-105.162079
 21
415.906952
 31
0.0
  0
LINE
  5
F7
100
AcDbEntity
  8
LC-004-006-----0
  6
STRICHLINIE
 62
           2
100
AcDbLine
 10
-105.662079
 20
411.506958
 30
0.0
 11
-105.162079
 21
411.506958
 31
0.0
  0
LINE
  5
F8
100
AcDbEntity
  8
LC-004-006-----0
  6
STRICHLINIE
 62
           2
100
AcDbLine
 10
-99.662079
 20
411.95694
 30
0.0
 11
-96.812073
 21
411.95694
 31
0.0
  0
ARC
  5
F9
100
AcDbEntity
  8
LC-004-006-----0
  6
STRICHLINIE
 62
           2
100
AcDbCircle
 10
-96.812073
 20
415.20694
 30
0.0
 40
0.25
100
AcDbArc
 50
0.0
 51
90.000003000001
  0
ARC
  5
FA
100
AcDbEntity
  8
LC-004-006-----0
  6
STRICHLINIE
 62
           2
100
AcDbCircle
 10
-96.812073
 20
412.20694
 30
0.0
 40
0.25
100
AcDbArc
 50
269.999996999998
 51
0.0
  0
LINE
  5
FB
100
AcDbEntity
  8
LC-004-006-----0
  6
STRICHLINIE
 62
           2
100
AcDbLine
 10
-105.662079
 20
407.20694
 30
0.0
 11
-110.562073
 21
407.20694
 31
0.0
  0
LINE
  5
FC
100
AcDbEntity
  8
LC-004-006-----0
  6
STRICHLINIE
 62
           2
100
AcDbLine
 10
-105.662079
 20
407.20694
 30
0.0
 11
-105.662079
 21
420.20694
 31
0.0
  0
LINE
  5
FD
100
AcDbEntity
  8
LC-004-006-----0
  6
STRICHLINIE
 62
           2
100
AcDbLine
 10
-105.662079
 20
420.20694
 30
0.0
 11
-110.562073
 21
420.20694
 31
0.0
  0
LINE
  5
FE
100
AcDbEntity
  8
LC-003-002-----0
  6
AUSGEZOGEN
 62
           1
100
AcDbLine
 10
21.366842
 20
415.358154
 30
0.0
 11
24.226843
 21
417.009399
 31
0.0
  0
LINE
  5
FF
100
AcDbEntity
  8
LC-003-002-----0
  6
AUSGEZOGEN
 62
           1
100
AcDbLine
 10
24.226843
 20
410.40451
 30
0.0
 11
27.086843
 21
412.055725
 31
0.0
  0
LINE
  5
100
100
AcDbEntity
  8
LC-003-002-----0
  6
AUSGEZOGEN
 62
           1
100
AcDbLine
 10
21.366842
 20
412.055725
 30
0.0
 11
21.366842
 21
415.358154
 31
0.0
  0
LINE
  5
101
100
AcDbEntity
  8
LC-003-002-----0
  6
AUSGEZOGEN
 62
           1
100
AcDbLine
 10
27.086843
 20
412.055725
 30
0.0
 11
27.086843
 21
415.358154
 31
0.0
  0
LINE
  5
102
100
AcDbEntity
  8
LC-003-002-----0
  6
AUSGEZOGEN
 62
           1
100
AcDbLine
 10
24.226843
 20
410.40451
 30
0.0
 11
21.366842
 21
412.055725
 31
0.0
  0
LINE
  5
103
100
AcDbEntity
  8
LC-003-002-----0
  6
AUSGEZOGEN
 62
           1
100
AcDbLine
 10
27.086843
 20
415.358154
 30
0.0
 11
24.226843
 21
417.009399
 31
0.0
  0
CIRCLE
  5
104
100
AcDbEntity
  8
LC-003-002-----0
  6
AUSGEZOGEN
 62
           1
100
AcDbCircle
 10
24.226843
 20
413.70694
 30
0.0
 40
2.86
  0
LINE
  5
105
100
AcDbEntity
  8
LC-006-012-----0
  6
STRICHPUNKT
 62
           2
100
AcDbLine
 10
-74.766754
 20
257.219666
 30
0.0
 11
-56.130707
 21
257.219666
 31
0.0
  0
LINE
  5
106
100
AcDbEntity
  8
LC-006-012-----0
  6
STRICHPUNKT
 62
           2
100
AcDbLine
 10
24.226843
 20
404.206726
 30
0.0
 11
24.226843
 21
422.037598
 31
0.0
  0
LINE
  5
107
100
AcDbEntity
  8
LC-004-006-----0
  6
STRICHLINIE
 62
           2
100
AcDbLine
 10
-63.462074
 20
263.719666
 30
0.0
 11
-58.562077
 21
263.719666
 31
0.0
  0
LINE
  5
108
100
AcDbEntity
  8
LC-004-006-----0
  6
STRICHLINIE
 62
           2
100
AcDbLine
 10
75.086845
 20
415.358154
 30
0.0
 11
72.226845
 21
417.009399
 31
0.0
  0
LINE
  5
109
100
AcDbEntity
  8
LC-004-006-----0
  6
STRICHLINIE
 62
           2
100
AcDbLine
 10
69.366844
 20
412.055725
 30
0.0
 11
69.366844
 21
415.358154
 31
0.0
  0
LINE
  5
10A
100
AcDbEntity
  8
LC-004-006-----0
  6
STRICHLINIE
 62
           2
100
AcDbLine
 10
75.086845
 20
412.055725
 30
0.0
 11
75.086845
 21
415.358154
 31
0.0
  0
LINE
  5
10B
100
AcDbEntity
  8
LC-004-006-----0
  6
STRICHLINIE
 62
           2
100
AcDbLine
 10
72.226845
 20
410.40451
 30
0.0
 11
69.366844
 21
412.055725
 31
0.0
  0
CIRCLE
  5
10C
100
AcDbEntity
  8
LC-004-006-----0
  6
STRICHLINIE
 62
           2
100
AcDbCircle
 10
72.226845
 20
413.70694
 30
0.0
 40
2.86
  0
CIRCLE
  5
10D
100
AcDbEntity
  8
LC-004-006-----0
  6
STRICHLINIE
 62
           2
100
AcDbCircle
 10
72.226845
 20
413.70694
 30
0.0
 40
6.5
  0
LINE
  5
10E
100
AcDbEntity
  8
LC-004-006-----0
  6
STRICHLINIE
 62
           2
100
AcDbLine
 10
72.226845
 20
410.40451
 30
0.0
 11
75.086845
 21
412.055725
 31
0.0
  0
LINE
  5
10F
100
AcDbEntity
  8
LC-004-006-----0
  6
STRICHLINIE
 62
           2
100
AcDbLine
 10
69.366844
 20
415.358154
 30
0.0
 11
72.226845
 21
417.009399
 31
0.0
  0
LINE
  5
110
100
AcDbEntity
  8
LC-004-006-----0
  6
STRICHLINIE
 62
           2
100
AcDbLine
 10
-63.962074
 20
259.219666
 30
0.0
 11
-69.462074
 21
259.219666
 31
0.0
  0
LINE
  5
111
100
AcDbEntity
  8
LC-006-012-----0
  6
STRICHPUNKT
 62
           2
100
AcDbLine
 10
72.226845
 20
404.206726
 30
0.0
 11
72.226845
 21
422.037598
 31
0.0
  0
LINE
  5
112
100
AcDbEntity
  8
LC-004-006-----0
  6
STRICHLINIE
 62
           2
100
AcDbLine
 10
-63.962074
 20
255.219681
 30
0.0
 11
-69.462074
 21
255.219681
 31
0.0
  0
LINE
  5
113
100
AcDbEntity
  8
LC-004-006-----0
  6
STRICHLINIE
 62
           2
100
AcDbLine
 10
-69.212074
 20
259.719666
 30
0.0
 11
-63.962074
 21
259.719666
 31
0.0
  0
LINE
  5
114
100
AcDbEntity
  8
LC-004-006-----0
  6
STRICHLINIE
 62
           2
100
AcDbLine
 10
-63.962074
 20
254.719681
 30
0.0
 11
-69.212074
 21
254.719681
 31
0.0
  0
LINE
  5
115
100
AcDbEntity
  8
LC-004-006-----0
  6
STRICHLINIE
 62
           2
100
AcDbLine
 10
-61.462074
 20
254.669678
 30
0.0
 11
-61.462074
 21
259.769684
 31
0.0
  0
LINE
  5
116
100
AcDbEntity
  8
LC-004-006-----0
  6
STRICHLINIE
 62
           2
100
AcDbLine
 10
-72.562073
 20
255.719681
 30
0.0
 11
-72.562073
 21
258.719666
 31
0.0
  0
LINE
  5
117
100
AcDbEntity
  8
LC-004-006-----0
  6
STRICHLINIE
 62
           2
100
AcDbLine
 10
-69.462074
 20
259.469666
 30
0.0
 11
-69.212074
 21
259.719666
 31
0.0
  0
LINE
  5
118
100
AcDbEntity
  8
LC-004-006-----0
  6
STRICHLINIE
 62
           2
100
AcDbLine
 10
-69.212074
 20
254.719681
 30
0.0
 11
-69.462074
 21
254.969681
 31
0.0
  0
LINE
  5
119
100
AcDbEntity
  8
LC-004-006-----0
  6
STRICHLINIE
 62
           2
100
AcDbLine
 10
-69.212074
 20
254.719681
 30
0.0
 11
-69.212074
 21
259.719666
 31
0.0
  0
LINE
  5
11A
100
AcDbEntity
  8
LC-004-006-----0
  6
STRICHLINIE
 62
           2
100
AcDbLine
 10
-61.608994
 20
260.519684
 30
0.0
 11
-63.462074
 21
260.519684
 31
0.0
  0
LINE
  5
11B
100
AcDbEntity
  8
LC-004-006-----0
  6
STRICHLINIE
 62
           2
100
AcDbLine
 10
-61.608994
 20
253.919678
 30
0.0
 11
-63.462074
 21
253.919678
 31
0.0
  0
LINE
  5
11C
100
AcDbEntity
  8
LC-004-006-----0
  6
STRICHLINIE
 62
           2
100
AcDbLine
 10
-61.608994
 20
259.019684
 30
0.0
 11
-63.462074
 21
259.019684
 31
0.0
  0
LINE
  5
11D
100
AcDbEntity
  8
LC-004-006-----0
  6
STRICHLINIE
 62
           2
100
AcDbLine
 10
-61.608994
 20
255.419678
 30
0.0
 11
-63.462074
 21
255.419678
 31
0.0
  0
LINE
  5
11E
100
AcDbEntity
  8
LC-004-006-----0
  6
STRICHLINIE
 62
           2
100
AcDbLine
 10
-69.462074
 20
254.969681
 30
0.0
 11
-69.462074
 21
259.469666
 31
0.0
  0
ARC
  5
11F
100
AcDbEntity
  8
LC-004-006-----0
  6
STRICHLINIE
 62
           2
100
AcDbCircle
 10
-72.562073
 20
257.219666
 30
0.0
 40
11.1
100
AcDbArc
 50
350.667582
 51
9.332418
  0
ARC
  5
120
100
AcDbEntity
  8
LC-004-006-----0
  6
STRICHLINIE
 62
           2
100
AcDbCircle
 10
-63.462074
 20
254.669678
 30
0.0
 40
1.999103
100
AcDbArc
 50
337.965286
 51
22.034714
  0
LINE
  5
121
100
AcDbEntity
  8
LC-004-006-----0
  6
STRICHLINIE
 62
           2
100
AcDbLine
 10
-69.462074
 20
258.969666
 30
0.0
 11
-72.312073
 21
258.969666
 31
0.0
  0
ARC
  5
122
100
AcDbEntity
  8
LC-004-006-----0
  6
STRICHLINIE
 62
           2
100
AcDbCircle
 10
-63.462074
 20
259.769684
 30
0.0
 40
1.999103
100
AcDbArc
 50
337.965286000001
 51
22.034714
  0
LINE
  5
123
100
AcDbEntity
  8
LC-004-006-----0
  6
STRICHLINIE
 62
           2
100
AcDbLine
 10
-63.962074
 20
254.719681
 30
0.0
 11
-63.962074
 21
259.719666
 31
0.0
  0
LINE
  5
124
100
AcDbEntity
  8
LC-004-006-----0
  6
STRICHLINIE
 62
           2
100
AcDbLine
 10
-63.462074
 20
259.419678
 30
0.0
 11
-63.962074
 21
259.419678
 31
0.0
  0
LINE
  5
125
100
AcDbEntity
  8
LC-004-006-----0
  6
STRICHLINIE
 62
           2
100
AcDbLine
 10
-63.462074
 20
255.019684
 30
0.0
 11
-63.962074
 21
255.019684
 31
0.0
  0
LINE
  5
126
100
AcDbEntity
  8
LC-004-006-----0
  6
STRICHLINIE
 62
           2
100
AcDbLine
 10
-69.462074
 20
255.469681
 30
0.0
 11
-72.312073
 21
255.469681
 31
0.0
  0
ARC
  5
127
100
AcDbEntity
  8
LC-004-006-----0
  6
STRICHLINIE
 62
           2
100
AcDbCircle
 10
-72.312073
 20
258.719666
 30
0.0
 40
0.25
100
AcDbArc
 50
90.000003000001
 51
180.000009000006
  0
ARC
  5
128
100
AcDbEntity
  8
LC-004-006-----0
  6
STRICHLINIE
 62
           2
100
AcDbCircle
 10
-72.312073
 20
255.719681
 30
0.0
 40
0.25
100
AcDbArc
 50
180.000008999999
 51
269.999996999998
  0
LINE
  5
129
100
AcDbEntity
  8
LC-004-006-----0
  6
STRICHLINIE
 62
           2
100
AcDbLine
 10
-63.462074
 20
250.719681
 30
0.0
 11
-58.562077
 21
250.719681
 31
0.0
  0
LINE
  5
12A
100
AcDbEntity
  8
LC-004-006-----0
  6
STRICHLINIE
 62
           2
100
AcDbLine
 10
-63.462074
 20
250.719681
 30
0.0
 11
-63.462074
 21
263.719666
 31
0.0
  0
LINE
  5
12B
100
AcDbEntity
  8
LC-004-006-----0
  6
STRICHLINIE
 62
           2
100
AcDbLine
 10
-105.662079
 20
311.719666
 30
0.0
 11
-105.662079
 21
298.719666
 31
0.0
  0
LINE
  5
12C
100
AcDbEntity
  8
LC-004-006-----0
  6
STRICHLINIE
 62
           2
100
AcDbLine
 10
-105.662079
 20
311.719666
 30
0.0
 11
-110.562073
 21
311.719666
 31
0.0
  0
ARC
  5
12D
100
AcDbEntity
  8
LC-004-006-----0
  6
STRICHLINIE
 62
           2
100
AcDbCircle
 10
-96.812073
 20
306.719666
 30
0.0
 40
0.25
100
AcDbArc
 50
0.0
 51
90.000003000001
  0
ARC
  5
12E
100
AcDbEntity
  8
LC-004-006-----0
  6
STRICHLINIE
 62
           2
100
AcDbCircle
 10
-96.812073
 20
303.719666
 30
0.0
 40
0.25
100
AcDbArc
 50
269.999996999998
 51
0.0
  0
LINE
  5
12F
100
AcDbEntity
  8
LC-004-006-----0
  6
STRICHLINIE
 62
           2
100
AcDbLine
 10
-99.662079
 20
306.969666
 30
0.0
 11
-96.812073
 21
306.969666
 31
0.0
  0
LINE
  5
130
100
AcDbEntity
  8
LC-004-006-----0
  6
STRICHLINIE
 62
           2
100
AcDbLine
 10
-105.662079
 20
307.419678
 30
0.0
 11
-105.162079
 21
307.419678
 31
0.0
  0
LINE
  5
131
100
AcDbEntity
  8
LC-004-006-----0
  6
STRICHLINIE
 62
           2
100
AcDbLine
 10
-105.662079
 20
303.019684
 30
0.0
 11
-105.162079
 21
303.019684
 31
0.0
  0
LINE
  5
132
100
AcDbEntity
  8
LC-004-006-----0
  6
STRICHLINIE
 62
           2
100
AcDbLine
 10
-105.162079
 20
307.719666
 30
0.0
 11
-105.162079
 21
302.719666
 31
0.0
  0
ARC
  5
133
100
AcDbEntity
  8
LC-004-006-----0
  6
STRICHLINIE
 62
           2
100
AcDbCircle
 10
-105.662079
 20
302.669678
 30
0.0
 40
1.999103
100
AcDbArc
 50
157.965282000001
 51
202.034718
  0
LINE
  5
134
100
AcDbEntity
  8
LC-004-006-----0
  6
STRICHLINIE
 62
           2
100
AcDbLine
 10
-99.662079
 20
303.469666
 30
0.0
 11
-96.812073
 21
303.469666
 31
0.0
  0
ARC
  5
135
100
AcDbEntity
  8
LC-004-006-----0
  6
STRICHLINIE
 62
           2
100
AcDbCircle
 10
-105.662079
 20
307.769684
 30
0.0
 40
1.999103
100
AcDbArc
 50
157.965282000001
 51
202.034718
  0
ARC
  5
136
100
AcDbEntity
  8
LC-004-006-----0
  6
STRICHLINIE
 62
           2
100
AcDbCircle
 10
-96.562073
 20
305.219666
 30
0.0
 40
11.1
100
AcDbArc
 50
170.667576
 51
189.332424
  0
LINE
  5
137
100
AcDbEntity
  8
LC-004-006-----0
  6
STRICHLINIE
 62
           2
100
AcDbLine
 10
-99.662079
 20
307.469666
 30
0.0
 11
-99.662079
 21
302.969666
 31
0.0
  0
LINE
  5
138
100
AcDbEntity
  8
LC-004-006-----0
  6
STRICHLINIE
 62
           2
100
AcDbLine
 10
-107.51516
 20
307.019684
 30
0.0
 11
-105.662079
 21
307.019684
 31
0.0
  0
LINE
  5
139
100
AcDbEntity
  8
LC-004-006-----0
  6
STRICHLINIE
 62
           2
100
AcDbLine
 10
-107.51516
 20
303.419678
 30
0.0
 11
-105.662079
 21
303.419678
 31
0.0
  0
LINE
  5
13A
100
AcDbEntity
  8
LC-004-006-----0
  6
STRICHLINIE
 62
           2
100
AcDbLine
 10
-107.51516
 20
308.519684
 30
0.0
 11
-105.662079
 21
308.519684
 31
0.0
  0
LINE
  5
13B
100
AcDbEntity
  8
LC-004-006-----0
  6
STRICHLINIE
 62
           2
100
AcDbLine
 10
-107.51516
 20
301.919678
 30
0.0
 11
-105.662079
 21
301.919678
 31
0.0
  0
LINE
  5
13C
100
AcDbEntity
  8
LC-004-006-----0
  6
STRICHLINIE
 62
           2
100
AcDbLine
 10
-99.912079
 20
307.719666
 30
0.0
 11
-99.912079
 21
302.719666
 31
0.0
  0
LINE
  5
13D
100
AcDbEntity
  8
LC-004-006-----0
  6
STRICHLINIE
 62
           2
100
AcDbLine
 10
-99.912079
 20
307.719666
 30
0.0
 11
-99.662079
 21
307.469666
 31
0.0
  0
LINE
  5
13E
100
AcDbEntity
  8
LC-004-006-----0
  6
STRICHLINIE
 62
           2
100
AcDbLine
 10
-99.662079
 20
302.969666
 30
0.0
 11
-99.912079
 21
302.719666
 31
0.0
  0
LINE
  5
13F
100
AcDbEntity
  8
LC-004-006-----0
  6
STRICHLINIE
 62
           2
100
AcDbLine
 10
-96.562073
 20
306.719666
 30
0.0
 11
-96.562073
 21
303.719666
 31
0.0
  0
LINE
  5
140
100
AcDbEntity
  8
LC-004-006-----0
  6
STRICHLINIE
 62
           2
100
AcDbLine
 10
-107.662079
 20
307.769684
 30
0.0
 11
-107.662079
 21
302.669678
 31
0.0
  0
LINE
  5
141
100
AcDbEntity
  8
LC-004-006-----0
  6
STRICHLINIE
 62
           2
100
AcDbLine
 10
-105.162079
 20
307.719666
 30
0.0
 11
-99.912079
 21
307.719666
 31
0.0
  0
LINE
  5
142
100
AcDbEntity
  8
LC-004-006-----0
  6
STRICHLINIE
 62
           2
100
AcDbLine
 10
-99.912079
 20
302.719666
 30
0.0
 11
-105.162079
 21
302.719666
 31
0.0
  0
LINE
  5
143
100
AcDbEntity
  8
LC-004-006-----0
  6
STRICHLINIE
 62
           2
100
AcDbLine
 10
-105.162079
 20
307.219666
 30
0.0
 11
-99.662079
 21
307.219666
 31
0.0
  0
LINE
  5
144
100
AcDbEntity
  8
LC-004-006-----0
  6
STRICHLINIE
 62
           2
100
AcDbLine
 10
-105.162079
 20
303.219666
 30
0.0
 11
-99.662079
 21
303.219666
 31
0.0
  0
LINE
  5
145
100
AcDbEntity
  8
LC-004-006-----0
  6
STRICHLINIE
 62
           2
100
AcDbLine
 10
-105.662079
 20
298.719666
 30
0.0
 11
-110.562073
 21
298.719666
 31
0.0
  0
LINE
  5
146
100
AcDbEntity
  8
LC-006-012-----0
  6
STRICHPUNKT
 62
           2
100
AcDbLine
 10
-94.357399
 20
305.219666
 30
0.0
 11
-112.993446
 21
305.219666
 31
0.0
  0
ENDSEC
  0
SECTION
  2
OBJECTS
  0
DICTIONARY
  5
19
100
AcDbDictionary
  3
ACAD_GROUP
350
1A
  3
ACAD_MLINESTYLE
350
1B
  0
DICTIONARY
  5
1A
102
{ACAD_REACTORS
330
19
102
}
100
AcDbDictionary
  0
DICTIONARY
  5
1B
102
{ACAD_REACTORS
330
19
102
}
100
AcDbDictionary
  3
STANDARD
350
1C
  0
MLINESTYLE
  5
1C
102
{ACAD_REACTORS
330
1B
102
}
100
AcDbMlineStyle
  2
STANDARD
 70
           0
  3

 62
           0
 51
90.0
 52
90.0
 71
           2
 49
0.5
 62
         256
  6
BYLAYER
 49
-0.5
 62
         256
  6
BYLAYER
  0
ENDSEC
  0
EOF
