  0
SECTION
  2
HEADER
  9
$ACADVER
  1
AC1014
  9
$ACADMAINTVER
 70
           0
  9
$DWGCODEPAGE
  3
DOS850
  9
$INSBASE
 10
0.0
 20
0.0
 30
0.0
  9
$EXTMIN
 10
-119.755661
 20
-100.017227
 30
0.0
  9
$EXTMAX
 10
117.434784
 20
134.532944
 30
0.0
  9
$LIMMIN
 10
-119.755661
 20
-100.017227
  9
$LIMMAX
 10
117.434784
 20
134.532944
  9
$ORTHOMODE
 70
           0
  9
$REGENMODE
 70
           1
  9
$FILLMODE
 70
           1
  9
$QTEXTMODE
 70
           0
  9
$MIRRTEXT
 70
           1
  9
$DRAGMODE
 70
           2
  9
$LTSCALE
 40
5.0
  9
$OSMODE
 70
           0
  9
$ATTMODE
 70
           1
  9
$TEXTSIZE
 40
0.2
  9
$TRACEWID
 40
0.05
  9
$TEXTSTYLE
  7
TXT
  9
$CLAYER
  8
0
  9
$CELTYPE
  6
CONTINUOUS
  9
$CECOLOR
 62
         256
  9
$CELTSCALE
 40
1.0
  9
$DELOBJ
 70
           1
  9
$DISPSILH
 70
           0
  9
$DIMSCALE
 40
1.0
  9
$DIMASZ
 40
3.5
  9
$DIMEXO
 40
0.0625
  9
$DIMDLI
 40
0.38
  9
$DIMRND
 40
0.0
  9
$DIMDLE
 40
0.0
  9
$DIMEXE
 40
0.18
  9
$DIMTP
 40
0.0
  9
$DIMTM
 40
0.0
  9
$DIMTXT
 40
3.5
  9
$DIMCEN
 40
0.09
  9
$DIMTSZ
 40
0.0
  9
$DIMTOL
 70
           0
  9
$DIMLIM
 70
           0
  9
$DIMTIH
 70
           1
  9
$DIMTOH
 70
           1
  9
$DIMSE1
 70
           0
  9
$DIMSE2
 70
           0
  9
$DIMTAD
 70
           0
  9
$DIMZIN
 70
           0
  9
$DIMBLK
  1

  9
$DIMASO
 70
           1
  9
$DIMSHO
 70
           1
  9
$DIMPOST
  1

  9
$DIMAPOST
  1

  9
$DIMALT
 70
           0
  9
$DIMALTD
 70
           2
  9
$DIMALTF
 40
25.4
  9
$DIMLFAC
 40
1.0
  9
$DIMTOFL
 70
           0
  9
$DIMTVP
 40
0.0
  9
$DIMTIX
 70
           0
  9
$DIMSOXD
 70
           0
  9
$DIMSAH
 70
           0
  9
$DIMBLK1
  1

  9
$DIMBLK2
  1

  9
$DIMSTYLE
  2
STANDARD
  9
$DIMCLRD
 70
           0
  9
$DIMCLRE
 70
           0
  9
$DIMCLRT
 70
           0
  9
$DIMTFAC
 40
1.0
  9
$DIMGAP
 40
0.09
  9
$DIMJUST
 70
           0
  9
$DIMSD1
 70
           0
  9
$DIMSD2
 70
           0
  9
$DIMTOLJ
 70
           1
  9
$DIMTZIN
 70
           0
  9
$DIMALTZ
 70
           0
  9
$DIMALTTZ
 70
           0
  9
$DIMFIT
 70
           3
  9
$DIMUPT
 70
           0
  9
$DIMUNIT
 70
           2
  9
$DIMDEC
 70
           4
  9
$DIMTDEC
 70
           4
  9
$DIMALTU
 70
           2
  9
$DIMALTTD
 70
           2
  9
$DIMTXSTY
  7
TXT
  9
$DIMAUNIT
 70
           0
  9
$LUNITS
 70
           2
  9
$LUPREC
 70
           2
  9
$SKETCHINC
 40
0.1
  9
$FILLETRAD
 40
0.0
  9
$AUNITS
 70
           0
  9
$AUPREC
 70
           2
  9
$MENU
  1
acad
  9
$ELEVATION
 40
0.0
  9
$PELEVATION
 40
0.0
  9
$THICKNESS
 40
0.0
  9
$LIMCHECK
 70
           0
  9
$BLIPMODE
 70
           1
  9
$CHAMFERA
 40
0.0
  9
$CHAMFERB
 40
0.0
  9
$CHAMFERC
 40
0.0
  9
$CHAMFERD
 40
0.0
  9
$SKPOLY
 70
           0
  9
$TDCREATE
 40
0.000000000
  9
$TDUPDATE
 40
0.000000000
  9
$TDINDWG
 40
0.0000000000
  9
$TDUSRTIMER
 40
0.0000000000
  9
$USRTIMER
 70
           1
  9
$ANGBASE
 50
0.0
  9
$ANGDIR
 70
           0
  9
$PDMODE
 70
           2
  9
$PDSIZE
 40
0.5
  9
$PLINEWID
 40
0.0
  9
$COORDS
 70
           0
  9
$SPLFRAME
 70
           0
  9
$SPLINETYPE
 70
           6
  9
$SPLINESEGS
 70
           8
  9
$ATTDIA
 70
           0
  9
$ATTREQ
 70
           1
  9
$HANDLING
 70
           1
  9
$HANDSEED
  5
145
  9
$SURFTAB1
 70
           6
  9
$SURFTAB2
 70
           6
  9
$SURFTYPE
 70
           6
  9
$SURFU
 70
           6
  9
$SURFV
 70
           6
  9
$UCSNAME
  2

  9
$UCSORG
 10
0.0
 20
0.0
 30
0.0
  9
$UCSXDIR
 10
1.0
 20
0.0
 30
0.0
  9
$UCSYDIR
 10
0.0
 20
1.0
 30
0.0
  9
$PUCSNAME
  2

  9
$PUCSORG
 10
0.0
 20
0.0
 30
0.0
  9
$PUCSXDIR
 10
1.0
 20
0.0
 30
0.0
  9
$PUCSYDIR
 10
0.0
 20
1.0
 30
0.0
  9
$USERI1
 70
           0
  9
$USERI2
 70
           0
  9
$USERI3
 70
           0
  9
$USERI4
 70
           0
  9
$USERI5
 70
           0
  9
$USERR1
 40
0.0
  9
$USERR2
 40
0.0
  9
$USERR3
 40
0.0
  9
$USERR4
 40
0.0
  9
$USERR5
 40
0.0
  9
$WORLDVIEW
 70
           1
  9
$SHADEDGE
 70
           3
  9
$SHADEDIF
 70
          70
  9
$TILEMODE
 70
           1
  9
$MAXACTVP
 70
          16
  9
$PINSBASE
 10
0.0
 20
0.0
 30
0.0
  9
$PLIMCHECK
 70
           0
  9
$PEXTMIN
 10
1.000000000000E+20
 20
1.000000000000E+20
 30
1.000000000000E+20
  9
$PEXTMAX
 10
-1.000000000000E+20
 20
-1.000000000000E+20
 30
-1.000000000000E+20
  9
$PLIMMIN
 10
0.0
 20
0.0
  9
$PLIMMAX
 10
12.0
 20
9.0
  9
$UNITMODE
 70
           0
  9
$VISRETAIN
 70
           0
  9
$PLINEGEN
 70
           1
  9
$PSLTSCALE
 70
           0
  9
$TREEDEPTH
 70
        3020
  9
$PICKSTYLE
 70
           1
  9
$CMLSTYLE
  2
STANDARD
  9
$CMLJUST
 70
           0
  9
$CMLSCALE
 40
1.0
  9
$PROXYGRAPHICS
 70
           0
  9
$MEASUREMENT
 70
           0
  0
ENDSEC
  0
SECTION
  2
CLASSES
  0
CLASS
  1
LWPOLYLINE
  2
AcDbPolyline
  3
"AutoCAD"
 90
        0
280
           0
281
           1
  0
CLASS
  1
IMAGE
  2
AcDbRasterImage
  3
ISM
 90
      127
280
           0
281
           1
  0
CLASS
  1
OLE2FRAME
  2
AcDbOle2Frame
  3
""
 90
        0
280
           0
281
           1
  0
CLASS
  1
HATCH
  2
AcDbHatch
  3
"ACAD_SEDONA"
 90
        0
280
           0
281
           1
  0
CLASS
  1
DICTIONARYVAR
  2
AcDbDictionaryVar
  3
"AutoCAD"
 90
        0
280
           0
281
           0
  0
CLASS
  1
RASTERVARIABLES
  2
AcDbRasterVariables
  3
ISM
 90
        0
280
           0
281
           0
  0
CLASS
  1
IMAGEDEF
  2
AcDbRasterImageDef
  3
ISM
 90
        0
280
           0
281
           0
  0
CLASS
  1
IMAGEDEF_REACTOR
  2
AcDbRasterImageDefReactor
  3
ISM
 90
        1
280
           0
281
           0
  0
CLASS
  1
IDBUFFER
  2
AcDbIdBuffer
  3
"Acad"
 90
        0
280
           0
281
           0
  0
CLASS
  1
SPATIAL_FILTER
  2
AcDbSpatialFilter
  3
"Acad"
 90
        0
280
           0
281
           0
  0
CLASS
  1
XRECORD
  2
AcDbXrecord
  3
"<Built In>"
 90
        0
280
           0
281
           0
  0
CLASS
  1
SORTENTSTABLE
  2
AcDbSortentsTable
  3
"AutoCAD"
 90
        0
280
           0
281
           0
  0
CLASS
  1
LAYER_INDEX
  2
AcDbLayerIndex
  3
"Acad"
 90
        0
280
           0
281
           0
  0
CLASS
  1
SPATIAL_INDEX
  2
AcDbSpatialIndex
  3
"Acad"
 90
        0
280
           0
281
           0
  0
CLASS
  1
OBJECT_PTR
  2
CAseDLPNTableRecord
  3
"ASE-LPNTableRecord"
 90
        1
280
           0
281
           0
  0
CLASS
  1
LAYOUT
  2
AcDbLayout
  3
"AutoCAD 2000"
 90
        1
280
           0
281
           0
  0
CLASS
  1
PLOTSETTINGS
  2
AcDbPlotSettings
  3
"AutoCAD 2000"
 90
        1
280
           0
281
           0
  0
CLASS
  1
ACDBDICTIONARYWDFLT
  2
AcDbDictionaryWithDefault
  3
"AutoCAD 2000"
 90
        1
280
           0
281
           0
  0
CLASS
  1
ACDBPLACEHOLDER
  2
AcDbPlaceHolder
  3
"AutoCAD 2000"
 90
        1
280
           0
281
           0
  0
CLASS
  1
VBA_PROJECT
  2
AcDbVbaProject
  3
"acadvba"
 90
        1
280
           0
281
           0
  0
CLASS
  1
WIPEOUT
  2
AcDbWipeout
  3
WipeOut|AutoCAD Express Tool|expresstools@autodesk.com
 90
      127
280
           0
281
           1
  0
CLASS
  1
WIPEOUTVARIABLES
  2
AcDbWipeoutVariables
  3
WipeOut|AutoCAD Express Tool|expresstools@autodesk.com
 90
        0
280
           0
281
           0
  0
CLASS
  1
RTEXT
  2
RText
  3
RText|AutoCAD Express Tool|expresstools@autodesk.com
 90
        0
280
           0
281
           1
  0
CLASS
  1
ARCALIGNEDTEXT
  2
AcDbArcAlignedText
  3
ATEXT|AutoCAD Express Tool|expresstools@autodesk.com
 90
        0
280
           0
281
           1
  0
ENDSEC
  0
SECTION
  2
TABLES
  0
TABLE
  2
VPORT
  5
7
100
AcDbSymbolTable
 70
           1
  0
VPORT
  5
15
100
AcDbSymbolTableRecord
100
AcDbViewportTableRecord
  2
*ACTIVE
 70
           0
 10
0.0
 20
0.0
 11
1.0
 21
1.0
 12
6.591288
 22
4.579184
 13
0.0
 23
0.0
 14
1.0
 24
1.0
 15
0.0
 25
0.0
 16
0.0
 26
0.0
 36
1.0
 17
0.0
 27
0.0
 37
0.0
 40
9.158369
 41
0.688564
 42
50.0
 43
0.0
 44
0.0
 50
0.0
 51
0.0
 71
           0
 72
         100
 73
           1
 74
           1
 75
           0
 76
           0
 77
           0
 78
           0
  0
ENDTAB
  0
TABLE
  2
LTYPE
  5
4
100
AcDbSymbolTable
 70
           6
  0
LTYPE
  5
11
100
AcDbSymbolTableRecord
100
AcDbLinetypeTableRecord
  2
BYBLOCK
 70
          64
  3

 72
          65
 73
           0
 40
0.0
  0
LTYPE
  5
12
100
AcDbSymbolTableRecord
100
AcDbLinetypeTableRecord
  2
BYLAYER
 70
          64
  3

 72
          65
 73
           0
 40
0.0
  0
LTYPE
  5
13
100
AcDbSymbolTableRecord
100
AcDbLinetypeTableRecord
  2
CONTINUOUS
 70
          64
  3
Solid line
 72
          65
 73
           0
 40
0.0
  0
LTYPE
  5
1D
100
AcDbSymbolTableRecord
100
AcDbLinetypeTableRecord
  2
AUSGEZOGEN
 70
           0
  3

 72
          65
 73
           2
 40
0.5
 49
0.25
 74
           0
 49
-0.25
 74
           0
  0
LTYPE
  5
1E
100
AcDbSymbolTableRecord
100
AcDbLinetypeTableRecord
  2
STRICHLINIE
 70
           0
  3

 72
          65
 73
           2
 40
0.5
 49
0.25
 74
           0
 49
-0.25
 74
           0
  0
LTYPE
  5
1F
100
AcDbSymbolTableRecord
100
AcDbLinetypeTableRecord
  2
STRICHPUNKT
 70
           0
  3

 72
          65
 73
           4
 40
1.0
 49
0.5
 74
           0
 49
-0.25
 74
           0
 49
0.0
 74
           0
 49
-0.25
 74
           0
  0
ENDTAB
  0
TABLE
  2
LAYER
  5
2
100
AcDbSymbolTable
 70
           5
  0
LAYER
  5
14
100
AcDbSymbolTableRecord
100
AcDbLayerTableRecord
  2
0
 70
           0
 62
           7
  6
CONTINUOUS
  0
LAYER
  5
20
100
AcDbSymbolTableRecord
100
AcDbLayerTableRecord
  2
LC-003-002-----0
 70
           0
 62
           7
  6
CONTINUOUS
  0
LAYER
  5
21
100
AcDbSymbolTableRecord
100
AcDbLayerTableRecord
  2
LC-006-012-----0
 70
           0
 62
           7
  6
CONTINUOUS
  0
LAYER
  5
22
100
AcDbSymbolTableRecord
100
AcDbLayerTableRecord
  2
LC-004-006-----0
 70
           0
 62
           7
  6
CONTINUOUS
  0
LAYER
  5
23
100
AcDbSymbolTableRecord
100
AcDbLayerTableRecord
  2
LC-008-003-----0
 70
           0
 62
           7
  6
CONTINUOUS
  0
ENDTAB
  0
TABLE
  2
STYLE
  5
3
100
AcDbSymbolTable
 70
           1
  0
STYLE
  5
17
100
AcDbSymbolTableRecord
100
AcDbTextStyleTableRecord
  2
TXT
 70
           0
 40
3.5
 41
1.0
 50
0.0
 71
           0
 42
3.5
  3
TXT
  4

  0
ENDTAB
  0
TABLE
  2
VIEW
  5
5
100
AcDbSymbolTable
 70
           0
  0
ENDTAB
  0
TABLE
  2
UCS
  5
6
100
AcDbSymbolTable
 70
           0
  0
ENDTAB
  0
TABLE
  2
APPID
  5
8
100
AcDbSymbolTable
 70
           2
  0
APPID
  5
16
100
AcDbSymbolTableRecord
100
AcDbRegAppTableRecord
  2
ACAD
 70
           0
  0
APPID
  5
24
100
AcDbSymbolTableRecord
100
AcDbRegAppTableRecord
  2
MegaCADPntStyle
 70
           0
  0
ENDTAB
  0
TABLE
  2
DIMSTYLE
  5
9
100
AcDbSymbolTable
 70
           1
  0
DIMSTYLE
105
18
100
AcDbSymbolTableRecord
100
AcDbDimStyleTableRecord
  2
STANDARD
 70
           0
  3

  4

  5

  6

  7

 40
1.0
 41
0.18
 42
0.0625
 43
0.38
 44
0.18
 45
0.0
 46
0.0
 47
0.0
 48
0.0
 71
           0
 72
           0
 73
           1
 74
           1
 75
           0
 76
           0
 77
           0
 78
           0
140
0.18
141
0.09
142
0.0
143
25.4
144
1.0
145
0.0
146
1.0
147
0.09
170
           0
171
           2
172
           0
173
           0
174
           0
175
           0
176
           0
177
           0
178
           0
270
           2
271
           4
272
           4
273
           2
274
           2
275
           0
280
           0
281
           0
282
           0
283
           1
284
           0
285
           0
286
           0
287
           0
288
           0
340
17
  0
ENDTAB
  0
TABLE
  2
BLOCK_RECORD
  5
1
100
AcDbSymbolTable
 70
           1
  0
BLOCK_RECORD
  5
A
100
AcDbSymbolTableRecord
100
AcDbBlockTableRecord
  2
*MODEL_SPACE
  0
BLOCK_RECORD
  5
B
100
AcDbSymbolTableRecord
100
AcDbBlockTableRecord
  2
*PAPER_SPACE
  0
BLOCK_RECORD
  5
25
102
{ACAD_XDICTIONARY
360
5C
102
}
100
AcDbSymbolTableRecord
100
AcDbBlockTableRecord
  2
ELIPPSE
  0
ENDTAB
  0
ENDSEC
  0
SECTION
  2
BLOCKS
  0
BLOCK
  5
D
100
AcDbEntity
  8
0
100
AcDbBlockBegin
  2
*MODEL_SPACE
 70
           0
 10
0.0
 20
0.0
 30
0.0
  3
*MODEL_SPACE
  1

  0
ENDBLK
  5
E
100
AcDbEntity
  8
0
100
AcDbBlockEnd
  0
BLOCK
  5
F
100
AcDbEntity
 67
           1
  8
0
100
AcDbBlockBegin
  2
*PAPER_SPACE
 70
           0
 10
0.0
 20
0.0
 30
0.0
  3
*PAPER_SPACE
  1

  0
ENDBLK
  5
10
100
AcDbEntity
 67
           1
  8
0
100
AcDbBlockEnd
  0
BLOCK
  5
142
100
AcDbEntity
  8
0
100
AcDbBlockBegin
  2
ELIPPSE
 70
          64
 10
0.0
 20
0.0
 30
0.0
  3
ELIPPSE
  1

  0
CIRCLE
  5
143
100
AcDbEntity
  8
0
  6
BYBLOCK
 62
           0
100
AcDbCircle
 10
0.0
 20
0.0
 30
0.0
 40
1.0
  0
ENDBLK
  5
144
100
AcDbEntity
  8
0
  6
BYBLOCK
 62
           0
100
AcDbBlockEnd
  0
ENDSEC
  0
SECTION
  2
ENTITIES
  0
LINE
  5
26
100
AcDbEntity
  8
LC-003-002-----0
  6
AUSGEZOGEN
 62
           1
100
AcDbLine
 10
-117.054237
 20
125.178749
 30
0.0
 11
-112.054237
 21
130.178741
 31
0.0
  0
LINE
  5
27
100
AcDbEntity
  8
LC-003-002-----0
  6
AUSGEZOGEN
 62
           1
100
AcDbLine
 10
-62.054234
 20
130.178741
 30
0.0
 11
-57.054234
 21
125.178757
 31
0.0
  0
LINE
  5
28
100
AcDbEntity
  8
LC-003-002-----0
  6
AUSGEZOGEN
 62
           1
100
AcDbLine
 10
-6.710239
 20
125.178749
 30
0.0
 11
1.789761
 21
125.178749
 31
0.0
  0
LINE
  5
29
100
AcDbEntity
  8
LC-003-002-----0
  6
AUSGEZOGEN
 62
           1
100
AcDbLine
 10
12.789761
 20
125.178749
 30
0.0
 11
77.789764
 21
125.178749
 31
0.0
  0
LINE
  5
2A
100
AcDbEntity
  8
LC-003-002-----0
  6
AUSGEZOGEN
 62
           1
100
AcDbLine
 10
88.789764
 20
125.178749
 30
0.0
 11
97.289764
 21
125.178749
 31
0.0
  0
LINE
  5
2B
100
AcDbEntity
  8
LC-003-002-----0
  6
AUSGEZOGEN
 62
           1
100
AcDbLine
 10
-117.054237
 20
88.178749
 30
0.0
 11
-117.054237
 21
125.178749
 31
0.0
  0
LINE
  5
2C
100
AcDbEntity
  8
LC-003-002-----0
  6
AUSGEZOGEN
 62
           1
100
AcDbLine
 10
-117.054237
 20
88.178749
 30
0.0
 11
-57.05423
 21
88.178749
 31
0.0
  0
LINE
  5
2D
100
AcDbEntity
  8
LC-003-002-----0
  6
AUSGEZOGEN
 62
           1
100
AcDbLine
 10
-112.054237
 20
130.178741
 30
0.0
 11
-96.869186
 21
130.178741
 31
0.0
  0
LINE
  5
2E
100
AcDbEntity
  8
LC-003-002-----0
  6
AUSGEZOGEN
 62
           1
100
AcDbLine
 10
-57.054234
 20
125.178749
 30
0.0
 11
-57.054234
 21
88.178749
 31
0.0
  0
LINE
  5
2F
100
AcDbEntity
  8
LC-006-012-----0
  6
STRICHPUNKT
 62
           2
100
AcDbLine
 10
-87.054237
 20
83.117073
 30
0.0
 11
-87.054237
 21
134.532944
 31
0.0
  0
LINE
  5
30
100
AcDbEntity
  8
LC-006-012-----0
  6
STRICHPUNKT
 62
           2
100
AcDbLine
 10
-119.211235
 20
113.178749
 30
0.0
 11
-54.154884
 21
113.178749
 31
0.0
  0
CIRCLE
  5
31
100
AcDbEntity
  8
LC-003-002-----0
  6
AUSGEZOGEN
 62
           1
100
AcDbCircle
 10
-87.054237
 20
113.178749
 30
0.0
 40
10.0
  0
ARC
  5
32
100
AcDbEntity
  8
LC-003-002-----0
  6
AUSGEZOGEN
 62
           1
100
AcDbCircle
 10
-87.054237
 20
113.178749
 30
0.0
 40
16.0
100
AcDbArc
 50
120.000003
 51
60.000002
  0
ARC
  5
33
100
AcDbEntity
  8
LC-003-002-----0
  6
AUSGEZOGEN
 62
           1
100
AcDbCircle
 10
-87.054237
 20
113.178749
 30
0.0
 40
14.0
100
AcDbArc
 50
120.000003
 51
60.000002
  0
LINE
  5
34
100
AcDbEntity
  8
LC-004-006-----0
  6
STRICHLINIE
 62
           2
100
AcDbLine
 10
-105.554237
 20
88.178749
 30
0.0
 11
-105.554237
 21
106.178749
 31
0.0
  0
LINE
  5
35
100
AcDbEntity
  8
LC-006-012-----0
  6
STRICHPUNKT
 62
           2
100
AcDbLine
 10
-109.554237
 20
83.117073
 30
0.0
 11
-109.554237
 21
134.532944
 31
0.0
  0
LINE
  5
36
100
AcDbEntity
  8
LC-004-006-----0
  6
STRICHLINIE
 62
           2
100
AcDbLine
 10
-113.554237
 20
88.178749
 30
0.0
 11
-113.554237
 21
106.178749
 31
0.0
  0
LINE
  5
37
100
AcDbEntity
  8
LC-004-006-----0
  6
STRICHLINIE
 62
           2
100
AcDbLine
 10
-106.254234
 20
88.178749
 30
0.0
 11
-106.254234
 21
124.178749
 31
0.0
  0
LINE
  5
38
100
AcDbEntity
  8
LC-004-006-----0
  6
STRICHLINIE
 62
           2
100
AcDbLine
 10
-112.854233
 20
88.178749
 30
0.0
 11
-112.854233
 21
124.178749
 31
0.0
  0
CIRCLE
  5
39
100
AcDbEntity
  8
LC-003-002-----0
  6
AUSGEZOGEN
 62
           1
100
AcDbCircle
 10
15.789761
 20
113.178749
 30
0.0
 40
6.5
  0
LINE
  5
3A
100
AcDbEntity
  8
LC-004-006-----0
  6
STRICHLINIE
 62
           2
100
AcDbLine
 10
-117.054237
 20
124.178749
 30
0.0
 11
-104.054237
 21
124.178749
 31
0.0
  0
LINE
  5
3B
100
AcDbEntity
  8
LC-004-006-----0
  6
STRICHLINIE
 62
           2
100
AcDbLine
 10
-104.054237
 20
124.178749
 30
0.0
 11
-104.054237
 21
130.178741
 31
0.0
  0
LINE
  5
3C
100
AcDbEntity
  8
LC-006-012-----0
  6
STRICHPUNKT
 62
           2
100
AcDbLine
 10
-64.554237
 20
83.117073
 30
0.0
 11
-64.554237
 21
134.532944
 31
0.0
  0
LINE
  5
3D
100
AcDbEntity
  8
LC-004-006-----0
  6
STRICHLINIE
 62
           2
100
AcDbLine
 10
-67.854233
 20
88.178749
 30
0.0
 11
-67.854233
 21
124.178749
 31
0.0
  0
LINE
  5
3E
100
AcDbEntity
  8
LC-004-006-----0
  6
STRICHLINIE
 62
           2
100
AcDbLine
 10
-61.254234
 20
88.178749
 30
0.0
 11
-61.254234
 21
124.178749
 31
0.0
  0
LINE
  5
3F
100
AcDbEntity
  8
LC-004-006-----0
  6
STRICHLINIE
 62
           2
100
AcDbLine
 10
-57.054234
 20
124.178749
 30
0.0
 11
-70.054237
 21
124.178749
 31
0.0
  0
LINE
  5
40
100
AcDbEntity
  8
LC-004-006-----0
  6
STRICHLINIE
 62
           2
100
AcDbLine
 10
-70.054237
 20
124.178749
 30
0.0
 11
-70.054237
 21
130.178741
 31
0.0
  0
LINE
  5
41
100
AcDbEntity
  8
LC-004-006-----0
  6
STRICHLINIE
 62
           2
100
AcDbLine
 10
-68.554237
 20
88.178749
 30
0.0
 11
-68.554237
 21
106.178749
 31
0.0
  0
LINE
  5
42
100
AcDbEntity
  8
LC-004-006-----0
  6
STRICHLINIE
 62
           2
100
AcDbLine
 10
-113.554237
 20
106.178749
 30
0.0
 11
-105.554237
 21
106.178749
 31
0.0
  0
LINE
  5
43
100
AcDbEntity
  8
LC-004-006-----0
  6
STRICHLINIE
 62
           2
100
AcDbLine
 10
-60.554234
 20
88.178749
 30
0.0
 11
-60.554234
 21
106.178749
 31
0.0
  0
LINE
  5
44
100
AcDbEntity
  8
LC-003-002-----0
  6
AUSGEZOGEN
 62
           1
100
AcDbLine
 10
-117.054237
 20
24.959696
 30
0.0
 11
-117.054237
 21
-79.040306
 31
0.0
  0
LINE
  5
45
100
AcDbEntity
  8
LC-003-002-----0
  6
AUSGEZOGEN
 62
           1
100
AcDbLine
 10
-117.054237
 20
-79.040306
 30
0.0
 11
-57.05423
 21
-79.040306
 31
0.0
  0
LINE
  5
46
100
AcDbEntity
  8
LC-003-002-----0
  6
AUSGEZOGEN
 62
           1
100
AcDbLine
 10
-57.054234
 20
24.959696
 30
0.0
 11
-57.054234
 21
-79.040306
 31
0.0
  0
LINE
  5
47
100
AcDbEntity
  8
LC-003-002-----0
  6
AUSGEZOGEN
 62
           1
100
AcDbLine
 10
-117.054237
 20
24.959696
 30
0.0
 11
-57.05423
 21
24.959696
 31
0.0
  0
LINE
  5
48
100
AcDbEntity
  8
LC-006-012-----0
  6
STRICHPUNKT
 62
           2
100
AcDbLine
 10
-73.714851
 20
10.959695
 30
0.0
 11
-54.481239
 21
10.959695
 31
0.0
  0
LINE
  5
49
100
AcDbEntity
  8
LC-006-012-----0
  6
STRICHPUNKT
 62
           2
100
AcDbLine
 10
-87.054237
 20
41.772331
 30
0.0
 11
-87.054237
 21
-100.017227
 31
0.0
  0
LINE
  5
4A
100
AcDbEntity
  8
LC-006-012-----0
  6
STRICHPUNKT
 62
           2
100
AcDbLine
 10
-64.554237
 20
19.736708
 30
0.0
 11
-64.554237
 21
1.941913
 31
0.0
  0
ARC
  5
4B
100
AcDbEntity
  8
LC-003-002-----0
  6
AUSGEZOGEN
 62
           1
100
AcDbCircle
 10
-64.554237
 20
10.959695
 30
0.0
 40
5.5
100
AcDbArc
 50
90.000003
 51
269.999997
  0
ARC
  5
4C
100
AcDbEntity
  8
LC-008-003-----0
  6
AUSGEZOGEN
 62
           2
100
AcDbCircle
 10
-64.554237
 20
10.959695
 30
0.0
 40
4.0
100
AcDbArc
 50
81.368911
 51
9.437906
  0
CIRCLE
  5
4D
100
AcDbEntity
  8
LC-003-002-----0
  6
AUSGEZOGEN
 62
           1
100
AcDbCircle
 10
-64.554237
 20
10.959695
 30
0.0
 40
3.3
  0
LINE
  5
4E
100
AcDbEntity
  8
LC-003-002-----0
  6
AUSGEZOGEN
 62
           1
100
AcDbLine
 10
-64.554237
 20
16.459696
 30
0.0
 11
-57.05423
 21
16.459696
 31
0.0
  0
LINE
  5
4F
100
AcDbEntity
  8
LC-003-002-----0
  6
AUSGEZOGEN
 62
           1
100
AcDbLine
 10
-64.554237
 20
5.459695
 30
0.0
 11
-57.05423
 21
5.459695
 31
0.0
  0
LINE
  5
50
100
AcDbEntity
  8
LC-006-012-----0
  6
STRICHPUNKT
 62
           2
100
AcDbLine
 10
-73.714851
 20
-65.040306
 30
0.0
 11
-54.481239
 21
-65.040306
 31
0.0
  0
LINE
  5
51
100
AcDbEntity
  8
LC-006-012-----0
  6
STRICHPUNKT
 62
           2
100
AcDbLine
 10
-64.554237
 20
-73.817314
 30
0.0
 11
-64.554237
 21
-56.02253
 31
0.0
  0
ARC
  5
52
100
AcDbEntity
  8
LC-003-002-----0
  6
AUSGEZOGEN
 62
           1
100
AcDbCircle
 10
-64.554237
 20
-65.040306
 30
0.0
 40
5.5
100
AcDbArc
 50
90.000003
 51
269.999997
  0
ARC
  5
53
100
AcDbEntity
  8
LC-008-003-----0
  6
AUSGEZOGEN
 62
           2
100
AcDbCircle
 10
-64.554237
 20
-65.040306
 30
0.0
 40
4.0
100
AcDbArc
 50
350.562094
 51
278.631089
  0
CIRCLE
  5
54
100
AcDbEntity
  8
LC-003-002-----0
  6
AUSGEZOGEN
 62
           1
100
AcDbCircle
 10
-64.554237
 20
-65.040306
 30
0.0
 40
3.3
  0
LINE
  5
55
100
AcDbEntity
  8
LC-003-002-----0
  6
AUSGEZOGEN
 62
           1
100
AcDbLine
 10
-64.554237
 20
-70.540306
 30
0.0
 11
-57.05423
 21
-70.540306
 31
0.0
  0
LINE
  5
56
100
AcDbEntity
  8
LC-003-002-----0
  6
AUSGEZOGEN
 62
           1
100
AcDbLine
 10
-64.554237
 20
-59.540306
 30
0.0
 11
-57.05423
 21
-59.540306
 31
0.0
  0
LINE
  5
57
100
AcDbEntity
  8
LC-006-012-----0
  6
STRICHPUNKT
 62
           2
100
AcDbLine
 10
-100.393616
 20
10.959695
 30
0.0
 11
-119.627235
 21
10.959695
 31
0.0
  0
LINE
  5
58
100
AcDbEntity
  8
LC-006-012-----0
  6
STRICHPUNKT
 62
           2
100
AcDbLine
 10
-109.554237
 20
19.736708
 30
0.0
 11
-109.554237
 21
1.941913
 31
0.0
  0
ARC
  5
59
100
AcDbEntity
  8
LC-003-002-----0
  6
AUSGEZOGEN
 62
           1
100
AcDbCircle
 10
-109.554237
 20
10.959695
 30
0.0
 40
5.5
100
AcDbArc
 50
269.999997
 51
90.000003
  0
ARC
  5
5A
100
AcDbEntity
  8
LC-008-003-----0
  6
AUSGEZOGEN
 62
           2
100
AcDbCircle
 10
-109.554237
 20
10.959695
 30
0.0
 40
4.0
100
AcDbArc
 50
170.562091
 51
98.631087
  0
CIRCLE
  5
5B
100
AcDbEntity
  8
LC-003-002-----0
  6
AUSGEZOGEN
 62
           1
100
AcDbCircle
 10
-109.554237
 20
10.959695
 30
0.0
 40
3.3
  0
LINE
  5
5C
100
AcDbEntity
  8
LC-003-002-----0
  6
AUSGEZOGEN
 62
           1
100
AcDbLine
 10
-109.554237
 20
16.459696
 30
0.0
 11
-117.054237
 21
16.459696
 31
0.0
  0
LINE
  5
5D
100
AcDbEntity
  8
LC-003-002-----0
  6
AUSGEZOGEN
 62
           1
100
AcDbLine
 10
-109.554237
 20
5.459695
 30
0.0
 11
-117.054237
 21
5.459695
 31
0.0
  0
LINE
  5
5E
100
AcDbEntity
  8
LC-006-012-----0
  6
STRICHPUNKT
 62
           2
100
AcDbLine
 10
-100.393616
 20
-65.040306
 30
0.0
 11
-119.627235
 21
-65.040306
 31
0.0
  0
LINE
  5
5F
100
AcDbEntity
  8
LC-006-012-----0
  6
STRICHPUNKT
 62
           2
100
AcDbLine
 10
-109.554237
 20
-73.817314
 30
0.0
 11
-109.554237
 21
-56.02253
 31
0.0
  0
ARC
  5
60
100
AcDbEntity
  8
LC-003-002-----0
  6
AUSGEZOGEN
 62
           1
100
AcDbCircle
 10
-109.554237
 20
-65.040306
 30
0.0
 40
5.5
100
AcDbArc
 50
269.999997
 51
90.000003
  0
ARC
  5
61
100
AcDbEntity
  8
LC-008-003-----0
  6
AUSGEZOGEN
 62
           2
100
AcDbCircle
 10
-109.554237
 20
-65.040306
 30
0.0
 40
4.0
100
AcDbArc
 50
261.368913
 51
189.437909
  0
CIRCLE
  5
62
100
AcDbEntity
  8
LC-003-002-----0
  6
AUSGEZOGEN
 62
           1
100
AcDbCircle
 10
-109.554237
 20
-65.040306
 30
0.0
 40
3.3
  0
LINE
  5
63
100
AcDbEntity
  8
LC-003-002-----0
  6
AUSGEZOGEN
 62
           1
100
AcDbLine
 10
-109.554237
 20
-70.540306
 30
0.0
 11
-117.054237
 21
-70.540306
 31
0.0
  0
LINE
  5
64
100
AcDbEntity
  8
LC-003-002-----0
  6
AUSGEZOGEN
 62
           1
100
AcDbLine
 10
-109.554237
 20
-59.540306
 30
0.0
 11
-117.054237
 21
-59.540306
 31
0.0
  0
LINE
  5
65
100
AcDbEntity
  8
LC-004-006-----0
  6
STRICHLINIE
 62
           2
100
AcDbLine
 10
-103.054237
 20
24.959696
 30
0.0
 11
-103.054237
 21
-20.040304
 31
0.0
  0
LINE
  5
66
100
AcDbEntity
  8
LC-004-006-----0
  6
STRICHLINIE
 62
           2
100
AcDbLine
 10
-71.054237
 20
24.959696
 30
0.0
 11
-71.054237
 21
-20.040304
 31
0.0
  0
LINE
  5
67
100
AcDbEntity
  8
LC-004-006-----0
  6
STRICHLINIE
 62
           2
100
AcDbLine
 10
-77.239281
 20
-34.040306
 30
0.0
 11
-71.054237
 21
-34.040306
 31
0.0
  0
LINE
  5
68
100
AcDbEntity
  8
LC-003-002-----0
  6
AUSGEZOGEN
 62
           1
100
AcDbLine
 10
-82.054237
 20
-34.040306
 30
0.0
 11
-77.239281
 21
-34.040306
 31
0.0
  0
LINE
  5
69
100
AcDbEntity
  8
LC-004-006-----0
  6
STRICHLINIE
 62
           2
100
AcDbLine
 10
-92.054237
 20
-34.040306
 30
0.0
 11
-82.054237
 21
-34.040306
 31
0.0
  0
LINE
  5
6A
100
AcDbEntity
  8
LC-003-002-----0
  6
AUSGEZOGEN
 62
           1
100
AcDbLine
 10
-96.869186
 20
-34.040306
 30
0.0
 11
-92.054237
 21
-34.040306
 31
0.0
  0
LINE
  5
6B
100
AcDbEntity
  8
LC-004-006-----0
  6
STRICHLINIE
 62
           2
100
AcDbLine
 10
-103.054237
 20
-34.040306
 30
0.0
 11
-96.869186
 21
-34.040306
 31
0.0
  0
LINE
  5
6C
100
AcDbEntity
  8
LC-004-006-----0
  6
STRICHLINIE
 62
           2
100
AcDbLine
 10
-77.239281
 20
-20.040304
 30
0.0
 11
-71.054237
 21
-20.040304
 31
0.0
  0
LINE
  5
6D
100
AcDbEntity
  8
LC-003-002-----0
  6
AUSGEZOGEN
 62
           1
100
AcDbLine
 10
-82.054237
 20
-20.040304
 30
0.0
 11
-77.239281
 21
-20.040304
 31
0.0
  0
LINE
  5
6E
100
AcDbEntity
  8
LC-004-006-----0
  6
STRICHLINIE
 62
           2
100
AcDbLine
 10
-92.054237
 20
-20.040304
 30
0.0
 11
-82.054237
 21
-20.040304
 31
0.0
  0
LINE
  5
6F
100
AcDbEntity
  8
LC-003-002-----0
  6
AUSGEZOGEN
 62
           1
100
AcDbLine
 10
-96.869186
 20
-20.040304
 30
0.0
 11
-92.054237
 21
-20.040304
 31
0.0
  0
LINE
  5
70
100
AcDbEntity
  8
LC-004-006-----0
  6
STRICHLINIE
 62
           2
100
AcDbLine
 10
-103.054237
 20
-20.040304
 30
0.0
 11
-96.869186
 21
-20.040304
 31
0.0
  0
LINE
  5
71
100
AcDbEntity
  8
LC-003-002-----0
  6
AUSGEZOGEN
 62
           1
100
AcDbLine
 10
-77.054237
 20
37.318298
 30
0.0
 11
-77.054237
 21
24.959696
 31
0.0
  0
LINE
  5
72
100
AcDbEntity
  8
LC-008-003-----0
  6
AUSGEZOGEN
 62
           2
100
AcDbLine
 10
-97.054237
 20
36.65366
 30
0.0
 11
-92.43322
 21
36.052975
 31
0.0
  0
LINE
  5
73
100
AcDbEntity
  8
LC-008-003-----0
  6
AUSGEZOGEN
 62
           2
100
AcDbLine
 10
-92.43322
 20
36.052975
 30
0.0
 11
-83.971962
 21
37.5928
 31
0.0
  0
LINE
  5
74
100
AcDbEntity
  8
LC-008-003-----0
  6
AUSGEZOGEN
 62
           2
100
AcDbLine
 10
-83.971962
 20
37.5928
 30
0.0
 11
-77.054237
 21
37.318298
 31
0.0
  0
LINE
  5
75
100
AcDbEntity
  8
LC-008-003-----0
  6
AUSGEZOGEN
 62
           2
100
AcDbLine
 10
-97.054237
 20
-92.865883
 30
0.0
 11
-90.97438
 21
-94.011848
 31
0.0
  0
LINE
  5
76
100
AcDbEntity
  8
LC-008-003-----0
  6
AUSGEZOGEN
 62
           2
100
AcDbLine
 10
-90.97438
 20
-94.011848
 30
0.0
 11
-82.513123
 21
-91.152168
 31
0.0
  0
LINE
  5
77
100
AcDbEntity
  8
LC-008-003-----0
  6
AUSGEZOGEN
 62
           2
100
AcDbLine
 10
-82.513123
 20
-91.152168
 30
0.0
 11
-77.054237
 21
-92.12056
 31
0.0
  0
LINE
  5
78
100
AcDbEntity
  8
LC-003-002-----0
  6
AUSGEZOGEN
 62
           1
100
AcDbLine
 10
-97.054237
 20
36.65366
 30
0.0
 11
-97.054237
 21
24.959694
 31
0.0
  0
LINE
  5
79
100
AcDbEntity
  8
LC-004-006-----0
  6
STRICHLINIE
 62
           2
100
AcDbLine
 10
-97.054237
 20
24.959696
 30
0.0
 11
-97.054237
 21
-79.040306
 31
0.0
  0
LINE
  5
7A
100
AcDbEntity
  8
LC-004-006-----0
  6
STRICHLINIE
 62
           2
100
AcDbLine
 10
-77.054237
 20
24.959696
 30
0.0
 11
-77.054237
 21
-79.040306
 31
0.0
  0
LINE
  5
7B
100
AcDbEntity
  8
LC-003-002-----0
  6
AUSGEZOGEN
 62
           1
100
AcDbLine
 10
-97.054237
 20
-79.040306
 30
0.0
 11
-97.054237
 21
-92.865883
 31
0.0
  0
LINE
  5
7C
100
AcDbEntity
  8
LC-003-002-----0
  6
AUSGEZOGEN
 62
           1
100
AcDbLine
 10
-77.054237
 20
-79.040306
 30
0.0
 11
-77.054237
 21
-92.12056
 31
0.0
  0
LINE
  5
7D
100
AcDbEntity
  8
LC-003-002-----0
  6
AUSGEZOGEN
 62
           1
100
AcDbLine
 10
-6.710239
 20
88.178749
 30
0.0
 11
97.289764
 21
88.178749
 31
0.0
  0
LINE
  5
7E
100
AcDbEntity
  8
LC-003-002-----0
  6
AUSGEZOGEN
 62
           1
100
AcDbLine
 10
97.289764
 20
88.178749
 30
0.0
 11
97.289764
 21
130.178741
 31
0.0
  0
LINE
  5
7F
100
AcDbEntity
  8
LC-003-002-----0
  6
AUSGEZOGEN
 62
           1
100
AcDbLine
 10
-6.710239
 20
130.178741
 30
0.0
 11
97.289764
 21
130.178741
 31
0.0
  0
LINE
  5
80
100
AcDbEntity
  8
LC-003-002-----0
  6
AUSGEZOGEN
 62
           1
100
AcDbLine
 10
-6.710239
 20
88.178749
 30
0.0
 11
-6.710239
 21
130.178741
 31
0.0
  0
LINE
  5
81
100
AcDbEntity
  8
LC-003-002-----0
  6
AUSGEZOGEN
 62
           1
100
AcDbLine
 10
77.789764
 20
124.178749
 30
0.0
 11
77.789764
 21
130.178741
 31
0.0
  0
LINE
  5
82
100
AcDbEntity
  8
LC-004-006-----0
  6
STRICHLINIE
 62
           2
100
AcDbLine
 10
87.289764
 20
88.178749
 30
0.0
 11
87.289764
 21
106.178749
 31
0.0
  0
LINE
  5
83
100
AcDbEntity
  8
LC-006-012-----0
  6
STRICHPUNKT
 62
           2
100
AcDbLine
 10
83.289764
 20
83.117073
 30
0.0
 11
83.289764
 21
134.532944
 31
0.0
  0
LINE
  5
84
100
AcDbEntity
  8
LC-004-006-----0
  6
STRICHLINIE
 62
           2
100
AcDbLine
 10
79.289764
 20
88.178749
 30
0.0
 11
79.289764
 21
106.178749
 31
0.0
  0
LINE
  5
85
100
AcDbEntity
  8
LC-004-006-----0
  6
STRICHLINIE
 62
           2
100
AcDbLine
 10
86.58976
 20
88.178749
 30
0.0
 11
86.58976
 21
124.178749
 31
0.0
  0
LINE
  5
86
100
AcDbEntity
  8
LC-004-006-----0
  6
STRICHLINIE
 62
           2
100
AcDbLine
 10
79.989761
 20
88.178749
 30
0.0
 11
79.989761
 21
124.178749
 31
0.0
  0
LINE
  5
87
100
AcDbEntity
  8
LC-004-006-----0
  6
STRICHLINIE
 62
           2
100
AcDbLine
 10
79.289764
 20
106.178749
 30
0.0
 11
87.289764
 21
106.178749
 31
0.0
  0
LINE
  5
88
100
AcDbEntity
  8
LC-006-012-----0
  6
STRICHPUNKT
 62
           2
100
AcDbLine
 10
-28.353107
 20
113.178749
 30
0.0
 11
117.434784
 21
113.178749
 31
0.0
  0
LINE
  5
89
100
AcDbEntity
  8
LC-003-002-----0
  6
AUSGEZOGEN
 62
           1
100
AcDbLine
 10
88.789764
 20
124.178749
 30
0.0
 11
88.789764
 21
130.178741
 31
0.0
  0
LINE
  5
8A
100
AcDbEntity
  8
LC-003-002-----0
  6
AUSGEZOGEN
 62
           1
100
AcDbLine
 10
77.789764
 20
124.178749
 30
0.0
 11
88.789764
 21
124.178749
 31
0.0
  0
LINE
  5
8B
100
AcDbEntity
  8
LC-003-002-----0
  6
AUSGEZOGEN
 62
           1
100
AcDbLine
 10
12.789761
 20
124.178749
 30
0.0
 11
12.789761
 21
130.178741
 31
0.0
  0
LINE
  5
8C
100
AcDbEntity
  8
LC-004-006-----0
  6
STRICHLINIE
 62
           2
100
AcDbLine
 10
3.289761
 20
88.178749
 30
0.0
 11
3.289761
 21
106.178749
 31
0.0
  0
LINE
  5
8D
100
AcDbEntity
  8
LC-006-012-----0
  6
STRICHPUNKT
 62
           2
100
AcDbLine
 10
7.289761
 20
83.117073
 30
0.0
 11
7.289761
 21
134.532944
 31
0.0
  0
LINE
  5
8E
100
AcDbEntity
  8
LC-004-006-----0
  6
STRICHLINIE
 62
           2
100
AcDbLine
 10
11.289761
 20
88.178749
 30
0.0
 11
11.289761
 21
106.178749
 31
0.0
  0
LINE
  5
8F
100
AcDbEntity
  8
LC-004-006-----0
  6
STRICHLINIE
 62
           2
100
AcDbLine
 10
3.989761
 20
88.178749
 30
0.0
 11
3.989761
 21
124.178749
 31
0.0
  0
LINE
  5
90
100
AcDbEntity
  8
LC-004-006-----0
  6
STRICHLINIE
 62
           2
100
AcDbLine
 10
10.589761
 20
88.178749
 30
0.0
 11
10.589761
 21
124.178749
 31
0.0
  0
LINE
  5
91
100
AcDbEntity
  8
LC-004-006-----0
  6
STRICHLINIE
 62
           2
100
AcDbLine
 10
11.289761
 20
106.178749
 30
0.0
 11
3.289762
 21
106.178749
 31
0.0
  0
LINE
  5
92
100
AcDbEntity
  8
LC-003-002-----0
  6
AUSGEZOGEN
 62
           1
100
AcDbLine
 10
1.789761
 20
124.178749
 30
0.0
 11
1.789761
 21
130.178741
 31
0.0
  0
LINE
  5
93
100
AcDbEntity
  8
LC-003-002-----0
  6
AUSGEZOGEN
 62
           1
100
AcDbLine
 10
12.789761
 20
124.178749
 30
0.0
 11
1.789761
 21
124.178749
 31
0.0
  0
LINE
  5
94
100
AcDbEntity
  8
LC-004-006-----0
  6
STRICHLINIE
 62
           2
100
AcDbLine
 10
-6.710239
 20
127.035149
 30
0.0
 11
38.289761
 21
127.035149
 31
0.0
  0
LINE
  5
95
100
AcDbEntity
  8
LC-004-006-----0
  6
STRICHLINIE
 62
           2
100
AcDbLine
 10
-6.710239
 20
97.178749
 30
0.0
 11
38.289761
 21
97.178749
 31
0.0
  0
LINE
  5
96
100
AcDbEntity
  8
LC-004-006-----0
  6
STRICHLINIE
 62
           2
100
AcDbLine
 10
38.289761
 20
97.178749
 30
0.0
 11
38.289761
 21
127.035149
 31
0.0
  0
LINE
  5
97
100
AcDbEntity
  8
LC-004-006-----0
  6
STRICHLINIE
 62
           2
100
AcDbLine
 10
52.289761
 20
97.178749
 30
0.0
 11
52.289761
 21
127.035149
 31
0.0
  0
LINE
  5
98
100
AcDbEntity
  8
LC-008-003-----0
  6
AUSGEZOGEN
 62
           2
100
AcDbLine
 10
111.712875
 20
103.178749
 30
0.0
 11
112.670471
 21
108.810112
 31
0.0
  0
LINE
  5
99
100
AcDbEntity
  8
LC-008-003-----0
  6
AUSGEZOGEN
 62
           2
100
AcDbLine
 10
112.670471
 20
108.810112
 30
0.0
 11
112.035233
 21
117.909859
 31
0.0
  0
LINE
  5
9A
100
AcDbEntity
  8
LC-008-003-----0
  6
AUSGEZOGEN
 62
           2
100
AcDbLine
 10
112.035233
 20
117.909859
 30
0.0
 11
112.908791
 21
123.178749
 31
0.0
  0
LINE
  5
9B
100
AcDbEntity
  8
LC-008-003-----0
  6
AUSGEZOGEN
 62
           2
100
AcDbLine
 10
-21.202124
 20
103.178749
 30
0.0
 11
-21.047832
 21
107.133842
 31
0.0
  0
LINE
  5
9C
100
AcDbEntity
  8
LC-008-003-----0
  6
AUSGEZOGEN
 62
           2
100
AcDbLine
 10
-21.047832
 20
107.133842
 30
0.0
 11
-22.953556
 21
117.670395
 31
0.0
  0
LINE
  5
9D
100
AcDbEntity
  8
LC-008-003-----0
  6
AUSGEZOGEN
 62
           2
100
AcDbLine
 10
-22.953556
 20
117.670395
 30
0.0
 11
-22.431692
 21
123.178749
 31
0.0
  0
LINE
  5
9E
100
AcDbEntity
  8
LC-003-002-----0
  6
AUSGEZOGEN
 62
           1
100
AcDbLine
 10
-22.431692
 20
123.178749
 30
0.0
 11
-6.71024
 21
123.178749
 31
0.0
  0
LINE
  5
9F
100
AcDbEntity
  8
LC-004-006-----0
  6
STRICHLINIE
 62
           2
100
AcDbLine
 10
-6.710239
 20
123.178749
 30
0.0
 11
97.289764
 21
123.178749
 31
0.0
  0
LINE
  5
A0
100
AcDbEntity
  8
LC-003-002-----0
  6
AUSGEZOGEN
 62
           1
100
AcDbLine
 10
-21.202124
 20
103.178749
 30
0.0
 11
-6.710238
 21
103.178749
 31
0.0
  0
LINE
  5
A1
100
AcDbEntity
  8
LC-004-006-----0
  6
STRICHLINIE
 62
           2
100
AcDbLine
 10
-6.710239
 20
103.178749
 30
0.0
 11
97.289764
 21
103.178749
 31
0.0
  0
LINE
  5
A2
100
AcDbEntity
  8
LC-003-002-----0
  6
AUSGEZOGEN
 62
           1
100
AcDbLine
 10
97.289764
 20
123.178749
 30
0.0
 11
112.908791
 21
123.178749
 31
0.0
  0
LINE
  5
A3
100
AcDbEntity
  8
LC-003-002-----0
  6
AUSGEZOGEN
 62
           1
100
AcDbLine
 10
97.289764
 20
103.178749
 30
0.0
 11
111.712875
 21
103.178749
 31
0.0
  0
LINE
  5
A4
100
AcDbEntity
  8
LC-003-002-----0
  6
AUSGEZOGEN
 62
           1
100
AcDbLine
 10
-82.054237
 20
121.838997
 30
0.0
 11
-79.054237
 21
127.035149
 31
0.0
  0
LINE
  5
A5
100
AcDbEntity
  8
LC-003-002-----0
  6
AUSGEZOGEN
 62
           1
100
AcDbLine
 10
-92.054237
 20
121.838997
 30
0.0
 11
-95.054237
 21
127.035149
 31
0.0
  0
LINE
  5
A6
100
AcDbEntity
  8
LC-003-002-----0
  6
AUSGEZOGEN
 62
           1
100
AcDbLine
 10
-77.239281
 20
130.178741
 30
0.0
 11
-62.054234
 21
130.178741
 31
0.0
  0
LINE
  5
A7
100
AcDbEntity
  8
LC-003-002-----0
  6
AUSGEZOGEN
 62
           1
100
AcDbLine
 10
-95.054237
 20
127.035149
 30
0.0
 11
-96.869186
 21
130.178741
 31
0.0
  0
LINE
  5
A8
100
AcDbEntity
  8
LC-003-002-----0
  6
AUSGEZOGEN
 62
           1
100
AcDbLine
 10
-79.054237
 20
127.035149
 30
0.0
 11
-77.239281
 21
130.178741
 31
0.0
  0
LINE
  5
A9
100
AcDbEntity
  8
LC-003-002-----0
  6
AUSGEZOGEN
 62
           1
100
AcDbLine
 10
-96.869186
 20
24.959696
 30
0.0
 11
-96.869186
 21
-79.040306
 31
0.0
  0
LINE
  5
AA
100
AcDbEntity
  8
LC-003-002-----0
  6
AUSGEZOGEN
 62
           1
100
AcDbLine
 10
-77.239281
 20
24.959696
 30
0.0
 11
-77.239281
 21
-79.040306
 31
0.0
  0
LINE
  5
AB
100
AcDbEntity
  8
LC-003-002-----0
  6
AUSGEZOGEN
 62
           1
100
AcDbLine
 10
-95.054237
 20
24.959696
 30
0.0
 11
-95.054237
 21
-20.040304
 31
0.0
  0
LINE
  5
AC
100
AcDbEntity
  8
LC-003-002-----0
  6
AUSGEZOGEN
 62
           1
100
AcDbLine
 10
-82.054237
 20
24.959696
 30
0.0
 11
-82.054237
 21
-20.040304
 31
0.0
  0
LINE
  5
AD
100
AcDbEntity
  8
LC-003-002-----0
  6
AUSGEZOGEN
 62
           1
100
AcDbLine
 10
-92.054237
 20
24.959696
 30
0.0
 11
-92.054237
 21
-20.040304
 31
0.0
  0
LINE
  5
AE
100
AcDbEntity
  8
LC-003-002-----0
  6
AUSGEZOGEN
 62
           1
100
AcDbLine
 10
-92.054237
 20
-34.040306
 30
0.0
 11
-92.054237
 21
-79.040306
 31
0.0
  0
LINE
  5
AF
100
AcDbEntity
  8
LC-003-002-----0
  6
AUSGEZOGEN
 62
           1
100
AcDbLine
 10
-95.054237
 20
-34.040306
 30
0.0
 11
-95.054237
 21
-79.040306
 31
0.0
  0
LINE
  5
B0
100
AcDbEntity
  8
LC-003-002-----0
  6
AUSGEZOGEN
 62
           1
100
AcDbLine
 10
-82.054237
 20
-34.040306
 30
0.0
 11
-82.054237
 21
-79.040306
 31
0.0
  0
LINE
  5
B1
100
AcDbEntity
  8
LC-003-002-----0
  6
AUSGEZOGEN
 62
           1
100
AcDbLine
 10
-79.054237
 20
24.959696
 30
0.0
 11
-79.054237
 21
-20.040304
 31
0.0
  0
LINE
  5
B2
100
AcDbEntity
  8
LC-003-002-----0
  6
AUSGEZOGEN
 62
           1
100
AcDbLine
 10
-79.054237
 20
-34.040306
 30
0.0
 11
-79.054237
 21
-79.040306
 31
0.0
  0
LINE
  5
B3
100
AcDbEntity
  8
LC-004-006-----0
  6
STRICHLINIE
 62
           2
100
AcDbLine
 10
-6.710239
 20
121.838997
 30
0.0
 11
38.289761
 21
121.838997
 31
0.0
  0
LINE
  5
B4
100
AcDbEntity
  8
LC-004-006-----0
  6
STRICHLINIE
 62
           2
100
AcDbLine
 10
52.289761
 20
121.838997
 30
0.0
 11
97.289764
 21
121.838997
 31
0.0
  0
LINE
  5
B5
100
AcDbEntity
  8
LC-003-002-----0
  6
AUSGEZOGEN
 62
           1
100
AcDbLine
 10
-112.054237
 20
24.959696
 30
0.0
 11
-112.054237
 21
16.459696
 31
0.0
  0
LINE
  5
B6
100
AcDbEntity
  8
LC-003-002-----0
  6
AUSGEZOGEN
 62
           1
100
AcDbLine
 10
-112.054237
 20
-70.540306
 30
0.0
 11
-112.054237
 21
-79.040306
 31
0.0
  0
LINE
  5
B7
100
AcDbEntity
  8
LC-003-002-----0
  6
AUSGEZOGEN
 62
           1
100
AcDbLine
 10
-112.054237
 20
5.459695
 30
0.0
 11
-112.054237
 21
-59.540306
 31
0.0
  0
LINE
  5
B8
100
AcDbEntity
  8
LC-003-002-----0
  6
AUSGEZOGEN
 62
           1
100
AcDbLine
 10
-62.054234
 20
24.959696
 30
0.0
 11
-62.054234
 21
16.459696
 31
0.0
  0
LINE
  5
B9
100
AcDbEntity
  8
LC-003-002-----0
  6
AUSGEZOGEN
 62
           1
100
AcDbLine
 10
-62.054234
 20
5.459695
 30
0.0
 11
-62.054234
 21
-59.540306
 31
0.0
  0
LINE
  5
BA
100
AcDbEntity
  8
LC-003-002-----0
  6
AUSGEZOGEN
 62
           1
100
AcDbLine
 10
-62.054234
 20
-70.540306
 30
0.0
 11
-62.054234
 21
-79.040306
 31
0.0
  0
LINE
  5
BB
100
AcDbEntity
  8
LC-004-006-----0
  6
STRICHLINIE
 62
           2
100
AcDbLine
 10
52.289761
 20
127.035149
 30
0.0
 11
97.289764
 21
127.035149
 31
0.0
  0
LINE
  5
BC
100
AcDbEntity
  8
LC-004-006-----0
  6
STRICHLINIE
 62
           2
100
AcDbLine
 10
38.289761
 20
97.178749
 30
0.0
 11
52.289761
 21
97.178749
 31
0.0
  0
LINE
  5
BD
100
AcDbEntity
  8
LC-004-006-----0
  6
STRICHLINIE
 62
           2
100
AcDbLine
 10
52.289761
 20
97.178749
 30
0.0
 11
97.289764
 21
97.178749
 31
0.0
  0
LINE
  5
BE
100
AcDbEntity
  8
LC-004-006-----0
  6
STRICHLINIE
 62
           2
100
AcDbLine
 10
-103.054237
 20
-20.040304
 30
0.0
 11
-103.054237
 21
-34.040306
 31
0.0
  0
LINE
  5
BF
100
AcDbEntity
  8
LC-004-006-----0
  6
STRICHLINIE
 62
           2
100
AcDbLine
 10
-103.054237
 20
-34.040306
 30
0.0
 11
-103.054237
 21
-79.040306
 31
0.0
  0
LINE
  5
C0
100
AcDbEntity
  8
LC-004-006-----0
  6
STRICHLINIE
 62
           2
100
AcDbLine
 10
-71.054237
 20
-20.040304
 30
0.0
 11
-71.054237
 21
-34.040306
 31
0.0
  0
LINE
  5
C1
100
AcDbEntity
  8
LC-004-006-----0
  6
STRICHLINIE
 62
           2
100
AcDbLine
 10
-71.054237
 20
-34.040306
 30
0.0
 11
-71.054237
 21
-79.040306
 31
0.0
  0
LINE
  5
C2
100
AcDbEntity
  8
LC-004-006-----0
  6
STRICHLINIE
 62
           2
100
AcDbLine
 10
-60.554234
 20
106.178749
 30
0.0
 11
-68.554237
 21
106.178749
 31
0.0
  0
LINE
  5
C3
100
AcDbEntity
  8
LC-004-006-----0
  6
STRICHLINIE
 62
           2
100
AcDbLine
 10
-63.154236
 20
119.678749
 30
0.0
 11
-57.054234
 21
119.678749
 31
0.0
  0
LINE
  5
C4
100
AcDbEntity
  8
LC-004-006-----0
  6
STRICHLINIE
 62
           2
100
AcDbLine
 10
-63.654236
 20
115.178749
 30
0.0
 11
-69.154236
 21
115.178749
 31
0.0
  0
LINE
  5
C5
100
AcDbEntity
  8
LC-004-006-----0
  6
STRICHLINIE
 62
           2
100
AcDbLine
 10
-63.654236
 20
111.178749
 30
0.0
 11
-69.154236
 21
111.178749
 31
0.0
  0
LINE
  5
C6
100
AcDbEntity
  8
LC-004-006-----0
  6
STRICHLINIE
 62
           2
100
AcDbLine
 10
-68.904236
 20
115.678749
 30
0.0
 11
-63.654236
 21
115.678749
 31
0.0
  0
LINE
  5
C7
100
AcDbEntity
  8
LC-004-006-----0
  6
STRICHLINIE
 62
           2
100
AcDbLine
 10
-63.654236
 20
110.678749
 30
0.0
 11
-68.904236
 21
110.678749
 31
0.0
  0
LINE
  5
C8
100
AcDbEntity
  8
LC-004-006-----0
  6
STRICHLINIE
 62
           2
100
AcDbLine
 10
-61.154236
 20
110.628746
 30
0.0
 11
-61.154236
 21
115.728745
 31
0.0
  0
LINE
  5
C9
100
AcDbEntity
  8
LC-004-006-----0
  6
STRICHLINIE
 62
           2
100
AcDbLine
 10
-72.254234
 20
111.678749
 30
0.0
 11
-72.254234
 21
114.678749
 31
0.0
  0
LINE
  5
CA
100
AcDbEntity
  8
LC-004-006-----0
  6
STRICHLINIE
 62
           2
100
AcDbLine
 10
-69.154236
 20
115.428749
 30
0.0
 11
-68.904236
 21
115.678749
 31
0.0
  0
LINE
  5
CB
100
AcDbEntity
  8
LC-004-006-----0
  6
STRICHLINIE
 62
           2
100
AcDbLine
 10
-68.904236
 20
110.678749
 30
0.0
 11
-69.154236
 21
110.928749
 31
0.0
  0
LINE
  5
CC
100
AcDbEntity
  8
LC-004-006-----0
  6
STRICHLINIE
 62
           2
100
AcDbLine
 10
-68.904236
 20
110.678749
 30
0.0
 11
-68.904236
 21
115.678749
 31
0.0
  0
LINE
  5
CD
100
AcDbEntity
  8
LC-004-006-----0
  6
STRICHLINIE
 62
           2
100
AcDbLine
 10
-61.301151
 20
116.478745
 30
0.0
 11
-63.154236
 21
116.478745
 31
0.0
  0
LINE
  5
CE
100
AcDbEntity
  8
LC-004-006-----0
  6
STRICHLINIE
 62
           2
100
AcDbLine
 10
-61.301151
 20
109.878746
 30
0.0
 11
-63.154236
 21
109.878746
 31
0.0
  0
LINE
  5
CF
100
AcDbEntity
  8
LC-004-006-----0
  6
STRICHLINIE
 62
           2
100
AcDbLine
 10
-61.301151
 20
114.978745
 30
0.0
 11
-63.154236
 21
114.978745
 31
0.0
  0
LINE
  5
D0
100
AcDbEntity
  8
LC-004-006-----0
  6
STRICHLINIE
 62
           2
100
AcDbLine
 10
-61.301151
 20
111.378746
 30
0.0
 11
-63.154236
 21
111.378746
 31
0.0
  0
LINE
  5
D1
100
AcDbEntity
  8
LC-004-006-----0
  6
STRICHLINIE
 62
           2
100
AcDbLine
 10
-69.154236
 20
110.928749
 30
0.0
 11
-69.154236
 21
115.428749
 31
0.0
  0
ARC
  5
D2
100
AcDbEntity
  8
LC-004-006-----0
  6
STRICHLINIE
 62
           2
100
AcDbCircle
 10
-72.254234
 20
113.178749
 30
0.0
 40
11.1
100
AcDbArc
 50
350.667582
 51
9.332418
  0
ARC
  5
D3
100
AcDbEntity
  8
LC-004-006-----0
  6
STRICHLINIE
 62
           2
100
AcDbCircle
 10
-63.154236
 20
110.628746
 30
0.0
 40
1.999103
100
AcDbArc
 50
337.965286
 51
22.034714
  0
LINE
  5
D4
100
AcDbEntity
  8
LC-004-006-----0
  6
STRICHLINIE
 62
           2
100
AcDbLine
 10
-69.154236
 20
114.928749
 30
0.0
 11
-72.004234
 21
114.928749
 31
0.0
  0
ARC
  5
D5
100
AcDbEntity
  8
LC-004-006-----0
  6
STRICHLINIE
 62
           2
100
AcDbCircle
 10
-63.154236
 20
115.728745
 30
0.0
 40
1.999103
100
AcDbArc
 50
337.965286
 51
22.034714
  0
LINE
  5
D6
100
AcDbEntity
  8
LC-004-006-----0
  6
STRICHLINIE
 62
           2
100
AcDbLine
 10
-63.654236
 20
110.678749
 30
0.0
 11
-63.654236
 21
115.678749
 31
0.0
  0
LINE
  5
D7
100
AcDbEntity
  8
LC-004-006-----0
  6
STRICHLINIE
 62
           2
100
AcDbLine
 10
-63.154236
 20
115.378746
 30
0.0
 11
-63.654236
 21
115.378746
 31
0.0
  0
LINE
  5
D8
100
AcDbEntity
  8
LC-004-006-----0
  6
STRICHLINIE
 62
           2
100
AcDbLine
 10
-63.154236
 20
110.978745
 30
0.0
 11
-63.654236
 21
110.978745
 31
0.0
  0
LINE
  5
D9
100
AcDbEntity
  8
LC-004-006-----0
  6
STRICHLINIE
 62
           2
100
AcDbLine
 10
-69.154236
 20
111.428749
 30
0.0
 11
-72.004234
 21
111.428749
 31
0.0
  0
ARC
  5
DA
100
AcDbEntity
  8
LC-004-006-----0
  6
STRICHLINIE
 62
           2
100
AcDbCircle
 10
-72.004234
 20
114.678749
 30
0.0
 40
0.25
100
AcDbArc
 50
90.000003000001
 51
180.000008999999
  0
ARC
  5
DB
100
AcDbEntity
  8
LC-004-006-----0
  6
STRICHLINIE
 62
           2
100
AcDbCircle
 10
-72.004234
 20
111.678749
 30
0.0
 40
0.25
100
AcDbArc
 50
180.000008999999
 51
269.999996999998
  0
LINE
  5
DC
100
AcDbEntity
  8
LC-004-006-----0
  6
STRICHLINIE
 62
           2
100
AcDbLine
 10
-63.154236
 20
106.678749
 30
0.0
 11
-57.054234
 21
106.678749
 31
0.0
  0
LINE
  5
DD
100
AcDbEntity
  8
LC-004-006-----0
  6
STRICHLINIE
 62
           2
100
AcDbLine
 10
-63.154236
 20
106.678749
 30
0.0
 11
-63.154236
 21
119.678749
 31
0.0
  0
LINE
  5
DE
100
AcDbEntity
  8
LC-003-002-----0
  6
AUSGEZOGEN
 62
           1
100
AcDbLine
 10
12.929761
 20
114.829964
 30
0.0
 11
15.789761
 21
116.481186
 31
0.0
  0
LINE
  5
DF
100
AcDbEntity
  8
LC-004-006-----0
  6
STRICHLINIE
 62
           2
100
AcDbLine
 10
-110.954231
 20
119.678749
 30
0.0
 11
-117.054237
 21
119.678749
 31
0.0
  0
LINE
  5
E0
100
AcDbEntity
  8
LC-004-006-----0
  6
STRICHLINIE
 62
           2
100
AcDbLine
 10
-110.454231
 20
115.178749
 30
0.0
 11
-104.954231
 21
115.178749
 31
0.0
  0
LINE
  5
E1
100
AcDbEntity
  8
LC-004-006-----0
  6
STRICHLINIE
 62
           2
100
AcDbLine
 10
-110.454231
 20
111.178749
 30
0.0
 11
-104.954231
 21
111.178749
 31
0.0
  0
LINE
  5
E2
100
AcDbEntity
  8
LC-004-006-----0
  6
STRICHLINIE
 62
           2
100
AcDbLine
 10
-105.204231
 20
115.678749
 30
0.0
 11
-110.454231
 21
115.678749
 31
0.0
  0
LINE
  5
E3
100
AcDbEntity
  8
LC-004-006-----0
  6
STRICHLINIE
 62
           2
100
AcDbLine
 10
-110.454231
 20
110.678749
 30
0.0
 11
-105.204231
 21
110.678749
 31
0.0
  0
LINE
  5
E4
100
AcDbEntity
  8
LC-004-006-----0
  6
STRICHLINIE
 62
           2
100
AcDbLine
 10
-112.954231
 20
110.628746
 30
0.0
 11
-112.954231
 21
115.728745
 31
0.0
  0
LINE
  5
E5
100
AcDbEntity
  8
LC-004-006-----0
  6
STRICHLINIE
 62
           2
100
AcDbLine
 10
-101.854233
 20
111.678749
 30
0.0
 11
-101.854233
 21
114.678749
 31
0.0
  0
LINE
  5
E6
100
AcDbEntity
  8
LC-004-006-----0
  6
STRICHLINIE
 62
           2
100
AcDbLine
 10
-104.954231
 20
115.428749
 30
0.0
 11
-105.204231
 21
115.678749
 31
0.0
  0
LINE
  5
E7
100
AcDbEntity
  8
LC-004-006-----0
  6
STRICHLINIE
 62
           2
100
AcDbLine
 10
-105.204231
 20
110.678749
 30
0.0
 11
-104.954231
 21
110.928749
 31
0.0
  0
LINE
  5
E8
100
AcDbEntity
  8
LC-004-006-----0
  6
STRICHLINIE
 62
           2
100
AcDbLine
 10
-105.204231
 20
110.678749
 30
0.0
 11
-105.204231
 21
115.678749
 31
0.0
  0
LINE
  5
E9
100
AcDbEntity
  8
LC-004-006-----0
  6
STRICHLINIE
 62
           2
100
AcDbLine
 10
-112.80732
 20
116.478745
 30
0.0
 11
-110.954231
 21
116.478745
 31
0.0
  0
LINE
  5
EA
100
AcDbEntity
  8
LC-004-006-----0
  6
STRICHLINIE
 62
           2
100
AcDbLine
 10
-112.80732
 20
109.878746
 30
0.0
 11
-110.954231
 21
109.878746
 31
0.0
  0
LINE
  5
EB
100
AcDbEntity
  8
LC-004-006-----0
  6
STRICHLINIE
 62
           2
100
AcDbLine
 10
-112.80732
 20
114.978745
 30
0.0
 11
-110.954231
 21
114.978745
 31
0.0
  0
LINE
  5
EC
100
AcDbEntity
  8
LC-004-006-----0
  6
STRICHLINIE
 62
           2
100
AcDbLine
 10
-112.80732
 20
111.378746
 30
0.0
 11
-110.954231
 21
111.378746
 31
0.0
  0
LINE
  5
ED
100
AcDbEntity
  8
LC-004-006-----0
  6
STRICHLINIE
 62
           2
100
AcDbLine
 10
-104.954231
 20
110.928749
 30
0.0
 11
-104.954231
 21
115.428749
 31
0.0
  0
ARC
  5
EE
100
AcDbEntity
  8
LC-004-006-----0
  6
STRICHLINIE
 62
           2
100
AcDbCircle
 10
-101.854233
 20
113.178749
 30
0.0
 40
11.1
100
AcDbArc
 50
170.667576
 51
189.332424
  0
ARC
  5
EF
100
AcDbEntity
  8
LC-004-006-----0
  6
STRICHLINIE
 62
           2
100
AcDbCircle
 10
-110.954231
 20
110.628746
 30
0.0
 40
1.999103
100
AcDbArc
 50
157.965282
 51
202.034718
  0
LINE
  5
F0
100
AcDbEntity
  8
LC-004-006-----0
  6
STRICHLINIE
 62
           2
100
AcDbLine
 10
-104.954231
 20
114.928749
 30
0.0
 11
-102.104233
 21
114.928749
 31
0.0
  0
ARC
  5
F1
100
AcDbEntity
  8
LC-004-006-----0
  6
STRICHLINIE
 62
           2
100
AcDbCircle
 10
-110.954231
 20
115.728745
 30
0.0
 40
1.999103
100
AcDbArc
 50
157.965282
 51
202.034718
  0
LINE
  5
F2
100
AcDbEntity
  8
LC-004-006-----0
  6
STRICHLINIE
 62
           2
100
AcDbLine
 10
-110.454231
 20
110.678749
 30
0.0
 11
-110.454231
 21
115.678749
 31
0.0
  0
LINE
  5
F3
100
AcDbEntity
  8
LC-004-006-----0
  6
STRICHLINIE
 62
           2
100
AcDbLine
 10
-110.954231
 20
115.378746
 30
0.0
 11
-110.454231
 21
115.378746
 31
0.0
  0
LINE
  5
F4
100
AcDbEntity
  8
LC-004-006-----0
  6
STRICHLINIE
 62
           2
100
AcDbLine
 10
-110.954231
 20
110.978745
 30
0.0
 11
-110.454231
 21
110.978745
 31
0.0
  0
LINE
  5
F5
100
AcDbEntity
  8
LC-004-006-----0
  6
STRICHLINIE
 62
           2
100
AcDbLine
 10
-104.954231
 20
111.428749
 30
0.0
 11
-102.104233
 21
111.428749
 31
0.0
  0
ARC
  5
F6
100
AcDbEntity
  8
LC-004-006-----0
  6
STRICHLINIE
 62
           2
100
AcDbCircle
 10
-102.104233
 20
114.678749
 30
0.0
 40
0.25
100
AcDbArc
 50
0.0
 51
90.000003000001
  0
ARC
  5
F7
100
AcDbEntity
  8
LC-004-006-----0
  6
STRICHLINIE
 62
           2
100
AcDbCircle
 10
-102.104233
 20
111.678749
 30
0.0
 40
0.25
100
AcDbArc
 50
269.999996999998
 51
0.0
  0
LINE
  5
F8
100
AcDbEntity
  8
LC-004-006-----0
  6
STRICHLINIE
 62
           2
100
AcDbLine
 10
-110.954231
 20
106.678749
 30
0.0
 11
-117.054237
 21
106.678749
 31
0.0
  0
LINE
  5
F9
100
AcDbEntity
  8
LC-004-006-----0
  6
STRICHLINIE
 62
           2
100
AcDbLine
 10
-110.954231
 20
106.678749
 30
0.0
 11
-110.954231
 21
119.678749
 31
0.0
  0
LINE
  5
FA
100
AcDbEntity
  8
LC-003-002-----0
  6
AUSGEZOGEN
 62
           1
100
AcDbLine
 10
15.789761
 20
109.876305
 30
0.0
 11
18.649761
 21
111.527527
 31
0.0
  0
LINE
  5
FB
100
AcDbEntity
  8
LC-003-002-----0
  6
AUSGEZOGEN
 62
           1
100
AcDbLine
 10
12.929761
 20
111.527527
 30
0.0
 11
12.929761
 21
114.829964
 31
0.0
  0
LINE
  5
FC
100
AcDbEntity
  8
LC-003-002-----0
  6
AUSGEZOGEN
 62
           1
100
AcDbLine
 10
18.649761
 20
111.527527
 30
0.0
 11
18.649761
 21
114.829964
 31
0.0
  0
LINE
  5
FD
100
AcDbEntity
  8
LC-003-002-----0
  6
AUSGEZOGEN
 62
           1
100
AcDbLine
 10
15.789761
 20
109.876305
 30
0.0
 11
12.929761
 21
111.527527
 31
0.0
  0
LINE
  5
FE
100
AcDbEntity
  8
LC-003-002-----0
  6
AUSGEZOGEN
 62
           1
100
AcDbLine
 10
18.649761
 20
114.829964
 30
0.0
 11
15.789761
 21
116.481186
 31
0.0
  0
CIRCLE
  5
FF
100
AcDbEntity
  8
LC-003-002-----0
  6
AUSGEZOGEN
 62
           1
100
AcDbCircle
 10
15.789761
 20
113.178749
 30
0.0
 40
2.86
  0
LINE
  5
100
100
AcDbEntity
  8
LC-006-012-----0
  6
STRICHPUNKT
 62
           2
100
AcDbLine
 10
-99.572174
 20
2.459695
 30
0.0
 11
-119.755661
 21
2.459695
 31
0.0
  0
LINE
  5
101
100
AcDbEntity
  8
LC-006-012-----0
  6
STRICHPUNKT
 62
           2
100
AcDbLine
 10
15.789761
 20
103.680588
 30
0.0
 11
15.789761
 21
122.203423
 31
0.0
  0
CIRCLE
  5
102
100
AcDbEntity
  8
LC-004-006-----0
  6
STRICHLINIE
 62
           2
100
AcDbCircle
 10
74.789764
 20
113.178749
 30
0.0
 40
6.5
  0
LINE
  5
103
100
AcDbEntity
  8
LC-004-006-----0
  6
STRICHLINIE
 62
           2
100
AcDbLine
 10
71.929764
 20
114.829964
 30
0.0
 11
74.789764
 21
116.481186
 31
0.0
  0
LINE
  5
104
100
AcDbEntity
  8
LC-004-006-----0
  6
STRICHLINIE
 62
           2
100
AcDbLine
 10
74.789764
 20
109.876305
 30
0.0
 11
77.649757
 21
111.527527
 31
0.0
  0
LINE
  5
105
100
AcDbEntity
  8
LC-004-006-----0
  6
STRICHLINIE
 62
           2
100
AcDbLine
 10
71.929764
 20
111.527527
 30
0.0
 11
71.929764
 21
114.829964
 31
0.0
  0
LINE
  5
106
100
AcDbEntity
  8
LC-004-006-----0
  6
STRICHLINIE
 62
           2
100
AcDbLine
 10
77.649757
 20
111.527527
 30
0.0
 11
77.649757
 21
114.829964
 31
0.0
  0
LINE
  5
107
100
AcDbEntity
  8
LC-004-006-----0
  6
STRICHLINIE
 62
           2
100
AcDbLine
 10
74.789764
 20
109.876305
 30
0.0
 11
71.929764
 21
111.527527
 31
0.0
  0
LINE
  5
108
100
AcDbEntity
  8
LC-004-006-----0
  6
STRICHLINIE
 62
           2
100
AcDbLine
 10
77.649757
 20
114.829964
 30
0.0
 11
74.789764
 21
116.481186
 31
0.0
  0
CIRCLE
  5
109
100
AcDbEntity
  8
LC-004-006-----0
  6
STRICHLINIE
 62
           2
100
AcDbCircle
 10
74.789764
 20
113.178749
 30
0.0
 40
2.86
  0
LINE
  5
10A
100
AcDbEntity
  8
LC-006-012-----0
  6
STRICHPUNKT
 62
           2
100
AcDbLine
 10
74.789764
 20
103.680588
 30
0.0
 11
74.789764
 21
122.203423
 31
0.0
  0
LINE
  5
10B
100
AcDbEntity
  8
LC-004-006-----0
  6
STRICHLINIE
 62
           2
100
AcDbLine
 10
-110.954231
 20
8.959695
 30
0.0
 11
-117.054237
 21
8.959695
 31
0.0
  0
LINE
  5
10C
100
AcDbEntity
  8
LC-004-006-----0
  6
STRICHLINIE
 62
           2
100
AcDbLine
 10
-110.454231
 20
4.459695
 30
0.0
 11
-104.954231
 21
4.459695
 31
0.0
  0
LINE
  5
10D
100
AcDbEntity
  8
LC-004-006-----0
  6
STRICHLINIE
 62
           2
100
AcDbLine
 10
-110.454231
 20
0.459695
 30
0.0
 11
-104.954231
 21
0.459695
 31
0.0
  0
LINE
  5
10E
100
AcDbEntity
  8
LC-004-006-----0
  6
STRICHLINIE
 62
           2
100
AcDbLine
 10
-105.204231
 20
4.959695
 30
0.0
 11
-110.454231
 21
4.959695
 31
0.0
  0
LINE
  5
10F
100
AcDbEntity
  8
LC-004-006-----0
  6
STRICHLINIE
 62
           2
100
AcDbLine
 10
-110.454231
 20
-0.040305
 30
0.0
 11
-105.204231
 21
-0.040305
 31
0.0
  0
LINE
  5
110
100
AcDbEntity
  8
LC-004-006-----0
  6
STRICHLINIE
 62
           2
100
AcDbLine
 10
-112.954231
 20
-0.090305
 30
0.0
 11
-112.954231
 21
5.009695
 31
0.0
  0
LINE
  5
111
100
AcDbEntity
  8
LC-004-006-----0
  6
STRICHLINIE
 62
           2
100
AcDbLine
 10
-101.854233
 20
0.959695
 30
0.0
 11
-101.854233
 21
3.959695
 31
0.0
  0
LINE
  5
112
100
AcDbEntity
  8
LC-004-006-----0
  6
STRICHLINIE
 62
           2
100
AcDbLine
 10
-104.954231
 20
4.709695
 30
0.0
 11
-105.204231
 21
4.959695
 31
0.0
  0
LINE
  5
113
100
AcDbEntity
  8
LC-004-006-----0
  6
STRICHLINIE
 62
           2
100
AcDbLine
 10
-105.204231
 20
-0.040305
 30
0.0
 11
-104.954231
 21
0.209695
 31
0.0
  0
LINE
  5
114
100
AcDbEntity
  8
LC-004-006-----0
  6
STRICHLINIE
 62
           2
100
AcDbLine
 10
-105.204231
 20
-0.040305
 30
0.0
 11
-105.204231
 21
4.959695
 31
0.0
  0
LINE
  5
115
100
AcDbEntity
  8
LC-004-006-----0
  6
STRICHLINIE
 62
           2
100
AcDbLine
 10
-112.80732
 20
5.759695
 30
0.0
 11
-110.954231
 21
5.759695
 31
0.0
  0
LINE
  5
116
100
AcDbEntity
  8
LC-004-006-----0
  6
STRICHLINIE
 62
           2
100
AcDbLine
 10
-112.80732
 20
-0.840305
 30
0.0
 11
-110.954231
 21
-0.840305
 31
0.0
  0
LINE
  5
117
100
AcDbEntity
  8
LC-004-006-----0
  6
STRICHLINIE
 62
           2
100
AcDbLine
 10
-112.80732
 20
4.259695
 30
0.0
 11
-110.954231
 21
4.259695
 31
0.0
  0
LINE
  5
118
100
AcDbEntity
  8
LC-004-006-----0
  6
STRICHLINIE
 62
           2
100
AcDbLine
 10
-112.80732
 20
0.659695
 30
0.0
 11
-110.954231
 21
0.659695
 31
0.0
  0
LINE
  5
119
100
AcDbEntity
  8
LC-004-006-----0
  6
STRICHLINIE
 62
           2
100
AcDbLine
 10
-104.954231
 20
0.209695
 30
0.0
 11
-104.954231
 21
4.709695
 31
0.0
  0
ARC
  5
11A
100
AcDbEntity
  8
LC-004-006-----0
  6
STRICHLINIE
 62
           2
100
AcDbCircle
 10
-101.854233
 20
2.459695
 30
0.0
 40
11.1
100
AcDbArc
 50
170.667576
 51
189.332424
  0
ARC
  5
11B
100
AcDbEntity
  8
LC-004-006-----0
  6
STRICHLINIE
 62
           2
100
AcDbCircle
 10
-110.954231
 20
-0.090305
 30
0.0
 40
1.999103
100
AcDbArc
 50
157.965282
 51
202.034718
  0
LINE
  5
11C
100
AcDbEntity
  8
LC-004-006-----0
  6
STRICHLINIE
 62
           2
100
AcDbLine
 10
-104.954231
 20
4.209695
 30
0.0
 11
-102.104233
 21
4.209695
 31
0.0
  0
ARC
  5
11D
100
AcDbEntity
  8
LC-004-006-----0
  6
STRICHLINIE
 62
           2
100
AcDbCircle
 10
-110.954231
 20
5.009695
 30
0.0
 40
1.999103
100
AcDbArc
 50
157.965282
 51
202.034718
  0
LINE
  5
11E
100
AcDbEntity
  8
LC-004-006-----0
  6
STRICHLINIE
 62
           2
100
AcDbLine
 10
-110.454231
 20
-0.040305
 30
0.0
 11
-110.454231
 21
4.959695
 31
0.0
  0
LINE
  5
11F
100
AcDbEntity
  8
LC-004-006-----0
  6
STRICHLINIE
 62
           2
100
AcDbLine
 10
-110.954231
 20
4.659695
 30
0.0
 11
-110.454231
 21
4.659695
 31
0.0
  0
LINE
  5
120
100
AcDbEntity
  8
LC-004-006-----0
  6
STRICHLINIE
 62
           2
100
AcDbLine
 10
-110.954231
 20
0.259695
 30
0.0
 11
-110.454231
 21
0.259695
 31
0.0
  0
LINE
  5
121
100
AcDbEntity
  8
LC-004-006-----0
  6
STRICHLINIE
 62
           2
100
AcDbLine
 10
-104.954231
 20
0.709695
 30
0.0
 11
-102.104233
 21
0.709695
 31
0.0
  0
ARC
  5
122
100
AcDbEntity
  8
LC-004-006-----0
  6
STRICHLINIE
 62
           2
100
AcDbCircle
 10
-102.104233
 20
3.959695
 30
0.0
 40
0.25
100
AcDbArc
 50
0.0
 51
90.000003000001
  0
ARC
  5
123
100
AcDbEntity
  8
LC-004-006-----0
  6
STRICHLINIE
 62
           2
100
AcDbCircle
 10
-102.104233
 20
0.959695
 30
0.0
 40
0.25
100
AcDbArc
 50
269.999996999998
 51
0.0
  0
LINE
  5
124
100
AcDbEntity
  8
LC-004-006-----0
  6
STRICHLINIE
 62
           2
100
AcDbLine
 10
-110.954231
 20
-4.040305
 30
0.0
 11
-117.054237
 21
-4.040305
 31
0.0
  0
LINE
  5
125
100
AcDbEntity
  8
LC-004-006-----0
  6
STRICHLINIE
 62
           2
100
AcDbLine
 10
-110.954231
 20
-4.040305
 30
0.0
 11
-110.954231
 21
8.959695
 31
0.0
  0
LINE
  5
126
100
AcDbEntity
  8
LC-006-012-----0
  6
STRICHPUNKT
 62
           2
100
AcDbLine
 10
-74.536293
 20
-56.540306
 30
0.0
 11
-54.352806
 21
-56.540306
 31
0.0
  0
LINE
  5
127
100
AcDbEntity
  8
LC-004-006-----0
  6
STRICHLINIE
 62
           2
100
AcDbLine
 10
-63.154236
 20
-50.040306
 30
0.0
 11
-57.054234
 21
-50.040306
 31
0.0
  0
LINE
  5
128
100
AcDbEntity
  8
LC-004-006-----0
  6
STRICHLINIE
 62
           2
100
AcDbLine
 10
-63.654236
 20
-54.540306
 30
0.0
 11
-69.154236
 21
-54.540306
 31
0.0
  0
LINE
  5
129
100
AcDbEntity
  8
LC-004-006-----0
  6
STRICHLINIE
 62
           2
100
AcDbLine
 10
-63.654236
 20
-58.540306
 30
0.0
 11
-69.154236
 21
-58.540306
 31
0.0
  0
LINE
  5
12A
100
AcDbEntity
  8
LC-004-006-----0
  6
STRICHLINIE
 62
           2
100
AcDbLine
 10
-68.904236
 20
-54.040306
 30
0.0
 11
-63.654236
 21
-54.040306
 31
0.0
  0
LINE
  5
12B
100
AcDbEntity
  8
LC-004-006-----0
  6
STRICHLINIE
 62
           2
100
AcDbLine
 10
-63.154236
 20
-63.040306
 30
0.0
 11
-63.154236
 21
-50.040306
 31
0.0
  0
LINE
  5
12C
100
AcDbEntity
  8
LC-004-006-----0
  6
STRICHLINIE
 62
           2
100
AcDbLine
 10
-63.154236
 20
-63.040306
 30
0.0
 11
-57.054234
 21
-63.040306
 31
0.0
  0
ARC
  5
12D
100
AcDbEntity
  8
LC-004-006-----0
  6
STRICHLINIE
 62
           2
100
AcDbCircle
 10
-72.004234
 20
-58.040306
 30
0.0
 40
0.25
100
AcDbArc
 50
180.000008999999
 51
269.999996999998
  0
ARC
  5
12E
100
AcDbEntity
  8
LC-004-006-----0
  6
STRICHLINIE
 62
           2
100
AcDbCircle
 10
-72.004234
 20
-55.040306
 30
0.0
 40
0.25
100
AcDbArc
 50
90.000003000001
 51
180.000008999999
  0
LINE
  5
12F
100
AcDbEntity
  8
LC-004-006-----0
  6
STRICHLINIE
 62
           2
100
AcDbLine
 10
-69.154236
 20
-58.290306
 30
0.0
 11
-72.004234
 21
-58.290306
 31
0.0
  0
LINE
  5
130
100
AcDbEntity
  8
LC-004-006-----0
  6
STRICHLINIE
 62
           2
100
AcDbLine
 10
-63.154236
 20
-58.740307
 30
0.0
 11
-63.654236
 21
-58.740307
 31
0.0
  0
LINE
  5
131
100
AcDbEntity
  8
LC-004-006-----0
  6
STRICHLINIE
 62
           2
100
AcDbLine
 10
-63.154236
 20
-54.340305
 30
0.0
 11
-63.654236
 21
-54.340305
 31
0.0
  0
LINE
  5
132
100
AcDbEntity
  8
LC-004-006-----0
  6
STRICHLINIE
 62
           2
100
AcDbLine
 10
-63.654236
 20
-59.040306
 30
0.0
 11
-63.654236
 21
-54.040306
 31
0.0
  0
ARC
  5
133
100
AcDbEntity
  8
LC-004-006-----0
  6
STRICHLINIE
 62
           2
100
AcDbCircle
 10
-63.154236
 20
-53.990307
 30
0.0
 40
1.999103
100
AcDbArc
 50
337.965286
 51
22.034714
  0
LINE
  5
134
100
AcDbEntity
  8
LC-004-006-----0
  6
STRICHLINIE
 62
           2
100
AcDbLine
 10
-69.154236
 20
-54.790306
 30
0.0
 11
-72.004234
 21
-54.790306
 31
0.0
  0
ARC
  5
135
100
AcDbEntity
  8
LC-004-006-----0
  6
STRICHLINIE
 62
           2
100
AcDbCircle
 10
-63.154236
 20
-59.090305
 30
0.0
 40
1.999103
100
AcDbArc
 50
337.965286
 51
22.034714
  0
ARC
  5
136
100
AcDbEntity
  8
LC-004-006-----0
  6
STRICHLINIE
 62
           2
100
AcDbCircle
 10
-72.254234
 20
-56.540306
 30
0.0
 40
11.1
100
AcDbArc
 50
350.667582
 51
9.332418
  0
LINE
  5
137
100
AcDbEntity
  8
LC-004-006-----0
  6
STRICHLINIE
 62
           2
100
AcDbLine
 10
-69.154236
 20
-58.790306
 30
0.0
 11
-69.154236
 21
-54.290306
 31
0.0
  0
LINE
  5
138
100
AcDbEntity
  8
LC-004-006-----0
  6
STRICHLINIE
 62
           2
100
AcDbLine
 10
-61.301151
 20
-58.340305
 30
0.0
 11
-63.154236
 21
-58.340305
 31
0.0
  0
LINE
  5
139
100
AcDbEntity
  8
LC-004-006-----0
  6
STRICHLINIE
 62
           2
100
AcDbLine
 10
-61.301151
 20
-54.740307
 30
0.0
 11
-63.154236
 21
-54.740307
 31
0.0
  0
LINE
  5
13A
100
AcDbEntity
  8
LC-004-006-----0
  6
STRICHLINIE
 62
           2
100
AcDbLine
 10
-61.301151
 20
-59.840305
 30
0.0
 11
-63.154236
 21
-59.840305
 31
0.0
  0
LINE
  5
13B
100
AcDbEntity
  8
LC-004-006-----0
  6
STRICHLINIE
 62
           2
100
AcDbLine
 10
-61.301151
 20
-53.240307
 30
0.0
 11
-63.154236
 21
-53.240307
 31
0.0
  0
LINE
  5
13C
100
AcDbEntity
  8
LC-004-006-----0
  6
STRICHLINIE
 62
           2
100
AcDbLine
 10
-63.654236
 20
-59.040306
 30
0.0
 11
-68.904236
 21
-59.040306
 31
0.0
  0
LINE
  5
13D
100
AcDbEntity
  8
LC-004-006-----0
  6
STRICHLINIE
 62
           2
100
AcDbLine
 10
-61.154236
 20
-59.090305
 30
0.0
 11
-61.154236
 21
-53.990307
 31
0.0
  0
LINE
  5
13E
100
AcDbEntity
  8
LC-004-006-----0
  6
STRICHLINIE
 62
           2
100
AcDbLine
 10
-72.254234
 20
-58.040306
 30
0.0
 11
-72.254234
 21
-55.040306
 31
0.0
  0
LINE
  5
13F
100
AcDbEntity
  8
LC-004-006-----0
  6
STRICHLINIE
 62
           2
100
AcDbLine
 10
-69.154236
 20
-54.290306
 30
0.0
 11
-68.904236
 21
-54.040306
 31
0.0
  0
LINE
  5
140
100
AcDbEntity
  8
LC-004-006-----0
  6
STRICHLINIE
 62
           2
100
AcDbLine
 10
-68.904236
 20
-59.040306
 30
0.0
 11
-69.154236
 21
-58.790306
 31
0.0
  0
LINE
  5
141
100
AcDbEntity
  8
LC-004-006-----0
  6
STRICHLINIE
 62
           2
100
AcDbLine
 10
-68.904236
 20
-59.040306
 30
0.0
 11
-68.904236
 21
-54.040306
 31
0.0
  0
ENDSEC
  0
SECTION
  2
OBJECTS
  0
DICTIONARY
  5
19
100
AcDbDictionary
  3
ACAD_GROUP
350
1A
  3
ACAD_MLINESTYLE
350
1B
  0
DICTIONARY
  5
1A
102
{ACAD_REACTORS
330
19
102
}
100
AcDbDictionary
  0
DICTIONARY
  5
1B
102
{ACAD_REACTORS
330
19
102
}
100
AcDbDictionary
  3
STANDARD
350
1C
  0
MLINESTYLE
  5
1C
102
{ACAD_REACTORS
330
1B
102
}
100
AcDbMlineStyle
  2
STANDARD
 70
           0
  3

 62
           0
 51
90.0
 52
90.0
 71
           2
 49
0.5
 62
         256
  6
BYLAYER
 49
-0.5
 62
         256
  6
BYLAYER
  0
ENDSEC
  0
EOF
