  0
SECTION
  2
HEADER
  9
$ACADVER
  1
AC1014
  9
$ACADMAINTVER
 70
           0
  9
$DWGCODEPAGE
  3
DOS850
  9
$INSBASE
 10
0.0
 20
0.0
 30
0.0
  9
$EXTMIN
 10
176.698761
 20
-83.455376
 30
0.0
  9
$EXTMAX
 10
495.310944
 20
254.214355
 30
0.0
  9
$LIMMIN
 10
176.698761
 20
-83.455376
  9
$LIMMAX
 10
495.310944
 20
254.214355
  9
$ORTHOMODE
 70
           0
  9
$REGENMODE
 70
           1
  9
$FILLMODE
 70
           1
  9
$QTEXTMODE
 70
           0
  9
$MIRRTEXT
 70
           1
  9
$DRAGMODE
 70
           2
  9
$LTSCALE
 40
5.0
  9
$OSMODE
 70
           0
  9
$ATTMODE
 70
           1
  9
$TEXTSIZE
 40
0.2
  9
$TRACEWID
 40
0.05
  9
$TEXTSTYLE
  7
TXT
  9
$CLAYER
  8
0
  9
$CELTYPE
  6
CONTINUOUS
  9
$CECOLOR
 62
         256
  9
$CELTSCALE
 40
1.0
  9
$DELOBJ
 70
           1
  9
$DISPSILH
 70
           0
  9
$DIMSCALE
 40
1.0
  9
$DIMASZ
 40
3.5
  9
$DIMEXO
 40
0.0625
  9
$DIMDLI
 40
0.38
  9
$DIMRND
 40
0.0
  9
$DIMDLE
 40
0.0
  9
$DIMEXE
 40
0.18
  9
$DIMTP
 40
0.0
  9
$DIMTM
 40
0.0
  9
$DIMTXT
 40
3.5
  9
$DIMCEN
 40
0.09
  9
$DIMTSZ
 40
0.0
  9
$DIMTOL
 70
           0
  9
$DIMLIM
 70
           0
  9
$DIMTIH
 70
           1
  9
$DIMTOH
 70
           1
  9
$DIMSE1
 70
           0
  9
$DIMSE2
 70
           0
  9
$DIMTAD
 70
           0
  9
$DIMZIN
 70
           0
  9
$DIMBLK
  1

  9
$DIMASO
 70
           1
  9
$DIMSHO
 70
           1
  9
$DIMPOST
  1

  9
$DIMAPOST
  1

  9
$DIMALT
 70
           0
  9
$DIMALTD
 70
           2
  9
$DIMALTF
 40
25.4
  9
$DIMLFAC
 40
1.0
  9
$DIMTOFL
 70
           0
  9
$DIMTVP
 40
0.0
  9
$DIMTIX
 70
           0
  9
$DIMSOXD
 70
           0
  9
$DIMSAH
 70
           0
  9
$DIMBLK1
  1

  9
$DIMBLK2
  1

  9
$DIMSTYLE
  2
STANDARD
  9
$DIMCLRD
 70
           0
  9
$DIMCLRE
 70
           0
  9
$DIMCLRT
 70
           0
  9
$DIMTFAC
 40
1.0
  9
$DIMGAP
 40
0.09
  9
$DIMJUST
 70
           0
  9
$DIMSD1
 70
           0
  9
$DIMSD2
 70
           0
  9
$DIMTOLJ
 70
           1
  9
$DIMTZIN
 70
           0
  9
$DIMALTZ
 70
           0
  9
$DIMALTTZ
 70
           0
  9
$DIMFIT
 70
           3
  9
$DIMUPT
 70
           0
  9
$DIMUNIT
 70
           2
  9
$DIMDEC
 70
           4
  9
$DIMTDEC
 70
           4
  9
$DIMALTU
 70
           2
  9
$DIMALTTD
 70
           2
  9
$DIMTXSTY
  7
TXT
  9
$DIMAUNIT
 70
           0
  9
$LUNITS
 70
           2
  9
$LUPREC
 70
           2
  9
$SKETCHINC
 40
0.1
  9
$FILLETRAD
 40
0.0
  9
$AUNITS
 70
           0
  9
$AUPREC
 70
           2
  9
$MENU
  1
acad
  9
$ELEVATION
 40
0.0
  9
$PELEVATION
 40
0.0
  9
$THICKNESS
 40
0.0
  9
$LIMCHECK
 70
           0
  9
$BLIPMODE
 70
           1
  9
$CHAMFERA
 40
0.0
  9
$CHAMFERB
 40
0.0
  9
$CHAMFERC
 40
0.0
  9
$CHAMFERD
 40
0.0
  9
$SKPOLY
 70
           0
  9
$TDCREATE
 40
0.000000000
  9
$TDUPDATE
 40
0.000000000
  9
$TDINDWG
 40
0.0000000000
  9
$TDUSRTIMER
 40
0.0000000000
  9
$USRTIMER
 70
           1
  9
$ANGBASE
 50
0.0
  9
$ANGDIR
 70
           0
  9
$PDMODE
 70
           2
  9
$PDSIZE
 40
0.5
  9
$PLINEWID
 40
0.0
  9
$COORDS
 70
           0
  9
$SPLFRAME
 70
           0
  9
$SPLINETYPE
 70
           6
  9
$SPLINESEGS
 70
           8
  9
$ATTDIA
 70
           0
  9
$ATTREQ
 70
           1
  9
$HANDLING
 70
           1
  9
$HANDSEED
  5
149
  9
$SURFTAB1
 70
           6
  9
$SURFTAB2
 70
           6
  9
$SURFTYPE
 70
           6
  9
$SURFU
 70
           6
  9
$SURFV
 70
           6
  9
$UCSNAME
  2

  9
$UCSORG
 10
0.0
 20
0.0
 30
0.0
  9
$UCSXDIR
 10
1.0
 20
0.0
 30
0.0
  9
$UCSYDIR
 10
0.0
 20
1.0
 30
0.0
  9
$PUCSNAME
  2

  9
$PUCSORG
 10
0.0
 20
0.0
 30
0.0
  9
$PUCSXDIR
 10
1.0
 20
0.0
 30
0.0
  9
$PUCSYDIR
 10
0.0
 20
1.0
 30
0.0
  9
$USERI1
 70
           0
  9
$USERI2
 70
           0
  9
$USERI3
 70
           0
  9
$USERI4
 70
           0
  9
$USERI5
 70
           0
  9
$USERR1
 40
0.0
  9
$USERR2
 40
0.0
  9
$USERR3
 40
0.0
  9
$USERR4
 40
0.0
  9
$USERR5
 40
0.0
  9
$WORLDVIEW
 70
           1
  9
$SHADEDGE
 70
           3
  9
$SHADEDIF
 70
          70
  9
$TILEMODE
 70
           1
  9
$MAXACTVP
 70
          16
  9
$PINSBASE
 10
0.0
 20
0.0
 30
0.0
  9
$PLIMCHECK
 70
           0
  9
$PEXTMIN
 10
1.000000000000E+20
 20
1.000000000000E+20
 30
1.000000000000E+20
  9
$PEXTMAX
 10
-1.000000000000E+20
 20
-1.000000000000E+20
 30
-1.000000000000E+20
  9
$PLIMMIN
 10
0.0
 20
0.0
  9
$PLIMMAX
 10
12.0
 20
9.0
  9
$UNITMODE
 70
           0
  9
$VISRETAIN
 70
           0
  9
$PLINEGEN
 70
           1
  9
$PSLTSCALE
 70
           0
  9
$TREEDEPTH
 70
        3020
  9
$PICKSTYLE
 70
           1
  9
$CMLSTYLE
  2
STANDARD
  9
$CMLJUST
 70
           0
  9
$CMLSCALE
 40
1.0
  9
$PROXYGRAPHICS
 70
           0
  9
$MEASUREMENT
 70
           0
  0
ENDSEC
  0
SECTION
  2
CLASSES
  0
CLASS
  1
LWPOLYLINE
  2
AcDbPolyline
  3
"AutoCAD"
 90
        0
280
           0
281
           1
  0
CLASS
  1
IMAGE
  2
AcDbRasterImage
  3
ISM
 90
      127
280
           0
281
           1
  0
CLASS
  1
OLE2FRAME
  2
AcDbOle2Frame
  3
""
 90
        0
280
           0
281
           1
  0
CLASS
  1
HATCH
  2
AcDbHatch
  3
"ACAD_SEDONA"
 90
        0
280
           0
281
           1
  0
CLASS
  1
DICTIONARYVAR
  2
AcDbDictionaryVar
  3
"AutoCAD"
 90
        0
280
           0
281
           0
  0
CLASS
  1
RASTERVARIABLES
  2
AcDbRasterVariables
  3
ISM
 90
        0
280
           0
281
           0
  0
CLASS
  1
IMAGEDEF
  2
AcDbRasterImageDef
  3
ISM
 90
        0
280
           0
281
           0
  0
CLASS
  1
IMAGEDEF_REACTOR
  2
AcDbRasterImageDefReactor
  3
ISM
 90
        1
280
           0
281
           0
  0
CLASS
  1
IDBUFFER
  2
AcDbIdBuffer
  3
"Acad"
 90
        0
280
           0
281
           0
  0
CLASS
  1
SPATIAL_FILTER
  2
AcDbSpatialFilter
  3
"Acad"
 90
        0
280
           0
281
           0
  0
CLASS
  1
XRECORD
  2
AcDbXrecord
  3
"<Built In>"
 90
        0
280
           0
281
           0
  0
CLASS
  1
SORTENTSTABLE
  2
AcDbSortentsTable
  3
"AutoCAD"
 90
        0
280
           0
281
           0
  0
CLASS
  1
LAYER_INDEX
  2
AcDbLayerIndex
  3
"Acad"
 90
        0
280
           0
281
           0
  0
CLASS
  1
SPATIAL_INDEX
  2
AcDbSpatialIndex
  3
"Acad"
 90
        0
280
           0
281
           0
  0
CLASS
  1
OBJECT_PTR
  2
CAseDLPNTableRecord
  3
"ASE-LPNTableRecord"
 90
        1
280
           0
281
           0
  0
CLASS
  1
LAYOUT
  2
AcDbLayout
  3
"AutoCAD 2000"
 90
        1
280
           0
281
           0
  0
CLASS
  1
PLOTSETTINGS
  2
AcDbPlotSettings
  3
"AutoCAD 2000"
 90
        1
280
           0
281
           0
  0
CLASS
  1
ACDBDICTIONARYWDFLT
  2
AcDbDictionaryWithDefault
  3
"AutoCAD 2000"
 90
        1
280
           0
281
           0
  0
CLASS
  1
ACDBPLACEHOLDER
  2
AcDbPlaceHolder
  3
"AutoCAD 2000"
 90
        1
280
           0
281
           0
  0
CLASS
  1
VBA_PROJECT
  2
AcDbVbaProject
  3
"acadvba"
 90
        1
280
           0
281
           0
  0
CLASS
  1
WIPEOUT
  2
AcDbWipeout
  3
WipeOut|AutoCAD Express Tool|expresstools@autodesk.com
 90
      127
280
           0
281
           1
  0
CLASS
  1
WIPEOUTVARIABLES
  2
AcDbWipeoutVariables
  3
WipeOut|AutoCAD Express Tool|expresstools@autodesk.com
 90
        0
280
           0
281
           0
  0
CLASS
  1
RTEXT
  2
RText
  3
RText|AutoCAD Express Tool|expresstools@autodesk.com
 90
        0
280
           0
281
           1
  0
CLASS
  1
ARCALIGNEDTEXT
  2
AcDbArcAlignedText
  3
ATEXT|AutoCAD Express Tool|expresstools@autodesk.com
 90
        0
280
           0
281
           1
  0
ENDSEC
  0
SECTION
  2
TABLES
  0
TABLE
  2
VPORT
  5
7
100
AcDbSymbolTable
 70
           1
  0
VPORT
  5
15
100
AcDbSymbolTableRecord
100
AcDbViewportTableRecord
  2
*ACTIVE
 70
           0
 10
0.0
 20
0.0
 11
1.0
 21
1.0
 12
6.591288
 22
4.579184
 13
0.0
 23
0.0
 14
1.0
 24
1.0
 15
0.0
 25
0.0
 16
0.0
 26
0.0
 36
1.0
 17
0.0
 27
0.0
 37
0.0
 40
9.158369
 41
0.688564
 42
50.0
 43
0.0
 44
0.0
 50
0.0
 51
0.0
 71
           0
 72
         100
 73
           1
 74
           1
 75
           0
 76
           0
 77
           0
 78
           0
  0
ENDTAB
  0
TABLE
  2
LTYPE
  5
4
100
AcDbSymbolTable
 70
           6
  0
LTYPE
  5
11
100
AcDbSymbolTableRecord
100
AcDbLinetypeTableRecord
  2
BYBLOCK
 70
          64
  3

 72
          65
 73
           0
 40
0.0
  0
LTYPE
  5
12
100
AcDbSymbolTableRecord
100
AcDbLinetypeTableRecord
  2
BYLAYER
 70
          64
  3

 72
          65
 73
           0
 40
0.0
  0
LTYPE
  5
13
100
AcDbSymbolTableRecord
100
AcDbLinetypeTableRecord
  2
CONTINUOUS
 70
          64
  3
Solid line
 72
          65
 73
           0
 40
0.0
  0
LTYPE
  5
1D
100
AcDbSymbolTableRecord
100
AcDbLinetypeTableRecord
  2
AUSGEZOGEN
 70
           0
  3

 72
          65
 73
           2
 40
0.5
 49
0.25
 74
           0
 49
-0.25
 74
           0
  0
LTYPE
  5
1E
100
AcDbSymbolTableRecord
100
AcDbLinetypeTableRecord
  2
STRICHLINIE
 70
           0
  3

 72
          65
 73
           2
 40
0.5
 49
0.25
 74
           0
 49
-0.25
 74
           0
  0
LTYPE
  5
1F
100
AcDbSymbolTableRecord
100
AcDbLinetypeTableRecord
  2
STRICHPUNKT
 70
           0
  3

 72
          65
 73
           4
 40
1.0
 49
0.5
 74
           0
 49
-0.25
 74
           0
 49
0.0
 74
           0
 49
-0.25
 74
           0
  0
ENDTAB
  0
TABLE
  2
LAYER
  5
2
100
AcDbSymbolTable
 70
           5
  0
LAYER
  5
14
100
AcDbSymbolTableRecord
100
AcDbLayerTableRecord
  2
0
 70
           0
 62
           7
  6
CONTINUOUS
  0
LAYER
  5
20
100
AcDbSymbolTableRecord
100
AcDbLayerTableRecord
  2
LC-003-002-----0
 70
           0
 62
           7
  6
CONTINUOUS
  0
LAYER
  5
21
100
AcDbSymbolTableRecord
100
AcDbLayerTableRecord
  2
LC-006-012-----0
 70
           0
 62
           7
  6
CONTINUOUS
  0
LAYER
  5
22
100
AcDbSymbolTableRecord
100
AcDbLayerTableRecord
  2
LC-004-006-----0
 70
           0
 62
           7
  6
CONTINUOUS
  0
LAYER
  5
23
100
AcDbSymbolTableRecord
100
AcDbLayerTableRecord
  2
LC-008-003-----0
 70
           0
 62
           7
  6
CONTINUOUS
  0
ENDTAB
  0
TABLE
  2
STYLE
  5
3
100
AcDbSymbolTable
 70
           1
  0
STYLE
  5
17
100
AcDbSymbolTableRecord
100
AcDbTextStyleTableRecord
  2
TXT
 70
           0
 40
3.5
 41
1.0
 50
0.0
 71
           0
 42
3.5
  3
TXT
  4

  0
ENDTAB
  0
TABLE
  2
VIEW
  5
5
100
AcDbSymbolTable
 70
           0
  0
ENDTAB
  0
TABLE
  2
UCS
  5
6
100
AcDbSymbolTable
 70
           0
  0
ENDTAB
  0
TABLE
  2
APPID
  5
8
100
AcDbSymbolTable
 70
           2
  0
APPID
  5
16
100
AcDbSymbolTableRecord
100
AcDbRegAppTableRecord
  2
ACAD
 70
           0
  0
APPID
  5
24
100
AcDbSymbolTableRecord
100
AcDbRegAppTableRecord
  2
MegaCADPntStyle
 70
           0
  0
ENDTAB
  0
TABLE
  2
DIMSTYLE
  5
9
100
AcDbSymbolTable
 70
           1
  0
DIMSTYLE
105
18
100
AcDbSymbolTableRecord
100
AcDbDimStyleTableRecord
  2
STANDARD
 70
           0
  3

  4

  5

  6

  7

 40
1.0
 41
0.18
 42
0.0625
 43
0.38
 44
0.18
 45
0.0
 46
0.0
 47
0.0
 48
0.0
 71
           0
 72
           0
 73
           1
 74
           1
 75
           0
 76
           0
 77
           0
 78
           0
140
0.18
141
0.09
142
0.0
143
25.4
144
1.0
145
0.0
146
1.0
147
0.09
170
           0
171
           2
172
           0
173
           0
174
           0
175
           0
176
           0
177
           0
178
           0
270
           2
271
           4
272
           4
273
           2
274
           2
275
           0
280
           0
281
           0
282
           0
283
           1
284
           0
285
           0
286
           0
287
           0
288
           0
340
17
  0
ENDTAB
  0
TABLE
  2
BLOCK_RECORD
  5
1
100
AcDbSymbolTable
 70
           1
  0
BLOCK_RECORD
  5
A
100
AcDbSymbolTableRecord
100
AcDbBlockTableRecord
  2
*MODEL_SPACE
  0
BLOCK_RECORD
  5
B
100
AcDbSymbolTableRecord
100
AcDbBlockTableRecord
  2
*PAPER_SPACE
  0
BLOCK_RECORD
  5
25
102
{ACAD_XDICTIONARY
360
5C
102
}
100
AcDbSymbolTableRecord
100
AcDbBlockTableRecord
  2
ELIPPSE
  0
ENDTAB
  0
ENDSEC
  0
SECTION
  2
BLOCKS
  0
BLOCK
  5
D
100
AcDbEntity
  8
0
100
AcDbBlockBegin
  2
*MODEL_SPACE
 70
           0
 10
0.0
 20
0.0
 30
0.0
  3
*MODEL_SPACE
  1

  0
ENDBLK
  5
E
100
AcDbEntity
  8
0
100
AcDbBlockEnd
  0
BLOCK
  5
F
100
AcDbEntity
 67
           1
  8
0
100
AcDbBlockBegin
  2
*PAPER_SPACE
 70
           0
 10
0.0
 20
0.0
 30
0.0
  3
*PAPER_SPACE
  1

  0
ENDBLK
  5
10
100
AcDbEntity
 67
           1
  8
0
100
AcDbBlockEnd
  0
BLOCK
  5
146
100
AcDbEntity
  8
0
100
AcDbBlockBegin
  2
ELIPPSE
 70
          64
 10
0.0
 20
0.0
 30
0.0
  3
ELIPPSE
  1

  0
CIRCLE
  5
147
100
AcDbEntity
  8
0
  6
BYBLOCK
 62
           0
100
AcDbCircle
 10
0.0
 20
0.0
 30
0.0
 40
1.0
  0
ENDBLK
  5
148
100
AcDbEntity
  8
0
  6
BYBLOCK
 62
           0
100
AcDbBlockEnd
  0
ENDSEC
  0
SECTION
  2
ENTITIES
  0
LINE
  5
26
100
AcDbEntity
  8
LC-003-002-----0
  6
AUSGEZOGEN
 62
           1
100
AcDbLine
 10
260.955383
 20
248.32869
 30
0.0
 11
266.955383
 21
242.32869
 31
0.0
  0
LINE
  5
27
100
AcDbEntity
  8
LC-003-002-----0
  6
AUSGEZOGEN
 62
           1
100
AcDbLine
 10
186.955383
 20
248.32869
 30
0.0
 11
180.955383
 21
242.32869
 31
0.0
  0
LINE
  5
28
100
AcDbEntity
  8
LC-003-002-----0
  6
AUSGEZOGEN
 62
           1
100
AcDbLine
 10
318.827026
 20
242.32869
 30
0.0
 11
334.327026
 21
242.32869
 31
0.0
  0
LINE
  5
29
100
AcDbEntity
  8
LC-003-002-----0
  6
AUSGEZOGEN
 62
           1
100
AcDbLine
 10
349.327026
 20
242.32869
 30
0.0
 11
440.327026
 21
242.32869
 31
0.0
  0
LINE
  5
2A
100
AcDbEntity
  8
LC-003-002-----0
  6
AUSGEZOGEN
 62
           1
100
AcDbLine
 10
455.327026
 20
242.32869
 30
0.0
 11
470.827026
 21
242.32869
 31
0.0
  0
LINE
  5
2B
100
AcDbEntity
  8
LC-003-002-----0
  6
AUSGEZOGEN
 62
           1
100
AcDbLine
 10
180.955383
 20
242.32869
 30
0.0
 11
180.955383
 21
188.32869
 31
0.0
  0
LINE
  5
2C
100
AcDbEntity
  8
LC-003-002-----0
  6
AUSGEZOGEN
 62
           1
100
AcDbLine
 10
180.955383
 20
188.32869
 30
0.0
 11
266.955383
 21
188.32869
 31
0.0
  0
LINE
  5
2D
100
AcDbEntity
  8
LC-003-002-----0
  6
AUSGEZOGEN
 62
           1
100
AcDbLine
 10
186.955383
 20
248.32869
 30
0.0
 11
212.297684
 21
248.32869
 31
0.0
  0
LINE
  5
2E
100
AcDbEntity
  8
LC-003-002-----0
  6
AUSGEZOGEN
 62
           1
100
AcDbLine
 10
266.955383
 20
242.32869
 30
0.0
 11
266.955383
 21
188.32869
 31
0.0
  0
LINE
  5
2F
100
AcDbEntity
  8
LC-006-012-----0
  6
STRICHPUNKT
 62
           2
100
AcDbLine
 10
223.955383
 20
183.091736
 30
0.0
 11
223.955383
 21
254.214355
 31
0.0
  0
LINE
  5
30
100
AcDbEntity
  8
LC-006-012-----0
  6
STRICHPUNKT
 62
           2
100
AcDbLine
 10
195.252243
 20
223.32869
 30
0.0
 11
251.805573
 21
223.32869
 31
0.0
  0
CIRCLE
  5
31
100
AcDbEntity
  8
LC-003-002-----0
  6
AUSGEZOGEN
 62
           1
100
AcDbCircle
 10
223.955383
 20
223.32869
 30
0.0
 40
15.0
  0
LINE
  5
32
100
AcDbEntity
  8
LC-003-002-----0
  6
AUSGEZOGEN
 62
           1
100
AcDbLine
 10
230.294662
 20
236.923294
 30
0.0
 11
233.886917
 21
244.626923
 31
0.0
  0
ARC
  5
33
100
AcDbEntity
  8
LC-003-002-----0
  6
AUSGEZOGEN
 62
           1
100
AcDbCircle
 10
223.955383
 20
223.32869
 30
0.0
 40
21.0
100
AcDbArc
 50
115.000004
 51
65.000001
  0
LINE
  5
34
100
AcDbEntity
  8
LC-006-012-----0
  6
STRICHPUNKT
 62
           2
100
AcDbLine
 10
189.955383
 20
183.091736
 30
0.0
 11
189.955383
 21
254.214355
 31
0.0
  0
LINE
  5
35
100
AcDbEntity
  8
LC-006-012-----0
  6
STRICHPUNKT
 62
           2
100
AcDbLine
 10
257.955383
 20
183.091736
 30
0.0
 11
257.955383
 21
254.214355
 31
0.0
  0
ARC
  5
36
100
AcDbEntity
  8
LC-003-002-----0
  6
AUSGEZOGEN
 62
           1
100
AcDbCircle
 10
223.955383
 20
223.32869
 30
0.0
 40
23.5
100
AcDbArc
 50
115.000004
 51
65.000001
  0
LINE
  5
37
100
AcDbEntity
  8
LC-003-002-----0
  6
AUSGEZOGEN
 62
           1
100
AcDbLine
 10
180.955383
 20
97.68792
 30
0.0
 11
180.955383
 21
-54.31208
 31
0.0
  0
LINE
  5
38
100
AcDbEntity
  8
LC-003-002-----0
  6
AUSGEZOGEN
 62
           1
100
AcDbLine
 10
180.955383
 20
-54.31208
 30
0.0
 11
266.955383
 21
-54.31208
 31
0.0
  0
LINE
  5
39
100
AcDbEntity
  8
LC-003-002-----0
  6
AUSGEZOGEN
 62
           1
100
AcDbLine
 10
266.955383
 20
97.68792
 30
0.0
 11
266.955383
 21
-54.31208
 31
0.0
  0
LINE
  5
3A
100
AcDbEntity
  8
LC-003-002-----0
  6
AUSGEZOGEN
 62
           1
100
AcDbLine
 10
180.955383
 20
97.68792
 30
0.0
 11
266.955383
 21
97.68792
 31
0.0
  0
LINE
  5
3B
100
AcDbEntity
  8
LC-006-012-----0
  6
STRICHPUNKT
 62
           2
100
AcDbLine
 10
223.955383
 20
124.024567
 30
0.0
 11
223.955383
 21
-83.455376
 31
0.0
  0
LINE
  5
3C
100
AcDbEntity
  8
LC-006-012-----0
  6
STRICHPUNKT
 62
           2
100
AcDbLine
 10
257.955383
 20
87.124992
 30
0.0
 11
257.955383
 21
61.37793
 31
0.0
  0
LINE
  5
3D
100
AcDbEntity
  8
LC-006-012-----0
  6
STRICHPUNKT
 62
           2
100
AcDbLine
 10
243.441437
 20
74.68792
 30
0.0
 11
270.457336
 21
74.68792
 31
0.0
  0
LINE
  5
3E
100
AcDbEntity
  8
LC-006-012-----0
  6
STRICHPUNKT
 62
           2
100
AcDbLine
 10
189.955383
 20
87.124992
 30
0.0
 11
189.955383
 21
61.37793
 31
0.0
  0
LINE
  5
3F
100
AcDbEntity
  8
LC-006-012-----0
  6
STRICHPUNKT
 62
           2
100
AcDbLine
 10
204.46933
 20
74.68792
 30
0.0
 11
177.453415
 21
74.68792
 31
0.0
  0
LINE
  5
40
100
AcDbEntity
  8
LC-006-012-----0
  6
STRICHPUNKT
 62
           2
100
AcDbLine
 10
257.955383
 20
-43.749146
 30
0.0
 11
257.955383
 21
-18.002094
 31
0.0
  0
LINE
  5
41
100
AcDbEntity
  8
LC-006-012-----0
  6
STRICHPUNKT
 62
           2
100
AcDbLine
 10
243.441437
 20
-31.312078
 30
0.0
 11
270.457336
 21
-31.312078
 31
0.0
  0
LINE
  5
42
100
AcDbEntity
  8
LC-006-012-----0
  6
STRICHPUNKT
 62
           2
100
AcDbLine
 10
189.955383
 20
-43.749146
 30
0.0
 11
189.955383
 21
-18.002094
 31
0.0
  0
LINE
  5
43
100
AcDbEntity
  8
LC-006-012-----0
  6
STRICHPUNKT
 62
           2
100
AcDbLine
 10
204.46933
 20
-31.312078
 30
0.0
 11
177.453415
 21
-31.312078
 31
0.0
  0
LINE
  5
44
100
AcDbEntity
  8
LC-004-006-----0
  6
STRICHLINIE
 62
           2
100
AcDbLine
 10
200.455383
 20
97.68792
 30
0.0
 11
200.455383
 21
29.687923
 31
0.0
  0
LINE
  5
45
100
AcDbEntity
  8
LC-004-006-----0
  6
STRICHLINIE
 62
           2
100
AcDbLine
 10
247.455383
 20
97.68792
 30
0.0
 11
247.455383
 21
29.687923
 31
0.0
  0
LINE
  5
46
100
AcDbEntity
  8
LC-004-006-----0
  6
STRICHLINIE
 62
           2
100
AcDbLine
 10
200.455383
 20
13.687921
 30
0.0
 11
212.297684
 21
13.687921
 31
0.0
  0
LINE
  5
47
100
AcDbEntity
  8
LC-004-006-----0
  6
STRICHLINIE
 62
           2
100
AcDbLine
 10
200.455383
 20
29.687922
 30
0.0
 11
212.297684
 21
29.687922
 31
0.0
  0
LINE
  5
48
100
AcDbEntity
  8
LC-003-002-----0
  6
AUSGEZOGEN
 62
           1
100
AcDbLine
 10
208.955383
 20
117.016197
 30
0.0
 11
208.955383
 21
97.68792
 31
0.0
  0
LINE
  5
49
100
AcDbEntity
  8
LC-008-003-----0
  6
AUSGEZOGEN
 62
           2
100
AcDbLine
 10
208.955383
 20
-75.241882
 30
0.0
 11
214.954987
 21
-75.241882
 31
0.0
  0
LINE
  5
4A
100
AcDbEntity
  8
LC-008-003-----0
  6
AUSGEZOGEN
 62
           2
100
AcDbLine
 10
214.954987
 20
-75.241882
 30
0.0
 11
230.111969
 21
-77.741646
 31
0.0
  0
LINE
  5
4B
100
AcDbEntity
  8
LC-008-003-----0
  6
AUSGEZOGEN
 62
           2
100
AcDbLine
 10
230.111969
 20
-77.741646
 30
0.0
 11
238.955383
 21
-76.680923
 31
0.0
  0
LINE
  5
4C
100
AcDbEntity
  8
LC-008-003-----0
  6
AUSGEZOGEN
 62
           2
100
AcDbLine
 10
208.955383
 20
117.016197
 30
0.0
 11
215.428635
 21
115.454453
 31
0.0
  0
LINE
  5
4D
100
AcDbEntity
  8
LC-008-003-----0
  6
AUSGEZOGEN
 62
           2
100
AcDbLine
 10
215.428635
 20
115.454453
 30
0.0
 11
232.006607
 21
117.954208
 31
0.0
  0
LINE
  5
4E
100
AcDbEntity
  8
LC-008-003-----0
  6
AUSGEZOGEN
 62
           2
100
AcDbLine
 10
232.006607
 20
117.954208
 30
0.0
 11
238.955383
 21
117.463058
 31
0.0
  0
LINE
  5
4F
100
AcDbEntity
  8
LC-003-002-----0
  6
AUSGEZOGEN
 62
           1
100
AcDbLine
 10
208.955383
 20
-54.31208
 30
0.0
 11
208.955383
 21
-75.241882
 31
0.0
  0
LINE
  5
50
100
AcDbEntity
  8
LC-003-002-----0
  6
AUSGEZOGEN
 62
           1
100
AcDbLine
 10
238.955383
 20
-54.31208
 30
0.0
 11
238.955383
 21
-76.680923
 31
0.0
  0
LINE
  5
51
100
AcDbEntity
  8
LC-004-006-----0
  6
STRICHLINIE
 62
           2
100
AcDbLine
 10
208.955383
 20
97.68792
 30
0.0
 11
208.955383
 21
-54.31208
 31
0.0
  0
LINE
  5
52
100
AcDbEntity
  8
LC-003-002-----0
  6
AUSGEZOGEN
 62
           1
100
AcDbLine
 10
238.955383
 20
117.463058
 30
0.0
 11
238.955383
 21
97.68792
 31
0.0
  0
LINE
  5
53
100
AcDbEntity
  8
LC-004-006-----0
  6
STRICHLINIE
 62
           2
100
AcDbLine
 10
238.955383
 20
97.68792
 30
0.0
 11
238.955383
 21
-54.31208
 31
0.0
  0
LINE
  5
54
100
AcDbEntity
  8
LC-003-002-----0
  6
AUSGEZOGEN
 62
           1
100
AcDbLine
 10
318.827026
 20
188.32869
 30
0.0
 11
470.827026
 21
188.32869
 31
0.0
  0
LINE
  5
55
100
AcDbEntity
  8
LC-003-002-----0
  6
AUSGEZOGEN
 62
           1
100
AcDbLine
 10
470.827026
 20
188.32869
 30
0.0
 11
470.827026
 21
248.32869
 31
0.0
  0
LINE
  5
56
100
AcDbEntity
  8
LC-003-002-----0
  6
AUSGEZOGEN
 62
           1
100
AcDbLine
 10
318.827026
 20
248.32869
 30
0.0
 11
470.827026
 21
248.32869
 31
0.0
  0
LINE
  5
57
100
AcDbEntity
  8
LC-003-002-----0
  6
AUSGEZOGEN
 62
           1
100
AcDbLine
 10
318.827026
 20
188.32869
 30
0.0
 11
318.827026
 21
248.32869
 31
0.0
  0
LINE
  5
58
100
AcDbEntity
  8
LC-006-012-----0
  6
STRICHPUNKT
 62
           2
100
AcDbLine
 10
447.827026
 20
183.091736
 30
0.0
 11
447.827026
 21
254.214355
 31
0.0
  0
LINE
  5
59
100
AcDbEntity
  8
LC-006-012-----0
  6
STRICHPUNKT
 62
           2
100
AcDbLine
 10
341.827026
 20
183.091736
 30
0.0
 11
341.827026
 21
254.214355
 31
0.0
  0
LINE
  5
5A
100
AcDbEntity
  8
LC-004-006-----0
  6
STRICHLINIE
 62
           2
100
AcDbLine
 10
318.827026
 20
244.626923
 30
0.0
 11
386.827026
 21
244.626923
 31
0.0
  0
LINE
  5
5B
100
AcDbEntity
  8
LC-004-006-----0
  6
STRICHLINIE
 62
           2
100
AcDbLine
 10
318.827026
 20
199.82869
 30
0.0
 11
386.827026
 21
199.82869
 31
0.0
  0
LINE
  5
5C
100
AcDbEntity
  8
LC-004-006-----0
  6
STRICHLINIE
 62
           2
100
AcDbLine
 10
386.827026
 20
199.82869
 30
0.0
 11
386.827026
 21
244.626923
 31
0.0
  0
LINE
  5
5D
100
AcDbEntity
  8
LC-004-006-----0
  6
STRICHLINIE
 62
           2
100
AcDbLine
 10
402.827026
 20
199.82869
 30
0.0
 11
402.827026
 21
244.626923
 31
0.0
  0
LINE
  5
5E
100
AcDbEntity
  8
LC-006-012-----0
  6
STRICHPUNKT
 62
           2
100
AcDbLine
 10
295.06546
 20
223.32869
 30
0.0
 11
495.310944
 21
223.32869
 31
0.0
  0
LINE
  5
5F
100
AcDbEntity
  8
LC-003-002-----0
  6
AUSGEZOGEN
 62
           1
100
AcDbLine
 10
300.82666
 20
238.32869
 30
0.0
 11
318.827026
 21
238.32869
 31
0.0
  0
LINE
  5
60
100
AcDbEntity
  8
LC-008-003-----0
  6
AUSGEZOGEN
 62
           2
100
AcDbLine
 10
488.886383
 20
208.32869
 30
0.0
 11
488.278778
 21
216.269241
 31
0.0
  0
LINE
  5
61
100
AcDbEntity
  8
LC-008-003-----0
  6
AUSGEZOGEN
 62
           2
100
AcDbLine
 10
488.278778
 20
216.269241
 30
0.0
 11
489.679138
 21
228.938904
 31
0.0
  0
LINE
  5
62
100
AcDbEntity
  8
LC-008-003-----0
  6
AUSGEZOGEN
 62
           2
100
AcDbLine
 10
489.679138
 20
228.938904
 30
0.0
 11
488.176056
 21
238.32869
 31
0.0
  0
LINE
  5
63
100
AcDbEntity
  8
LC-008-003-----0
  6
AUSGEZOGEN
 62
           2
100
AcDbLine
 10
299.952087
 20
208.32869
 30
0.0
 11
300.947083
 21
214.579956
 31
0.0
  0
LINE
  5
64
100
AcDbEntity
  8
LC-008-003-----0
  6
AUSGEZOGEN
 62
           2
100
AcDbLine
 10
300.947083
 20
214.579956
 30
0.0
 11
300.106842
 21
230.839355
 31
0.0
  0
LINE
  5
65
100
AcDbEntity
  8
LC-008-003-----0
  6
AUSGEZOGEN
 62
           2
100
AcDbLine
 10
300.106842
 20
230.839355
 30
0.0
 11
300.82666
 21
238.32869
 31
0.0
  0
LINE
  5
66
100
AcDbEntity
  8
LC-004-006-----0
  6
STRICHLINIE
 62
           2
100
AcDbLine
 10
318.827026
 20
238.32869
 30
0.0
 11
470.827026
 21
238.32869
 31
0.0
  0
LINE
  5
67
100
AcDbEntity
  8
LC-003-002-----0
  6
AUSGEZOGEN
 62
           1
100
AcDbLine
 10
299.952087
 20
208.32869
 30
0.0
 11
318.827026
 21
208.32869
 31
0.0
  0
LINE
  5
68
100
AcDbEntity
  8
LC-004-006-----0
  6
STRICHLINIE
 62
           2
100
AcDbLine
 10
318.827026
 20
208.32869
 30
0.0
 11
470.827026
 21
208.32869
 31
0.0
  0
LINE
  5
69
100
AcDbEntity
  8
LC-003-002-----0
  6
AUSGEZOGEN
 62
           1
100
AcDbLine
 10
470.827026
 20
238.32869
 30
0.0
 11
488.176056
 21
238.32869
 31
0.0
  0
LINE
  5
6A
100
AcDbEntity
  8
LC-003-002-----0
  6
AUSGEZOGEN
 62
           1
100
AcDbLine
 10
470.827026
 20
208.32869
 30
0.0
 11
488.886383
 21
208.32869
 31
0.0
  0
LINE
  5
6B
100
AcDbEntity
  8
LC-003-002-----0
  6
AUSGEZOGEN
 62
           1
100
AcDbLine
 10
217.616104
 20
236.923294
 30
0.0
 11
214.023849
 21
244.626923
 31
0.0
  0
LINE
  5
6C
100
AcDbEntity
  8
LC-003-002-----0
  6
AUSGEZOGEN
 62
           1
100
AcDbLine
 10
235.613068
 20
248.32869
 30
0.0
 11
260.955383
 21
248.32869
 31
0.0
  0
LINE
  5
6D
100
AcDbEntity
  8
LC-003-002-----0
  6
AUSGEZOGEN
 62
           1
100
AcDbLine
 10
214.023849
 20
244.626923
 30
0.0
 11
212.297684
 21
248.32869
 31
0.0
  0
LINE
  5
6E
100
AcDbEntity
  8
LC-003-002-----0
  6
AUSGEZOGEN
 62
           1
100
AcDbLine
 10
233.886917
 20
244.626923
 30
0.0
 11
235.613068
 21
248.32869
 31
0.0
  0
LINE
  5
6F
100
AcDbEntity
  8
LC-003-002-----0
  6
AUSGEZOGEN
 62
           1
100
AcDbLine
 10
212.297684
 20
97.68792
 30
0.0
 11
212.297684
 21
-54.31208
 31
0.0
  0
LINE
  5
70
100
AcDbEntity
  8
LC-003-002-----0
  6
AUSGEZOGEN
 62
           1
100
AcDbLine
 10
235.613068
 20
97.68792
 30
0.0
 11
235.613068
 21
-54.31208
 31
0.0
  0
LINE
  5
71
100
AcDbEntity
  8
LC-003-002-----0
  6
AUSGEZOGEN
 62
           1
100
AcDbLine
 10
214.023849
 20
97.68792
 30
0.0
 11
214.023849
 21
29.687923
 31
0.0
  0
LINE
  5
72
100
AcDbEntity
  8
LC-003-002-----0
  6
AUSGEZOGEN
 62
           1
100
AcDbLine
 10
233.886917
 20
97.68792
 30
0.0
 11
233.886917
 21
29.687923
 31
0.0
  0
LINE
  5
73
100
AcDbEntity
  8
LC-003-002-----0
  6
AUSGEZOGEN
 62
           1
100
AcDbLine
 10
217.616104
 20
97.68792
 30
0.0
 11
217.616104
 21
29.687923
 31
0.0
  0
LINE
  5
74
100
AcDbEntity
  8
LC-003-002-----0
  6
AUSGEZOGEN
 62
           1
100
AcDbLine
 10
230.294662
 20
97.68792
 30
0.0
 11
230.294662
 21
29.687923
 31
0.0
  0
LINE
  5
75
100
AcDbEntity
  8
LC-003-002-----0
  6
AUSGEZOGEN
 62
           1
100
AcDbLine
 10
217.616104
 20
13.687921
 30
0.0
 11
217.616104
 21
-54.31208
 31
0.0
  0
LINE
  5
76
100
AcDbEntity
  8
LC-003-002-----0
  6
AUSGEZOGEN
 62
           1
100
AcDbLine
 10
214.023849
 20
13.687921
 30
0.0
 11
214.023849
 21
-54.31208
 31
0.0
  0
LINE
  5
77
100
AcDbEntity
  8
LC-003-002-----0
  6
AUSGEZOGEN
 62
           1
100
AcDbLine
 10
230.294662
 20
13.687921
 30
0.0
 11
230.294662
 21
-54.31208
 31
0.0
  0
LINE
  5
78
100
AcDbEntity
  8
LC-003-002-----0
  6
AUSGEZOGEN
 62
           1
100
AcDbLine
 10
233.886917
 20
13.687921
 30
0.0
 11
233.886917
 21
-54.31208
 31
0.0
  0
LINE
  5
79
100
AcDbEntity
  8
LC-003-002-----0
  6
AUSGEZOGEN
 62
           1
100
AcDbLine
 10
212.297684
 20
29.687922
 30
0.0
 11
217.616104
 21
29.687922
 31
0.0
  0
LINE
  5
7A
100
AcDbEntity
  8
LC-004-006-----0
  6
STRICHLINIE
 62
           2
100
AcDbLine
 10
217.616104
 20
29.687922
 30
0.0
 11
230.294662
 21
29.687922
 31
0.0
  0
LINE
  5
7B
100
AcDbEntity
  8
LC-003-002-----0
  6
AUSGEZOGEN
 62
           1
100
AcDbLine
 10
212.297684
 20
13.687921
 30
0.0
 11
217.616104
 21
13.687921
 31
0.0
  0
LINE
  5
7C
100
AcDbEntity
  8
LC-004-006-----0
  6
STRICHLINIE
 62
           2
100
AcDbLine
 10
217.616104
 20
13.687921
 30
0.0
 11
230.294662
 21
13.687921
 31
0.0
  0
LINE
  5
7D
100
AcDbEntity
  8
LC-003-002-----0
  6
AUSGEZOGEN
 62
           1
100
AcDbLine
 10
230.294662
 20
13.687921
 30
0.0
 11
235.613068
 21
13.687921
 31
0.0
  0
LINE
  5
7E
100
AcDbEntity
  8
LC-003-002-----0
  6
AUSGEZOGEN
 62
           1
100
AcDbLine
 10
186.955383
 20
97.68792
 30
0.0
 11
186.955383
 21
82.18792
 31
0.0
  0
LINE
  5
7F
100
AcDbEntity
  8
LC-003-002-----0
  6
AUSGEZOGEN
 62
           1
100
AcDbLine
 10
186.955383
 20
-38.81208
 30
0.0
 11
186.955383
 21
-54.31208
 31
0.0
  0
LINE
  5
80
100
AcDbEntity
  8
LC-003-002-----0
  6
AUSGEZOGEN
 62
           1
100
AcDbLine
 10
186.955383
 20
67.18792
 30
0.0
 11
186.955383
 21
-23.81208
 31
0.0
  0
LINE
  5
81
100
AcDbEntity
  8
LC-003-002-----0
  6
AUSGEZOGEN
 62
           1
100
AcDbLine
 10
260.955383
 20
97.68792
 30
0.0
 11
260.955383
 21
82.18792
 31
0.0
  0
LINE
  5
82
100
AcDbEntity
  8
LC-003-002-----0
  6
AUSGEZOGEN
 62
           1
100
AcDbLine
 10
260.955383
 20
67.18792
 30
0.0
 11
260.955383
 21
-23.81208
 31
0.0
  0
LINE
  5
83
100
AcDbEntity
  8
LC-003-002-----0
  6
AUSGEZOGEN
 62
           1
100
AcDbLine
 10
260.955383
 20
-38.81208
 30
0.0
 11
260.955383
 21
-54.31208
 31
0.0
  0
LINE
  5
84
100
AcDbEntity
  8
LC-004-006-----0
  6
STRICHLINIE
 62
           2
100
AcDbLine
 10
235.613068
 20
13.687921
 30
0.0
 11
247.455383
 21
13.687921
 31
0.0
  0
LINE
  5
85
100
AcDbEntity
  8
LC-003-002-----0
  6
AUSGEZOGEN
 62
           1
100
AcDbLine
 10
230.294662
 20
29.687922
 30
0.0
 11
235.613068
 21
29.687922
 31
0.0
  0
LINE
  5
86
100
AcDbEntity
  8
LC-004-006-----0
  6
STRICHLINIE
 62
           2
100
AcDbLine
 10
235.613068
 20
29.687922
 30
0.0
 11
247.455383
 21
29.687922
 31
0.0
  0
LINE
  5
87
100
AcDbEntity
  8
LC-004-006-----0
  6
STRICHLINIE
 62
           2
100
AcDbLine
 10
318.827026
 20
236.923294
 30
0.0
 11
386.827026
 21
236.923294
 31
0.0
  0
LINE
  5
88
100
AcDbEntity
  8
LC-004-006-----0
  6
STRICHLINIE
 62
           2
100
AcDbLine
 10
402.827026
 20
236.923294
 30
0.0
 11
470.827026
 21
236.923294
 31
0.0
  0
LINE
  5
89
100
AcDbEntity
  8
LC-004-006-----0
  6
STRICHLINIE
 62
           2
100
AcDbLine
 10
200.455383
 20
29.687922
 30
0.0
 11
200.455383
 21
13.68792
 31
0.0
  0
LINE
  5
8A
100
AcDbEntity
  8
LC-004-006-----0
  6
STRICHLINIE
 62
           2
100
AcDbLine
 10
200.455383
 20
13.687921
 30
0.0
 11
200.455383
 21
-54.31208
 31
0.0
  0
LINE
  5
8B
100
AcDbEntity
  8
LC-004-006-----0
  6
STRICHLINIE
 62
           2
100
AcDbLine
 10
247.455383
 20
29.687922
 30
0.0
 11
247.455383
 21
13.68792
 31
0.0
  0
LINE
  5
8C
100
AcDbEntity
  8
LC-004-006-----0
  6
STRICHLINIE
 62
           2
100
AcDbLine
 10
247.455383
 20
13.687921
 30
0.0
 11
247.455383
 21
-54.31208
 31
0.0
  0
LINE
  5
8D
100
AcDbEntity
  8
LC-004-006-----0
  6
STRICHLINIE
 62
           2
100
AcDbLine
 10
386.827026
 20
199.82869
 30
0.0
 11
402.827026
 21
199.82869
 31
0.0
  0
LINE
  5
8E
100
AcDbEntity
  8
LC-004-006-----0
  6
STRICHLINIE
 62
           2
100
AcDbLine
 10
402.827026
 20
199.82869
 30
0.0
 11
470.827026
 21
199.82869
 31
0.0
  0
LINE
  5
8F
100
AcDbEntity
  8
LC-004-006-----0
  6
STRICHLINIE
 62
           2
100
AcDbLine
 10
402.827026
 20
244.626923
 30
0.0
 11
470.827026
 21
244.626923
 31
0.0
  0
LINE
  5
90
100
AcDbEntity
  8
LC-004-006-----0
  6
STRICHLINIE
 62
           2
100
AcDbLine
 10
254.755386
 20
227.82869
 30
0.0
 11
266.955383
 21
227.82869
 31
0.0
  0
LINE
  5
91
100
AcDbEntity
  8
LC-004-006-----0
  6
STRICHLINIE
 62
           2
100
AcDbLine
 10
254.255386
 20
223.32869
 30
0.0
 11
248.755386
 21
223.32869
 31
0.0
  0
LINE
  5
92
100
AcDbEntity
  8
LC-004-006-----0
  6
STRICHLINIE
 62
           2
100
AcDbLine
 10
254.255386
 20
219.32869
 30
0.0
 11
248.755386
 21
219.32869
 31
0.0
  0
LINE
  5
93
100
AcDbEntity
  8
LC-004-006-----0
  6
STRICHLINIE
 62
           2
100
AcDbLine
 10
249.005386
 20
223.82869
 30
0.0
 11
254.255386
 21
223.82869
 31
0.0
  0
LINE
  5
94
100
AcDbEntity
  8
LC-004-006-----0
  6
STRICHLINIE
 62
           2
100
AcDbLine
 10
254.255386
 20
218.82869
 30
0.0
 11
249.005386
 21
218.82869
 31
0.0
  0
LINE
  5
95
100
AcDbEntity
  8
LC-004-006-----0
  6
STRICHLINIE
 62
           2
100
AcDbLine
 10
256.755371
 20
218.778687
 30
0.0
 11
256.755371
 21
223.878677
 31
0.0
  0
LINE
  5
96
100
AcDbEntity
  8
LC-004-006-----0
  6
STRICHLINIE
 62
           2
100
AcDbLine
 10
245.65538
 20
219.82869
 30
0.0
 11
245.65538
 21
222.82869
 31
0.0
  0
LINE
  5
97
100
AcDbEntity
  8
LC-004-006-----0
  6
STRICHLINIE
 62
           2
100
AcDbLine
 10
248.755386
 20
223.57869
 30
0.0
 11
249.005386
 21
223.82869
 31
0.0
  0
LINE
  5
98
100
AcDbEntity
  8
LC-004-006-----0
  6
STRICHLINIE
 62
           2
100
AcDbLine
 10
249.005386
 20
218.82869
 30
0.0
 11
248.755386
 21
219.07869
 31
0.0
  0
LINE
  5
99
100
AcDbEntity
  8
LC-004-006-----0
  6
STRICHLINIE
 62
           2
100
AcDbLine
 10
249.005386
 20
218.82869
 30
0.0
 11
249.005386
 21
223.82869
 31
0.0
  0
LINE
  5
9A
100
AcDbEntity
  8
LC-004-006-----0
  6
STRICHLINIE
 62
           2
100
AcDbLine
 10
254.755386
 20
214.82869
 30
0.0
 11
254.755386
 21
227.82869
 31
0.0
  0
LINE
  5
9B
100
AcDbEntity
  8
LC-004-006-----0
  6
STRICHLINIE
 62
           2
100
AcDbLine
 10
256.608459
 20
224.628677
 30
0.0
 11
254.755386
 21
224.628677
 31
0.0
  0
LINE
  5
9C
100
AcDbEntity
  8
LC-004-006-----0
  6
STRICHLINIE
 62
           2
100
AcDbLine
 10
256.608459
 20
218.028687
 30
0.0
 11
254.755386
 21
218.028687
 31
0.0
  0
LINE
  5
9D
100
AcDbEntity
  8
LC-004-006-----0
  6
STRICHLINIE
 62
           2
100
AcDbLine
 10
256.608459
 20
223.128677
 30
0.0
 11
254.755386
 21
223.128677
 31
0.0
  0
LINE
  5
9E
100
AcDbEntity
  8
LC-004-006-----0
  6
STRICHLINIE
 62
           2
100
AcDbLine
 10
256.608459
 20
219.528687
 30
0.0
 11
254.755386
 21
219.528687
 31
0.0
  0
LINE
  5
9F
100
AcDbEntity
  8
LC-004-006-----0
  6
STRICHLINIE
 62
           2
100
AcDbLine
 10
248.755386
 20
219.07869
 30
0.0
 11
248.755386
 21
223.57869
 31
0.0
  0
ARC
  5
A0
100
AcDbEntity
  8
LC-004-006-----0
  6
STRICHLINIE
 62
           2
100
AcDbCircle
 10
245.65538
 20
221.32869
 30
0.0
 40
11.1
100
AcDbArc
 50
350.667582
 51
9.332418
  0
ARC
  5
A1
100
AcDbEntity
  8
LC-004-006-----0
  6
STRICHLINIE
 62
           2
100
AcDbCircle
 10
254.755386
 20
218.778687
 30
0.0
 40
1.999103
100
AcDbArc
 50
337.965286
 51
22.034714
  0
LINE
  5
A2
100
AcDbEntity
  8
LC-004-006-----0
  6
STRICHLINIE
 62
           2
100
AcDbLine
 10
248.755386
 20
223.07869
 30
0.0
 11
245.90538
 21
223.07869
 31
0.0
  0
ARC
  5
A3
100
AcDbEntity
  8
LC-004-006-----0
  6
STRICHLINIE
 62
           2
100
AcDbCircle
 10
254.755386
 20
223.878677
 30
0.0
 40
1.999103
100
AcDbArc
 50
337.965286
 51
22.034714
  0
LINE
  5
A4
100
AcDbEntity
  8
LC-004-006-----0
  6
STRICHLINIE
 62
           2
100
AcDbLine
 10
254.255386
 20
218.82869
 30
0.0
 11
254.255386
 21
223.82869
 31
0.0
  0
LINE
  5
A5
100
AcDbEntity
  8
LC-004-006-----0
  6
STRICHLINIE
 62
           2
100
AcDbLine
 10
254.755386
 20
223.528687
 30
0.0
 11
254.255386
 21
223.528687
 31
0.0
  0
LINE
  5
A6
100
AcDbEntity
  8
LC-004-006-----0
  6
STRICHLINIE
 62
           2
100
AcDbLine
 10
254.755386
 20
219.128677
 30
0.0
 11
254.255386
 21
219.128677
 31
0.0
  0
LINE
  5
A7
100
AcDbEntity
  8
LC-004-006-----0
  6
STRICHLINIE
 62
           2
100
AcDbLine
 10
248.755386
 20
219.57869
 30
0.0
 11
245.90538
 21
219.57869
 31
0.0
  0
ARC
  5
A8
100
AcDbEntity
  8
LC-004-006-----0
  6
STRICHLINIE
 62
           2
100
AcDbCircle
 10
245.90538
 20
222.82869
 30
0.0
 40
0.25
100
AcDbArc
 50
90.000002999997
 51
180.000008999999
  0
ARC
  5
A9
100
AcDbEntity
  8
LC-004-006-----0
  6
STRICHLINIE
 62
           2
100
AcDbCircle
 10
245.90538
 20
219.82869
 30
0.0
 40
0.25
100
AcDbArc
 50
180.000008999999
 51
269.999997000002
  0
LINE
  5
AA
100
AcDbEntity
  8
LC-004-006-----0
  6
STRICHLINIE
 62
           2
100
AcDbLine
 10
254.755386
 20
214.82869
 30
0.0
 11
266.955383
 21
214.82869
 31
0.0
  0
LINE
  5
AB
100
AcDbEntity
  8
LC-006-012-----0
  6
STRICHPUNKT
 62
           2
100
AcDbLine
 10
244.288422
 20
221.32869
 30
0.0
 11
269.602478
 21
221.32869
 31
0.0
  0
CIRCLE
  5
AC
100
AcDbEntity
  8
LC-004-006-----0
  6
STRICHLINIE
 62
           2
100
AcDbCircle
 10
436.827026
 20
221.32869
 30
0.0
 40
6.5
  0
CIRCLE
  5
AD
100
AcDbEntity
  8
LC-003-002-----0
  6
AUSGEZOGEN
 62
           1
100
AcDbCircle
 10
352.827026
 20
221.32869
 30
0.0
 40
6.5
  0
LINE
  5
AE
100
AcDbEntity
  8
LC-003-002-----0
  6
AUSGEZOGEN
 62
           1
100
AcDbLine
 10
349.96701
 20
222.979904
 30
0.0
 11
352.827026
 21
224.631134
 31
0.0
  0
LINE
  5
AF
100
AcDbEntity
  8
LC-003-002-----0
  6
AUSGEZOGEN
 62
           1
100
AcDbLine
 10
352.827026
 20
218.026245
 30
0.0
 11
355.687012
 21
219.67746
 31
0.0
  0
LINE
  5
B0
100
AcDbEntity
  8
LC-003-002-----0
  6
AUSGEZOGEN
 62
           1
100
AcDbLine
 10
349.96701
 20
219.67746
 30
0.0
 11
349.96701
 21
222.979904
 31
0.0
  0
LINE
  5
B1
100
AcDbEntity
  8
LC-003-002-----0
  6
AUSGEZOGEN
 62
           1
100
AcDbLine
 10
355.687012
 20
219.67746
 30
0.0
 11
355.687012
 21
222.979904
 31
0.0
  0
LINE
  5
B2
100
AcDbEntity
  8
LC-003-002-----0
  6
AUSGEZOGEN
 62
           1
100
AcDbLine
 10
352.827026
 20
218.026245
 30
0.0
 11
349.96701
 21
219.67746
 31
0.0
  0
LINE
  5
B3
100
AcDbEntity
  8
LC-003-002-----0
  6
AUSGEZOGEN
 62
           1
100
AcDbLine
 10
355.687012
 20
222.979904
 30
0.0
 11
352.827026
 21
224.631134
 31
0.0
  0
CIRCLE
  5
B4
100
AcDbEntity
  8
LC-003-002-----0
  6
AUSGEZOGEN
 62
           1
100
AcDbCircle
 10
352.827026
 20
221.32869
 30
0.0
 40
2.86
  0
LINE
  5
B5
100
AcDbEntity
  8
LC-006-012-----0
  6
STRICHPUNKT
 62
           2
100
AcDbLine
 10
344.41925
 20
221.32869
 30
0.0
 11
361.67627
 21
221.32869
 31
0.0
  0
LINE
  5
B6
100
AcDbEntity
  8
LC-004-006-----0
  6
STRICHLINIE
 62
           2
100
AcDbLine
 10
193.15538
 20
70.18792
 30
0.0
 11
180.955383
 21
70.18792
 31
0.0
  0
LINE
  5
B7
100
AcDbEntity
  8
LC-006-012-----0
  6
STRICHPUNKT
 62
           2
100
AcDbLine
 10
352.827026
 20
232.577377
 30
0.0
 11
352.827026
 21
210.576859
 31
0.0
  0
LINE
  5
B8
100
AcDbEntity
  8
LC-004-006-----0
  6
STRICHLINIE
 62
           2
100
AcDbLine
 10
254.755386
 20
-13.812079
 30
0.0
 11
266.955383
 21
-13.812079
 31
0.0
  0
LINE
  5
B9
100
AcDbEntity
  8
LC-004-006-----0
  6
STRICHLINIE
 62
           2
100
AcDbLine
 10
254.255386
 20
-18.312078
 30
0.0
 11
248.755386
 21
-18.312078
 31
0.0
  0
LINE
  5
BA
100
AcDbEntity
  8
LC-004-006-----0
  6
STRICHLINIE
 62
           2
100
AcDbLine
 10
254.255386
 20
-22.312078
 30
0.0
 11
248.755386
 21
-22.312078
 31
0.0
  0
LINE
  5
BB
100
AcDbEntity
  8
LC-004-006-----0
  6
STRICHLINIE
 62
           2
100
AcDbLine
 10
249.005386
 20
-17.812078
 30
0.0
 11
254.255386
 21
-17.812078
 31
0.0
  0
LINE
  5
BC
100
AcDbEntity
  8
LC-004-006-----0
  6
STRICHLINIE
 62
           2
100
AcDbLine
 10
254.255386
 20
-22.812078
 30
0.0
 11
249.005386
 21
-22.812078
 31
0.0
  0
LINE
  5
BD
100
AcDbEntity
  8
LC-004-006-----0
  6
STRICHLINIE
 62
           2
100
AcDbLine
 10
256.755371
 20
-22.86208
 30
0.0
 11
256.755371
 21
-17.762079
 31
0.0
  0
LINE
  5
BE
100
AcDbEntity
  8
LC-004-006-----0
  6
STRICHLINIE
 62
           2
100
AcDbLine
 10
245.65538
 20
-21.812078
 30
0.0
 11
245.65538
 21
-18.812078
 31
0.0
  0
LINE
  5
BF
100
AcDbEntity
  8
LC-004-006-----0
  6
STRICHLINIE
 62
           2
100
AcDbLine
 10
248.755386
 20
-18.062078
 30
0.0
 11
249.005386
 21
-17.812078
 31
0.0
  0
LINE
  5
C0
100
AcDbEntity
  8
LC-004-006-----0
  6
STRICHLINIE
 62
           2
100
AcDbLine
 10
249.005386
 20
-22.812078
 30
0.0
 11
248.755386
 21
-22.562078
 31
0.0
  0
LINE
  5
C1
100
AcDbEntity
  8
LC-004-006-----0
  6
STRICHLINIE
 62
           2
100
AcDbLine
 10
249.005386
 20
-22.812078
 30
0.0
 11
249.005386
 21
-17.812078
 31
0.0
  0
LINE
  5
C2
100
AcDbEntity
  8
LC-004-006-----0
  6
STRICHLINIE
 62
           2
100
AcDbLine
 10
254.755386
 20
-26.812078
 30
0.0
 11
254.755386
 21
-13.81208
 31
0.0
  0
LINE
  5
C3
100
AcDbEntity
  8
LC-004-006-----0
  6
STRICHLINIE
 62
           2
100
AcDbLine
 10
256.608459
 20
-17.012079
 30
0.0
 11
254.755386
 21
-17.012079
 31
0.0
  0
LINE
  5
C4
100
AcDbEntity
  8
LC-004-006-----0
  6
STRICHLINIE
 62
           2
100
AcDbLine
 10
256.608459
 20
-23.61208
 30
0.0
 11
254.755386
 21
-23.61208
 31
0.0
  0
LINE
  5
C5
100
AcDbEntity
  8
LC-004-006-----0
  6
STRICHLINIE
 62
           2
100
AcDbLine
 10
256.608459
 20
-18.512079
 30
0.0
 11
254.755386
 21
-18.512079
 31
0.0
  0
LINE
  5
C6
100
AcDbEntity
  8
LC-004-006-----0
  6
STRICHLINIE
 62
           2
100
AcDbLine
 10
256.608459
 20
-22.11208
 30
0.0
 11
254.755386
 21
-22.11208
 31
0.0
  0
LINE
  5
C7
100
AcDbEntity
  8
LC-004-006-----0
  6
STRICHLINIE
 62
           2
100
AcDbLine
 10
248.755386
 20
-22.562078
 30
0.0
 11
248.755386
 21
-18.062078
 31
0.0
  0
ARC
  5
C8
100
AcDbEntity
  8
LC-004-006-----0
  6
STRICHLINIE
 62
           2
100
AcDbCircle
 10
245.65538
 20
-20.312078
 30
0.0
 40
11.1
100
AcDbArc
 50
350.667582
 51
9.332418
  0
ARC
  5
C9
100
AcDbEntity
  8
LC-004-006-----0
  6
STRICHLINIE
 62
           2
100
AcDbCircle
 10
254.755386
 20
-22.86208
 30
0.0
 40
1.999103
100
AcDbArc
 50
337.965286
 51
22.034714
  0
LINE
  5
CA
100
AcDbEntity
  8
LC-004-006-----0
  6
STRICHLINIE
 62
           2
100
AcDbLine
 10
248.755386
 20
-18.562078
 30
0.0
 11
245.90538
 21
-18.562078
 31
0.0
  0
ARC
  5
CB
100
AcDbEntity
  8
LC-004-006-----0
  6
STRICHLINIE
 62
           2
100
AcDbCircle
 10
254.755386
 20
-17.762079
 30
0.0
 40
1.999103
100
AcDbArc
 50
337.965286
 51
22.034714
  0
LINE
  5
CC
100
AcDbEntity
  8
LC-004-006-----0
  6
STRICHLINIE
 62
           2
100
AcDbLine
 10
254.255386
 20
-22.812078
 30
0.0
 11
254.255386
 21
-17.812078
 31
0.0
  0
LINE
  5
CD
100
AcDbEntity
  8
LC-004-006-----0
  6
STRICHLINIE
 62
           2
100
AcDbLine
 10
254.755386
 20
-18.11208
 30
0.0
 11
254.255386
 21
-18.11208
 31
0.0
  0
LINE
  5
CE
100
AcDbEntity
  8
LC-004-006-----0
  6
STRICHLINIE
 62
           2
100
AcDbLine
 10
254.755386
 20
-22.512079
 30
0.0
 11
254.255386
 21
-22.512079
 31
0.0
  0
LINE
  5
CF
100
AcDbEntity
  8
LC-004-006-----0
  6
STRICHLINIE
 62
           2
100
AcDbLine
 10
248.755386
 20
-22.062078
 30
0.0
 11
245.90538
 21
-22.062078
 31
0.0
  0
ARC
  5
D0
100
AcDbEntity
  8
LC-004-006-----0
  6
STRICHLINIE
 62
           2
100
AcDbCircle
 10
245.90538
 20
-18.812078
 30
0.0
 40
0.25
100
AcDbArc
 50
90.000002999997
 51
180.000009
  0
ARC
  5
D1
100
AcDbEntity
  8
LC-004-006-----0
  6
STRICHLINIE
 62
           2
100
AcDbCircle
 10
245.90538
 20
-21.812078
 30
0.0
 40
0.25
100
AcDbArc
 50
180.000009
 51
269.999997000002
  0
LINE
  5
D2
100
AcDbEntity
  8
LC-004-006-----0
  6
STRICHLINIE
 62
           2
100
AcDbLine
 10
254.755386
 20
-26.812078
 30
0.0
 11
266.955383
 21
-26.812078
 31
0.0
  0
LINE
  5
D3
100
AcDbEntity
  8
LC-006-012-----0
  6
STRICHPUNKT
 62
           2
100
AcDbLine
 10
242.843369
 20
-20.312078
 30
0.0
 11
271.212006
 21
-20.312078
 31
0.0
  0
LINE
  5
D4
100
AcDbEntity
  8
LC-004-006-----0
  6
STRICHLINIE
 62
           2
100
AcDbLine
 10
193.15538
 20
227.82869
 30
0.0
 11
180.955383
 21
227.82869
 31
0.0
  0
LINE
  5
D5
100
AcDbEntity
  8
LC-004-006-----0
  6
STRICHLINIE
 62
           2
100
AcDbLine
 10
193.65538
 20
223.32869
 30
0.0
 11
199.15538
 21
223.32869
 31
0.0
  0
LINE
  5
D6
100
AcDbEntity
  8
LC-004-006-----0
  6
STRICHLINIE
 62
           2
100
AcDbLine
 10
193.65538
 20
219.32869
 30
0.0
 11
199.15538
 21
219.32869
 31
0.0
  0
LINE
  5
D7
100
AcDbEntity
  8
LC-004-006-----0
  6
STRICHLINIE
 62
           2
100
AcDbLine
 10
198.90538
 20
223.82869
 30
0.0
 11
193.65538
 21
223.82869
 31
0.0
  0
LINE
  5
D8
100
AcDbEntity
  8
LC-004-006-----0
  6
STRICHLINIE
 62
           2
100
AcDbLine
 10
193.65538
 20
218.82869
 30
0.0
 11
198.90538
 21
218.82869
 31
0.0
  0
LINE
  5
D9
100
AcDbEntity
  8
LC-004-006-----0
  6
STRICHLINIE
 62
           2
100
AcDbLine
 10
191.15538
 20
218.778687
 30
0.0
 11
191.15538
 21
223.878677
 31
0.0
  0
LINE
  5
DA
100
AcDbEntity
  8
LC-004-006-----0
  6
STRICHLINIE
 62
           2
100
AcDbLine
 10
202.255386
 20
219.82869
 30
0.0
 11
202.255386
 21
222.82869
 31
0.0
  0
LINE
  5
DB
100
AcDbEntity
  8
LC-004-006-----0
  6
STRICHLINIE
 62
           2
100
AcDbLine
 10
199.15538
 20
223.57869
 30
0.0
 11
198.90538
 21
223.82869
 31
0.0
  0
LINE
  5
DC
100
AcDbEntity
  8
LC-004-006-----0
  6
STRICHLINIE
 62
           2
100
AcDbLine
 10
198.90538
 20
218.82869
 30
0.0
 11
199.15538
 21
219.07869
 31
0.0
  0
LINE
  5
DD
100
AcDbEntity
  8
LC-004-006-----0
  6
STRICHLINIE
 62
           2
100
AcDbLine
 10
198.90538
 20
218.82869
 30
0.0
 11
198.90538
 21
223.82869
 31
0.0
  0
LINE
  5
DE
100
AcDbEntity
  8
LC-004-006-----0
  6
STRICHLINIE
 62
           2
100
AcDbLine
 10
193.15538
 20
214.82869
 30
0.0
 11
193.15538
 21
227.82869
 31
0.0
  0
LINE
  5
DF
100
AcDbEntity
  8
LC-004-006-----0
  6
STRICHLINIE
 62
           2
100
AcDbLine
 10
191.302307
 20
224.628677
 30
0.0
 11
193.15538
 21
224.628677
 31
0.0
  0
LINE
  5
E0
100
AcDbEntity
  8
LC-004-006-----0
  6
STRICHLINIE
 62
           2
100
AcDbLine
 10
191.302307
 20
218.028687
 30
0.0
 11
193.15538
 21
218.028687
 31
0.0
  0
LINE
  5
E1
100
AcDbEntity
  8
LC-004-006-----0
  6
STRICHLINIE
 62
           2
100
AcDbLine
 10
191.302307
 20
223.128677
 30
0.0
 11
193.15538
 21
223.128677
 31
0.0
  0
LINE
  5
E2
100
AcDbEntity
  8
LC-004-006-----0
  6
STRICHLINIE
 62
           2
100
AcDbLine
 10
191.302307
 20
219.528687
 30
0.0
 11
193.15538
 21
219.528687
 31
0.0
  0
LINE
  5
E3
100
AcDbEntity
  8
LC-004-006-----0
  6
STRICHLINIE
 62
           2
100
AcDbLine
 10
199.15538
 20
219.07869
 30
0.0
 11
199.15538
 21
223.57869
 31
0.0
  0
ARC
  5
E4
100
AcDbEntity
  8
LC-004-006-----0
  6
STRICHLINIE
 62
           2
100
AcDbCircle
 10
202.255386
 20
221.32869
 30
0.0
 40
11.1
100
AcDbArc
 50
170.667576
 51
189.332424
  0
ARC
  5
E5
100
AcDbEntity
  8
LC-004-006-----0
  6
STRICHLINIE
 62
           2
100
AcDbCircle
 10
193.15538
 20
218.778687
 30
0.0
 40
1.999103
100
AcDbArc
 50
157.965282
 51
202.034718
  0
LINE
  5
E6
100
AcDbEntity
  8
LC-004-006-----0
  6
STRICHLINIE
 62
           2
100
AcDbLine
 10
199.15538
 20
223.07869
 30
0.0
 11
202.005386
 21
223.07869
 31
0.0
  0
ARC
  5
E7
100
AcDbEntity
  8
LC-004-006-----0
  6
STRICHLINIE
 62
           2
100
AcDbCircle
 10
193.15538
 20
223.878677
 30
0.0
 40
1.999103
100
AcDbArc
 50
157.965282
 51
202.034718
  0
LINE
  5
E8
100
AcDbEntity
  8
LC-004-006-----0
  6
STRICHLINIE
 62
           2
100
AcDbLine
 10
193.65538
 20
218.82869
 30
0.0
 11
193.65538
 21
223.82869
 31
0.0
  0
LINE
  5
E9
100
AcDbEntity
  8
LC-004-006-----0
  6
STRICHLINIE
 62
           2
100
AcDbLine
 10
193.15538
 20
223.528687
 30
0.0
 11
193.65538
 21
223.528687
 31
0.0
  0
LINE
  5
EA
100
AcDbEntity
  8
LC-004-006-----0
  6
STRICHLINIE
 62
           2
100
AcDbLine
 10
193.15538
 20
219.128677
 30
0.0
 11
193.65538
 21
219.128677
 31
0.0
  0
LINE
  5
EB
100
AcDbEntity
  8
LC-004-006-----0
  6
STRICHLINIE
 62
           2
100
AcDbLine
 10
199.15538
 20
219.57869
 30
0.0
 11
202.005386
 21
219.57869
 31
0.0
  0
ARC
  5
EC
100
AcDbEntity
  8
LC-004-006-----0
  6
STRICHLINIE
 62
           2
100
AcDbCircle
 10
202.005386
 20
222.82869
 30
0.0
 40
0.25
100
AcDbArc
 50
0.0
 51
90.000002999997
  0
ARC
  5
ED
100
AcDbEntity
  8
LC-004-006-----0
  6
STRICHLINIE
 62
           2
100
AcDbCircle
 10
202.005386
 20
219.82869
 30
0.0
 40
0.25
100
AcDbArc
 50
269.999997000002
 51
0.0
  0
LINE
  5
EE
100
AcDbEntity
  8
LC-004-006-----0
  6
STRICHLINIE
 62
           2
100
AcDbLine
 10
193.15538
 20
214.82869
 30
0.0
 11
180.955383
 21
214.82869
 31
0.0
  0
LINE
  5
EF
100
AcDbEntity
  8
LC-006-012-----0
  6
STRICHPUNKT
 62
           2
100
AcDbLine
 10
203.622345
 20
221.32869
 30
0.0
 11
178.308304
 21
221.32869
 31
0.0
  0
LINE
  5
F0
100
AcDbEntity
  8
LC-004-006-----0
  6
STRICHLINIE
 62
           2
100
AcDbLine
 10
433.96701
 20
222.979904
 30
0.0
 11
436.827026
 21
224.631134
 31
0.0
  0
LINE
  5
F1
100
AcDbEntity
  8
LC-004-006-----0
  6
STRICHLINIE
 62
           2
100
AcDbLine
 10
436.827026
 20
218.026245
 30
0.0
 11
439.687012
 21
219.67746
 31
0.0
  0
LINE
  5
F2
100
AcDbEntity
  8
LC-004-006-----0
  6
STRICHLINIE
 62
           2
100
AcDbLine
 10
433.96701
 20
219.67746
 30
0.0
 11
433.96701
 21
222.979904
 31
0.0
  0
LINE
  5
F3
100
AcDbEntity
  8
LC-004-006-----0
  6
STRICHLINIE
 62
           2
100
AcDbLine
 10
439.687012
 20
219.67746
 30
0.0
 11
439.687012
 21
222.979904
 31
0.0
  0
LINE
  5
F4
100
AcDbEntity
  8
LC-004-006-----0
  6
STRICHLINIE
 62
           2
100
AcDbLine
 10
436.827026
 20
218.026245
 30
0.0
 11
433.96701
 21
219.67746
 31
0.0
  0
LINE
  5
F5
100
AcDbEntity
  8
LC-004-006-----0
  6
STRICHLINIE
 62
           2
100
AcDbLine
 10
439.687012
 20
222.979904
 30
0.0
 11
436.827026
 21
224.631134
 31
0.0
  0
CIRCLE
  5
F6
100
AcDbEntity
  8
LC-004-006-----0
  6
STRICHLINIE
 62
           2
100
AcDbCircle
 10
436.827026
 20
221.32869
 30
0.0
 40
2.86
  0
LINE
  5
F7
100
AcDbEntity
  8
LC-006-012-----0
  6
STRICHPUNKT
 62
           2
100
AcDbLine
 10
428.41925
 20
221.32869
 30
0.0
 11
445.67627
 21
221.32869
 31
0.0
  0
LINE
  5
F8
100
AcDbEntity
  8
LC-006-012-----0
  6
STRICHPUNKT
 62
           2
100
AcDbLine
 10
436.827026
 20
232.577377
 30
0.0
 11
436.827026
 21
210.576859
 31
0.0
  0
LINE
  5
F9
100
AcDbEntity
  8
LC-004-006-----0
  6
STRICHLINIE
 62
           2
100
AcDbLine
 10
193.65538
 20
65.68792
 30
0.0
 11
199.15538
 21
65.68792
 31
0.0
  0
LINE
  5
FA
100
AcDbEntity
  8
LC-004-006-----0
  6
STRICHLINIE
 62
           2
100
AcDbLine
 10
193.65538
 20
61.68792
 30
0.0
 11
199.15538
 21
61.68792
 31
0.0
  0
LINE
  5
FB
100
AcDbEntity
  8
LC-004-006-----0
  6
STRICHLINIE
 62
           2
100
AcDbLine
 10
198.90538
 20
66.18792
 30
0.0
 11
193.65538
 21
66.18792
 31
0.0
  0
LINE
  5
FC
100
AcDbEntity
  8
LC-004-006-----0
  6
STRICHLINIE
 62
           2
100
AcDbLine
 10
193.65538
 20
61.18792
 30
0.0
 11
198.90538
 21
61.18792
 31
0.0
  0
LINE
  5
FD
100
AcDbEntity
  8
LC-004-006-----0
  6
STRICHLINIE
 62
           2
100
AcDbLine
 10
191.15538
 20
61.13792
 30
0.0
 11
191.15538
 21
66.237923
 31
0.0
  0
LINE
  5
FE
100
AcDbEntity
  8
LC-004-006-----0
  6
STRICHLINIE
 62
           2
100
AcDbLine
 10
202.255386
 20
62.18792
 30
0.0
 11
202.255386
 21
65.18792
 31
0.0
  0
LINE
  5
FF
100
AcDbEntity
  8
LC-004-006-----0
  6
STRICHLINIE
 62
           2
100
AcDbLine
 10
199.15538
 20
65.93792
 30
0.0
 11
198.90538
 21
66.18792
 31
0.0
  0
LINE
  5
100
100
AcDbEntity
  8
LC-004-006-----0
  6
STRICHLINIE
 62
           2
100
AcDbLine
 10
198.90538
 20
61.18792
 30
0.0
 11
199.15538
 21
61.43792
 31
0.0
  0
LINE
  5
101
100
AcDbEntity
  8
LC-004-006-----0
  6
STRICHLINIE
 62
           2
100
AcDbLine
 10
198.90538
 20
61.18792
 30
0.0
 11
198.90538
 21
66.18792
 31
0.0
  0
LINE
  5
102
100
AcDbEntity
  8
LC-004-006-----0
  6
STRICHLINIE
 62
           2
100
AcDbLine
 10
193.15538
 20
57.18792
 30
0.0
 11
193.15538
 21
70.18792
 31
0.0
  0
LINE
  5
103
100
AcDbEntity
  8
LC-004-006-----0
  6
STRICHLINIE
 62
           2
100
AcDbLine
 10
191.302307
 20
66.987923
 30
0.0
 11
193.15538
 21
66.987923
 31
0.0
  0
LINE
  5
104
100
AcDbEntity
  8
LC-004-006-----0
  6
STRICHLINIE
 62
           2
100
AcDbLine
 10
191.302307
 20
60.38792
 30
0.0
 11
193.15538
 21
60.38792
 31
0.0
  0
LINE
  5
105
100
AcDbEntity
  8
LC-004-006-----0
  6
STRICHLINIE
 62
           2
100
AcDbLine
 10
191.302307
 20
65.487923
 30
0.0
 11
193.15538
 21
65.487923
 31
0.0
  0
LINE
  5
106
100
AcDbEntity
  8
LC-004-006-----0
  6
STRICHLINIE
 62
           2
100
AcDbLine
 10
191.302307
 20
61.88792
 30
0.0
 11
193.15538
 21
61.88792
 31
0.0
  0
LINE
  5
107
100
AcDbEntity
  8
LC-004-006-----0
  6
STRICHLINIE
 62
           2
100
AcDbLine
 10
199.15538
 20
61.43792
 30
0.0
 11
199.15538
 21
65.93792
 31
0.0
  0
ARC
  5
108
100
AcDbEntity
  8
LC-004-006-----0
  6
STRICHLINIE
 62
           2
100
AcDbCircle
 10
202.255386
 20
63.68792
 30
0.0
 40
11.1
100
AcDbArc
 50
170.667576
 51
189.332424
  0
ARC
  5
109
100
AcDbEntity
  8
LC-004-006-----0
  6
STRICHLINIE
 62
           2
100
AcDbCircle
 10
193.15538
 20
61.13792
 30
0.0
 40
1.999103
100
AcDbArc
 50
157.965282
 51
202.034718
  0
LINE
  5
10A
100
AcDbEntity
  8
LC-004-006-----0
  6
STRICHLINIE
 62
           2
100
AcDbLine
 10
199.15538
 20
65.43792
 30
0.0
 11
202.005386
 21
65.43792
 31
0.0
  0
ARC
  5
10B
100
AcDbEntity
  8
LC-004-006-----0
  6
STRICHLINIE
 62
           2
100
AcDbCircle
 10
193.15538
 20
66.237923
 30
0.0
 40
1.999103
100
AcDbArc
 50
157.965282
 51
202.034718
  0
LINE
  5
10C
100
AcDbEntity
  8
LC-004-006-----0
  6
STRICHLINIE
 62
           2
100
AcDbLine
 10
193.65538
 20
61.18792
 30
0.0
 11
193.65538
 21
66.18792
 31
0.0
  0
LINE
  5
10D
100
AcDbEntity
  8
LC-004-006-----0
  6
STRICHLINIE
 62
           2
100
AcDbLine
 10
193.15538
 20
65.887924
 30
0.0
 11
193.65538
 21
65.887924
 31
0.0
  0
LINE
  5
10E
100
AcDbEntity
  8
LC-004-006-----0
  6
STRICHLINIE
 62
           2
100
AcDbLine
 10
193.15538
 20
61.487923
 30
0.0
 11
193.65538
 21
61.487923
 31
0.0
  0
LINE
  5
10F
100
AcDbEntity
  8
LC-004-006-----0
  6
STRICHLINIE
 62
           2
100
AcDbLine
 10
199.15538
 20
61.93792
 30
0.0
 11
202.005386
 21
61.93792
 31
0.0
  0
ARC
  5
110
100
AcDbEntity
  8
LC-004-006-----0
  6
STRICHLINIE
 62
           2
100
AcDbCircle
 10
202.005386
 20
65.18792
 30
0.0
 40
0.25
100
AcDbArc
 50
0.0
 51
90.000002999997
  0
ARC
  5
111
100
AcDbEntity
  8
LC-004-006-----0
  6
STRICHLINIE
 62
           2
100
AcDbCircle
 10
202.005386
 20
62.18792
 30
0.0
 40
0.25
100
AcDbArc
 50
269.999997000002
 51
0.0
  0
LINE
  5
112
100
AcDbEntity
  8
LC-004-006-----0
  6
STRICHLINIE
 62
           2
100
AcDbLine
 10
193.15538
 20
57.18792
 30
0.0
 11
180.955383
 21
57.18792
 31
0.0
  0
LINE
  5
113
100
AcDbEntity
  8
LC-006-012-----0
  6
STRICHPUNKT
 62
           2
100
AcDbLine
 10
205.067398
 20
63.68792
 30
0.0
 11
176.698761
 21
63.68792
 31
0.0
  0
LINE
  5
114
100
AcDbEntity
  8
LC-004-006-----0
  6
STRICHLINIE
 62
           2
100
AcDbLine
 10
194.955383
 20
188.32869
 30
0.0
 11
194.955383
 21
210.32869
 31
0.0
  0
LINE
  5
115
100
AcDbEntity
  8
LC-004-006-----0
  6
STRICHLINIE
 62
           2
100
AcDbLine
 10
184.955383
 20
188.32869
 30
0.0
 11
184.955383
 21
210.32869
 31
0.0
  0
LINE
  5
116
100
AcDbEntity
  8
LC-004-006-----0
  6
STRICHLINIE
 62
           2
100
AcDbLine
 10
194.155389
 20
188.32869
 30
0.0
 11
194.155389
 21
240.32869
 31
0.0
  0
LINE
  5
117
100
AcDbEntity
  8
LC-004-006-----0
  6
STRICHLINIE
 62
           2
100
AcDbLine
 10
185.755377
 20
188.32869
 30
0.0
 11
185.755377
 21
240.32869
 31
0.0
  0
LINE
  5
118
100
AcDbEntity
  8
LC-004-006-----0
  6
STRICHLINIE
 62
           2
100
AcDbLine
 10
184.955383
 20
210.32869
 30
0.0
 11
194.955383
 21
210.32869
 31
0.0
  0
LINE
  5
119
100
AcDbEntity
  8
LC-004-006-----0
  6
STRICHLINIE
 62
           2
100
AcDbLine
 10
180.955383
 20
240.32869
 30
0.0
 11
197.455383
 21
240.32869
 31
0.0
  0
LINE
  5
11A
100
AcDbEntity
  8
LC-004-006-----0
  6
STRICHLINIE
 62
           2
100
AcDbLine
 10
197.455383
 20
240.32869
 30
0.0
 11
197.455383
 21
248.32869
 31
0.0
  0
LINE
  5
11B
100
AcDbEntity
  8
LC-004-006-----0
  6
STRICHLINIE
 62
           2
100
AcDbLine
 10
252.955383
 20
188.32869
 30
0.0
 11
252.955383
 21
210.32869
 31
0.0
  0
LINE
  5
11C
100
AcDbEntity
  8
LC-004-006-----0
  6
STRICHLINIE
 62
           2
100
AcDbLine
 10
262.955383
 20
188.32869
 30
0.0
 11
262.955383
 21
210.32869
 31
0.0
  0
LINE
  5
11D
100
AcDbEntity
  8
LC-004-006-----0
  6
STRICHLINIE
 62
           2
100
AcDbLine
 10
253.755377
 20
188.32869
 30
0.0
 11
253.755377
 21
240.32869
 31
0.0
  0
LINE
  5
11E
100
AcDbEntity
  8
LC-004-006-----0
  6
STRICHLINIE
 62
           2
100
AcDbLine
 10
262.155389
 20
188.32869
 30
0.0
 11
262.155389
 21
240.32869
 31
0.0
  0
LINE
  5
11F
100
AcDbEntity
  8
LC-004-006-----0
  6
STRICHLINIE
 62
           2
100
AcDbLine
 10
262.955383
 20
210.32869
 30
0.0
 11
252.955383
 21
210.32869
 31
0.0
  0
LINE
  5
120
100
AcDbEntity
  8
LC-004-006-----0
  6
STRICHLINIE
 62
           2
100
AcDbLine
 10
266.955383
 20
240.32869
 30
0.0
 11
250.455383
 21
240.32869
 31
0.0
  0
LINE
  5
121
100
AcDbEntity
  8
LC-004-006-----0
  6
STRICHLINIE
 62
           2
100
AcDbLine
 10
250.455383
 20
240.32869
 30
0.0
 11
250.455383
 21
248.32869
 31
0.0
  0
LINE
  5
122
100
AcDbEntity
  8
LC-004-006-----0
  6
STRICHLINIE
 62
           2
100
AcDbLine
 10
346.027002
 20
188.32869
 30
0.0
 11
346.027002
 21
240.32869
 31
0.0
  0
LINE
  5
123
100
AcDbEntity
  8
LC-004-006-----0
  6
STRICHLINIE
 62
           2
100
AcDbLine
 10
337.62702
 20
188.32869
 30
0.0
 11
337.62702
 21
240.32869
 31
0.0
  0
LINE
  5
124
100
AcDbEntity
  8
LC-004-006-----0
  6
STRICHLINIE
 62
           2
100
AcDbLine
 10
336.827026
 20
188.32869
 30
0.0
 11
336.827026
 21
210.32869
 31
0.0
  0
LINE
  5
125
100
AcDbEntity
  8
LC-004-006-----0
  6
STRICHLINIE
 62
           2
100
AcDbLine
 10
336.827026
 20
210.32869
 30
0.0
 11
346.827026
 21
210.32869
 31
0.0
  0
LINE
  5
126
100
AcDbEntity
  8
LC-004-006-----0
  6
STRICHLINIE
 62
           2
100
AcDbLine
 10
346.827026
 20
188.32869
 30
0.0
 11
346.827026
 21
210.32869
 31
0.0
  0
LINE
  5
127
100
AcDbEntity
  8
LC-003-002-----0
  6
AUSGEZOGEN
 62
           1
100
AcDbLine
 10
334.327026
 20
240.32869
 30
0.0
 11
334.327026
 21
248.32869
 31
0.0
  0
LINE
  5
128
100
AcDbEntity
  8
LC-003-002-----0
  6
AUSGEZOGEN
 62
           1
100
AcDbLine
 10
334.327026
 20
240.32869
 30
0.0
 11
349.327026
 21
240.32869
 31
0.0
  0
LINE
  5
129
100
AcDbEntity
  8
LC-003-002-----0
  6
AUSGEZOGEN
 62
           1
100
AcDbLine
 10
349.327026
 20
240.32869
 30
0.0
 11
349.327026
 21
248.32869
 31
0.0
  0
LINE
  5
12A
100
AcDbEntity
  8
LC-004-006-----0
  6
STRICHLINIE
 62
           2
100
AcDbLine
 10
443.62705
 20
188.32869
 30
0.0
 11
443.62705
 21
240.32869
 31
0.0
  0
LINE
  5
12B
100
AcDbEntity
  8
LC-004-006-----0
  6
STRICHLINIE
 62
           2
100
AcDbLine
 10
452.027032
 20
188.32869
 30
0.0
 11
452.027032
 21
240.32869
 31
0.0
  0
LINE
  5
12C
100
AcDbEntity
  8
LC-004-006-----0
  6
STRICHLINIE
 62
           2
100
AcDbLine
 10
452.827026
 20
188.32869
 30
0.0
 11
452.827026
 21
210.32869
 31
0.0
  0
LINE
  5
12D
100
AcDbEntity
  8
LC-004-006-----0
  6
STRICHLINIE
 62
           2
100
AcDbLine
 10
452.827026
 20
210.32869
 30
0.0
 11
442.827026
 21
210.32869
 31
0.0
  0
LINE
  5
12E
100
AcDbEntity
  8
LC-004-006-----0
  6
STRICHLINIE
 62
           2
100
AcDbLine
 10
442.827026
 20
188.32869
 30
0.0
 11
442.827026
 21
210.32869
 31
0.0
  0
LINE
  5
12F
100
AcDbEntity
  8
LC-003-002-----0
  6
AUSGEZOGEN
 62
           1
100
AcDbLine
 10
455.327026
 20
240.32869
 30
0.0
 11
455.327026
 21
248.32869
 31
0.0
  0
LINE
  5
130
100
AcDbEntity
  8
LC-003-002-----0
  6
AUSGEZOGEN
 62
           1
100
AcDbLine
 10
455.327026
 20
240.32869
 30
0.0
 11
440.327026
 21
240.32869
 31
0.0
  0
LINE
  5
131
100
AcDbEntity
  8
LC-003-002-----0
  6
AUSGEZOGEN
 62
           1
100
AcDbLine
 10
440.327026
 20
240.32869
 30
0.0
 11
440.327026
 21
248.32869
 31
0.0
  0
ARC
  5
132
100
AcDbEntity
  8
LC-008-003-----0
  6
AUSGEZOGEN
 62
           2
100
AcDbCircle
 10
257.955383
 20
74.68792
 30
0.0
 40
5.0
100
AcDbArc
 50
77.155593
 51
13.243719
  0
CIRCLE
  5
133
100
AcDbEntity
  8
LC-003-002-----0
  6
AUSGEZOGEN
 62
           1
100
AcDbCircle
 10
257.955383
 20
74.68792
 30
0.0
 40
4.1
  0
ARC
  5
134
100
AcDbEntity
  8
LC-003-002-----0
  6
AUSGEZOGEN
 62
           1
100
AcDbCircle
 10
257.955383
 20
74.68792
 30
0.0
 40
7.5
100
AcDbArc
 50
90.000003
 51
269.999997
  0
LINE
  5
135
100
AcDbEntity
  8
LC-003-002-----0
  6
AUSGEZOGEN
 62
           1
100
AcDbLine
 10
257.955383
 20
82.18792
 30
0.0
 11
266.955383
 21
82.18792
 31
0.0
  0
LINE
  5
136
100
AcDbEntity
  8
LC-003-002-----0
  6
AUSGEZOGEN
 62
           1
100
AcDbLine
 10
257.955383
 20
67.18792
 30
0.0
 11
266.955383
 21
67.18792
 31
0.0
  0
ARC
  5
137
100
AcDbEntity
  8
LC-008-003-----0
  6
AUSGEZOGEN
 62
           2
100
AcDbCircle
 10
189.955383
 20
74.68792
 30
0.0
 40
5.0
100
AcDbArc
 50
166.756281
 51
102.844407
  0
CIRCLE
  5
138
100
AcDbEntity
  8
LC-003-002-----0
  6
AUSGEZOGEN
 62
           1
100
AcDbCircle
 10
189.955383
 20
74.68792
 30
0.0
 40
4.1
  0
ARC
  5
139
100
AcDbEntity
  8
LC-003-002-----0
  6
AUSGEZOGEN
 62
           1
100
AcDbCircle
 10
189.955383
 20
74.68792
 30
0.0
 40
7.5
100
AcDbArc
 50
270.000002999999
 51
89.999997
  0
LINE
  5
13A
100
AcDbEntity
  8
LC-003-002-----0
  6
AUSGEZOGEN
 62
           1
100
AcDbLine
 10
189.955383
 20
82.18792
 30
0.0
 11
180.955383
 21
82.18792
 31
0.0
  0
LINE
  5
13B
100
AcDbEntity
  8
LC-003-002-----0
  6
AUSGEZOGEN
 62
           1
100
AcDbLine
 10
189.955383
 20
67.18792
 30
0.0
 11
180.955383
 21
67.18792
 31
0.0
  0
ARC
  5
13C
100
AcDbEntity
  8
LC-008-003-----0
  6
AUSGEZOGEN
 62
           2
100
AcDbCircle
 10
257.955383
 20
-31.31208
 30
0.0
 40
5.0
100
AcDbArc
 50
346.756280999999
 51
282.844406999999
  0
CIRCLE
  5
13D
100
AcDbEntity
  8
LC-003-002-----0
  6
AUSGEZOGEN
 62
           1
100
AcDbCircle
 10
257.955383
 20
-31.31208
 30
0.0
 40
4.1
  0
ARC
  5
13E
100
AcDbEntity
  8
LC-003-002-----0
  6
AUSGEZOGEN
 62
           1
100
AcDbCircle
 10
257.955383
 20
-31.31208
 30
0.0
 40
7.5
100
AcDbArc
 50
90.000002999999
 51
269.999996999999
  0
LINE
  5
13F
100
AcDbEntity
  8
LC-003-002-----0
  6
AUSGEZOGEN
 62
           1
100
AcDbLine
 10
257.955383
 20
-38.81208
 30
0.0
 11
266.955383
 21
-38.81208
 31
0.0
  0
LINE
  5
140
100
AcDbEntity
  8
LC-003-002-----0
  6
AUSGEZOGEN
 62
           1
100
AcDbLine
 10
257.955383
 20
-23.81208
 30
0.0
 11
266.955383
 21
-23.81208
 31
0.0
  0
ARC
  5
141
100
AcDbEntity
  8
LC-008-003-----0
  6
AUSGEZOGEN
 62
           2
100
AcDbCircle
 10
189.955383
 20
-31.31208
 30
0.0
 40
5.0
100
AcDbArc
 50
257.155593
 51
193.243718999999
  0
CIRCLE
  5
142
100
AcDbEntity
  8
LC-003-002-----0
  6
AUSGEZOGEN
 62
           1
100
AcDbCircle
 10
189.955383
 20
-31.31208
 30
0.0
 40
4.1
  0
ARC
  5
143
100
AcDbEntity
  8
LC-003-002-----0
  6
AUSGEZOGEN
 62
           1
100
AcDbCircle
 10
189.955383
 20
-31.31208
 30
0.0
 40
7.5
100
AcDbArc
 50
270.000003
 51
89.999997
  0
LINE
  5
144
100
AcDbEntity
  8
LC-003-002-----0
  6
AUSGEZOGEN
 62
           1
100
AcDbLine
 10
189.955383
 20
-38.81208
 30
0.0
 11
180.955383
 21
-38.81208
 31
0.0
  0
LINE
  5
145
100
AcDbEntity
  8
LC-003-002-----0
  6
AUSGEZOGEN
 62
           1
100
AcDbLine
 10
189.955383
 20
-23.81208
 30
0.0
 11
180.955383
 21
-23.81208
 31
0.0
  0
ENDSEC
  0
SECTION
  2
OBJECTS
  0
DICTIONARY
  5
19
100
AcDbDictionary
  3
ACAD_GROUP
350
1A
  3
ACAD_MLINESTYLE
350
1B
  0
DICTIONARY
  5
1A
102
{ACAD_REACTORS
330
19
102
}
100
AcDbDictionary
  0
DICTIONARY
  5
1B
102
{ACAD_REACTORS
330
19
102
}
100
AcDbDictionary
  3
STANDARD
350
1C
  0
MLINESTYLE
  5
1C
102
{ACAD_REACTORS
330
1B
102
}
100
AcDbMlineStyle
  2
STANDARD
 70
           0
  3

 62
           0
 51
90.0
 52
90.0
 71
           2
 49
0.5
 62
         256
  6
BYLAYER
 49
-0.5
 62
         256
  6
BYLAYER
  0
ENDSEC
  0
EOF
