  0
SECTION
  2
HEADER
  9
$ACADVER
  1
AC1014
  9
$ACADMAINTVER
 70
           0
  9
$DWGCODEPAGE
  3
DOS850
  9
$INSBASE
 10
0.0
 20
0.0
 30
0.0
  9
$EXTMIN
 10
580.714111
 20
334.532928
 30
0.0
  9
$EXTMAX
 10
958.778748
 20
693.78772
 30
0.0
  9
$LIMMIN
 10
580.714111
 20
334.532928
  9
$LIMMAX
 10
958.778748
 20
693.78772
  9
$ORTHOMODE
 70
           0
  9
$REGENMODE
 70
           1
  9
$FILLMODE
 70
           1
  9
$QTEXTMODE
 70
           0
  9
$MIRRTEXT
 70
           1
  9
$DRAGMODE
 70
           2
  9
$LTSCALE
 40
5.0
  9
$OSMODE
 70
           0
  9
$ATTMODE
 70
           1
  9
$TEXTSIZE
 40
0.2
  9
$TRACEWID
 40
0.05
  9
$TEXTSTYLE
  7
TXT
  9
$CLAYER
  8
0
  9
$CELTYPE
  6
CONTINUOUS
  9
$CECOLOR
 62
         256
  9
$CELTSCALE
 40
1.0
  9
$DELOBJ
 70
           1
  9
$DISPSILH
 70
           0
  9
$DIMSCALE
 40
1.0
  9
$DIMASZ
 40
3.5
  9
$DIMEXO
 40
0.0625
  9
$DIMDLI
 40
0.38
  9
$DIMRND
 40
0.0
  9
$DIMDLE
 40
0.0
  9
$DIMEXE
 40
0.18
  9
$DIMTP
 40
0.0
  9
$DIMTM
 40
0.0
  9
$DIMTXT
 40
3.5
  9
$DIMCEN
 40
0.09
  9
$DIMTSZ
 40
0.0
  9
$DIMTOL
 70
           0
  9
$DIMLIM
 70
           0
  9
$DIMTIH
 70
           1
  9
$DIMTOH
 70
           1
  9
$DIMSE1
 70
           0
  9
$DIMSE2
 70
           0
  9
$DIMTAD
 70
           0
  9
$DIMZIN
 70
           0
  9
$DIMBLK
  1

  9
$DIMASO
 70
           1
  9
$DIMSHO
 70
           1
  9
$DIMPOST
  1

  9
$DIMAPOST
  1

  9
$DIMALT
 70
           0
  9
$DIMALTD
 70
           2
  9
$DIMALTF
 40
25.4
  9
$DIMLFAC
 40
1.0
  9
$DIMTOFL
 70
           0
  9
$DIMTVP
 40
0.0
  9
$DIMTIX
 70
           0
  9
$DIMSOXD
 70
           0
  9
$DIMSAH
 70
           0
  9
$DIMBLK1
  1

  9
$DIMBLK2
  1

  9
$DIMSTYLE
  2
STANDARD
  9
$DIMCLRD
 70
           0
  9
$DIMCLRE
 70
           0
  9
$DIMCLRT
 70
           0
  9
$DIMTFAC
 40
1.0
  9
$DIMGAP
 40
0.09
  9
$DIMJUST
 70
           0
  9
$DIMSD1
 70
           0
  9
$DIMSD2
 70
           0
  9
$DIMTOLJ
 70
           1
  9
$DIMTZIN
 70
           0
  9
$DIMALTZ
 70
           0
  9
$DIMALTTZ
 70
           0
  9
$DIMFIT
 70
           3
  9
$DIMUPT
 70
           0
  9
$DIMUNIT
 70
           2
  9
$DIMDEC
 70
           4
  9
$DIMTDEC
 70
           4
  9
$DIMALTU
 70
           2
  9
$DIMALTTD
 70
           2
  9
$DIMTXSTY
  7
TXT
  9
$DIMAUNIT
 70
           0
  9
$LUNITS
 70
           2
  9
$LUPREC
 70
           2
  9
$SKETCHINC
 40
0.1
  9
$FILLETRAD
 40
0.0
  9
$AUNITS
 70
           0
  9
$AUPREC
 70
           2
  9
$MENU
  1
acad
  9
$ELEVATION
 40
0.0
  9
$PELEVATION
 40
0.0
  9
$THICKNESS
 40
0.0
  9
$LIMCHECK
 70
           0
  9
$BLIPMODE
 70
           1
  9
$CHAMFERA
 40
0.0
  9
$CHAMFERB
 40
0.0
  9
$CHAMFERC
 40
0.0
  9
$CHAMFERD
 40
0.0
  9
$SKPOLY
 70
           0
  9
$TDCREATE
 40
0.000000000
  9
$TDUPDATE
 40
0.000000000
  9
$TDINDWG
 40
0.0000000000
  9
$TDUSRTIMER
 40
0.0000000000
  9
$USRTIMER
 70
           1
  9
$ANGBASE
 50
0.0
  9
$ANGDIR
 70
           0
  9
$PDMODE
 70
           2
  9
$PDSIZE
 40
0.5
  9
$PLINEWID
 40
0.0
  9
$COORDS
 70
           0
  9
$SPLFRAME
 70
           0
  9
$SPLINETYPE
 70
           6
  9
$SPLINESEGS
 70
           8
  9
$ATTDIA
 70
           0
  9
$ATTREQ
 70
           1
  9
$HANDLING
 70
           1
  9
$HANDSEED
  5
149
  9
$SURFTAB1
 70
           6
  9
$SURFTAB2
 70
           6
  9
$SURFTYPE
 70
           6
  9
$SURFU
 70
           6
  9
$SURFV
 70
           6
  9
$UCSNAME
  2

  9
$UCSORG
 10
0.0
 20
0.0
 30
0.0
  9
$UCSXDIR
 10
1.0
 20
0.0
 30
0.0
  9
$UCSYDIR
 10
0.0
 20
1.0
 30
0.0
  9
$PUCSNAME
  2

  9
$PUCSORG
 10
0.0
 20
0.0
 30
0.0
  9
$PUCSXDIR
 10
1.0
 20
0.0
 30
0.0
  9
$PUCSYDIR
 10
0.0
 20
1.0
 30
0.0
  9
$USERI1
 70
           0
  9
$USERI2
 70
           0
  9
$USERI3
 70
           0
  9
$USERI4
 70
           0
  9
$USERI5
 70
           0
  9
$USERR1
 40
0.0
  9
$USERR2
 40
0.0
  9
$USERR3
 40
0.0
  9
$USERR4
 40
0.0
  9
$USERR5
 40
0.0
  9
$WORLDVIEW
 70
           1
  9
$SHADEDGE
 70
           3
  9
$SHADEDIF
 70
          70
  9
$TILEMODE
 70
           1
  9
$MAXACTVP
 70
          16
  9
$PINSBASE
 10
0.0
 20
0.0
 30
0.0
  9
$PLIMCHECK
 70
           0
  9
$PEXTMIN
 10
1.000000000000E+20
 20
1.000000000000E+20
 30
1.000000000000E+20
  9
$PEXTMAX
 10
-1.000000000000E+20
 20
-1.000000000000E+20
 30
-1.000000000000E+20
  9
$PLIMMIN
 10
0.0
 20
0.0
  9
$PLIMMAX
 10
12.0
 20
9.0
  9
$UNITMODE
 70
           0
  9
$VISRETAIN
 70
           0
  9
$PLINEGEN
 70
           1
  9
$PSLTSCALE
 70
           0
  9
$TREEDEPTH
 70
        3020
  9
$PICKSTYLE
 70
           1
  9
$CMLSTYLE
  2
STANDARD
  9
$CMLJUST
 70
           0
  9
$CMLSCALE
 40
1.0
  9
$PROXYGRAPHICS
 70
           0
  9
$MEASUREMENT
 70
           0
  0
ENDSEC
  0
SECTION
  2
CLASSES
  0
CLASS
  1
LWPOLYLINE
  2
AcDbPolyline
  3
"AutoCAD"
 90
        0
280
           0
281
           1
  0
CLASS
  1
IMAGE
  2
AcDbRasterImage
  3
ISM
 90
      127
280
           0
281
           1
  0
CLASS
  1
OLE2FRAME
  2
AcDbOle2Frame
  3
""
 90
        0
280
           0
281
           1
  0
CLASS
  1
HATCH
  2
AcDbHatch
  3
"ACAD_SEDONA"
 90
        0
280
           0
281
           1
  0
CLASS
  1
DICTIONARYVAR
  2
AcDbDictionaryVar
  3
"AutoCAD"
 90
        0
280
           0
281
           0
  0
CLASS
  1
RASTERVARIABLES
  2
AcDbRasterVariables
  3
ISM
 90
        0
280
           0
281
           0
  0
CLASS
  1
IMAGEDEF
  2
AcDbRasterImageDef
  3
ISM
 90
        0
280
           0
281
           0
  0
CLASS
  1
IMAGEDEF_REACTOR
  2
AcDbRasterImageDefReactor
  3
ISM
 90
        1
280
           0
281
           0
  0
CLASS
  1
IDBUFFER
  2
AcDbIdBuffer
  3
"Acad"
 90
        0
280
           0
281
           0
  0
CLASS
  1
SPATIAL_FILTER
  2
AcDbSpatialFilter
  3
"Acad"
 90
        0
280
           0
281
           0
  0
CLASS
  1
XRECORD
  2
AcDbXrecord
  3
"<Built In>"
 90
        0
280
           0
281
           0
  0
CLASS
  1
SORTENTSTABLE
  2
AcDbSortentsTable
  3
"AutoCAD"
 90
        0
280
           0
281
           0
  0
CLASS
  1
LAYER_INDEX
  2
AcDbLayerIndex
  3
"Acad"
 90
        0
280
           0
281
           0
  0
CLASS
  1
SPATIAL_INDEX
  2
AcDbSpatialIndex
  3
"Acad"
 90
        0
280
           0
281
           0
  0
CLASS
  1
OBJECT_PTR
  2
CAseDLPNTableRecord
  3
"ASE-LPNTableRecord"
 90
        1
280
           0
281
           0
  0
CLASS
  1
LAYOUT
  2
AcDbLayout
  3
"AutoCAD 2000"
 90
        1
280
           0
281
           0
  0
CLASS
  1
PLOTSETTINGS
  2
AcDbPlotSettings
  3
"AutoCAD 2000"
 90
        1
280
           0
281
           0
  0
CLASS
  1
ACDBDICTIONARYWDFLT
  2
AcDbDictionaryWithDefault
  3
"AutoCAD 2000"
 90
        1
280
           0
281
           0
  0
CLASS
  1
ACDBPLACEHOLDER
  2
AcDbPlaceHolder
  3
"AutoCAD 2000"
 90
        1
280
           0
281
           0
  0
CLASS
  1
VBA_PROJECT
  2
AcDbVbaProject
  3
"acadvba"
 90
        1
280
           0
281
           0
  0
CLASS
  1
WIPEOUT
  2
AcDbWipeout
  3
WipeOut|AutoCAD Express Tool|expresstools@autodesk.com
 90
      127
280
           0
281
           1
  0
CLASS
  1
WIPEOUTVARIABLES
  2
AcDbWipeoutVariables
  3
WipeOut|AutoCAD Express Tool|expresstools@autodesk.com
 90
        0
280
           0
281
           0
  0
CLASS
  1
RTEXT
  2
RText
  3
RText|AutoCAD Express Tool|expresstools@autodesk.com
 90
        0
280
           0
281
           1
  0
CLASS
  1
ARCALIGNEDTEXT
  2
AcDbArcAlignedText
  3
ATEXT|AutoCAD Express Tool|expresstools@autodesk.com
 90
        0
280
           0
281
           1
  0
ENDSEC
  0
SECTION
  2
TABLES
  0
TABLE
  2
VPORT
  5
7
100
AcDbSymbolTable
 70
           1
  0
VPORT
  5
15
100
AcDbSymbolTableRecord
100
AcDbViewportTableRecord
  2
*ACTIVE
 70
           0
 10
0.0
 20
0.0
 11
1.0
 21
1.0
 12
6.591288
 22
4.579184
 13
0.0
 23
0.0
 14
1.0
 24
1.0
 15
0.0
 25
0.0
 16
0.0
 26
0.0
 36
1.0
 17
0.0
 27
0.0
 37
0.0
 40
9.158369
 41
0.688564
 42
50.0
 43
0.0
 44
0.0
 50
0.0
 51
0.0
 71
           0
 72
         100
 73
           1
 74
           1
 75
           0
 76
           0
 77
           0
 78
           0
  0
ENDTAB
  0
TABLE
  2
LTYPE
  5
4
100
AcDbSymbolTable
 70
           6
  0
LTYPE
  5
11
100
AcDbSymbolTableRecord
100
AcDbLinetypeTableRecord
  2
BYBLOCK
 70
          64
  3

 72
          65
 73
           0
 40
0.0
  0
LTYPE
  5
12
100
AcDbSymbolTableRecord
100
AcDbLinetypeTableRecord
  2
BYLAYER
 70
          64
  3

 72
          65
 73
           0
 40
0.0
  0
LTYPE
  5
13
100
AcDbSymbolTableRecord
100
AcDbLinetypeTableRecord
  2
CONTINUOUS
 70
          64
  3
Solid line
 72
          65
 73
           0
 40
0.0
  0
LTYPE
  5
1D
100
AcDbSymbolTableRecord
100
AcDbLinetypeTableRecord
  2
AUSGEZOGEN
 70
           0
  3

 72
          65
 73
           2
 40
0.5
 49
0.25
 74
           0
 49
-0.25
 74
           0
  0
LTYPE
  5
1E
100
AcDbSymbolTableRecord
100
AcDbLinetypeTableRecord
  2
STRICHLINIE
 70
           0
  3

 72
          65
 73
           2
 40
0.5
 49
0.25
 74
           0
 49
-0.25
 74
           0
  0
LTYPE
  5
1F
100
AcDbSymbolTableRecord
100
AcDbLinetypeTableRecord
  2
STRICHPUNKT
 70
           0
  3

 72
          65
 73
           4
 40
1.0
 49
0.5
 74
           0
 49
-0.25
 74
           0
 49
0.0
 74
           0
 49
-0.25
 74
           0
  0
ENDTAB
  0
TABLE
  2
LAYER
  5
2
100
AcDbSymbolTable
 70
           5
  0
LAYER
  5
14
100
AcDbSymbolTableRecord
100
AcDbLayerTableRecord
  2
0
 70
           0
 62
           7
  6
CONTINUOUS
  0
LAYER
  5
20
100
AcDbSymbolTableRecord
100
AcDbLayerTableRecord
  2
LC-003-002-----0
 70
           0
 62
           7
  6
CONTINUOUS
  0
LAYER
  5
21
100
AcDbSymbolTableRecord
100
AcDbLayerTableRecord
  2
LC-006-012-----0
 70
           0
 62
           7
  6
CONTINUOUS
  0
LAYER
  5
22
100
AcDbSymbolTableRecord
100
AcDbLayerTableRecord
  2
LC-004-006-----0
 70
           0
 62
           7
  6
CONTINUOUS
  0
LAYER
  5
23
100
AcDbSymbolTableRecord
100
AcDbLayerTableRecord
  2
LC-008-003-----0
 70
           0
 62
           7
  6
CONTINUOUS
  0
ENDTAB
  0
TABLE
  2
STYLE
  5
3
100
AcDbSymbolTable
 70
           1
  0
STYLE
  5
17
100
AcDbSymbolTableRecord
100
AcDbTextStyleTableRecord
  2
TXT
 70
           0
 40
3.5
 41
1.0
 50
0.0
 71
           0
 42
3.5
  3
TXT
  4

  0
ENDTAB
  0
TABLE
  2
VIEW
  5
5
100
AcDbSymbolTable
 70
           0
  0
ENDTAB
  0
TABLE
  2
UCS
  5
6
100
AcDbSymbolTable
 70
           0
  0
ENDTAB
  0
TABLE
  2
APPID
  5
8
100
AcDbSymbolTable
 70
           2
  0
APPID
  5
16
100
AcDbSymbolTableRecord
100
AcDbRegAppTableRecord
  2
ACAD
 70
           0
  0
APPID
  5
24
100
AcDbSymbolTableRecord
100
AcDbRegAppTableRecord
  2
MegaCADPntStyle
 70
           0
  0
ENDTAB
  0
TABLE
  2
DIMSTYLE
  5
9
100
AcDbSymbolTable
 70
           1
  0
DIMSTYLE
105
18
100
AcDbSymbolTableRecord
100
AcDbDimStyleTableRecord
  2
STANDARD
 70
           0
  3

  4

  5

  6

  7

 40
1.0
 41
0.18
 42
0.0625
 43
0.38
 44
0.18
 45
0.0
 46
0.0
 47
0.0
 48
0.0
 71
           0
 72
           0
 73
           1
 74
           1
 75
           0
 76
           0
 77
           0
 78
           0
140
0.18
141
0.09
142
0.0
143
25.4
144
1.0
145
0.0
146
1.0
147
0.09
170
           0
171
           2
172
           0
173
           0
174
           0
175
           0
176
           0
177
           0
178
           0
270
           2
271
           4
272
           4
273
           2
274
           2
275
           0
280
           0
281
           0
282
           0
283
           1
284
           0
285
           0
286
           0
287
           0
288
           0
340
17
  0
ENDTAB
  0
TABLE
  2
BLOCK_RECORD
  5
1
100
AcDbSymbolTable
 70
           1
  0
BLOCK_RECORD
  5
A
100
AcDbSymbolTableRecord
100
AcDbBlockTableRecord
  2
*MODEL_SPACE
  0
BLOCK_RECORD
  5
B
100
AcDbSymbolTableRecord
100
AcDbBlockTableRecord
  2
*PAPER_SPACE
  0
BLOCK_RECORD
  5
25
102
{ACAD_XDICTIONARY
360
5C
102
}
100
AcDbSymbolTableRecord
100
AcDbBlockTableRecord
  2
ELIPPSE
  0
ENDTAB
  0
ENDSEC
  0
SECTION
  2
BLOCKS
  0
BLOCK
  5
D
100
AcDbEntity
  8
0
100
AcDbBlockBegin
  2
*MODEL_SPACE
 70
           0
 10
0.0
 20
0.0
 30
0.0
  3
*MODEL_SPACE
  1

  0
ENDBLK
  5
E
100
AcDbEntity
  8
0
100
AcDbBlockEnd
  0
BLOCK
  5
F
100
AcDbEntity
 67
           1
  8
0
100
AcDbBlockBegin
  2
*PAPER_SPACE
 70
           0
 10
0.0
 20
0.0
 30
0.0
  3
*PAPER_SPACE
  1

  0
ENDBLK
  5
10
100
AcDbEntity
 67
           1
  8
0
100
AcDbBlockEnd
  0
BLOCK
  5
146
100
AcDbEntity
  8
0
100
AcDbBlockBegin
  2
ELIPPSE
 70
          64
 10
0.0
 20
0.0
 30
0.0
  3
ELIPPSE
  1

  0
CIRCLE
  5
147
100
AcDbEntity
  8
0
  6
BYBLOCK
 62
           0
100
AcDbCircle
 10
0.0
 20
0.0
 30
0.0
 40
1.0
  0
ENDBLK
  5
148
100
AcDbEntity
  8
0
  6
BYBLOCK
 62
           0
100
AcDbBlockEnd
  0
ENDSEC
  0
SECTION
  2
ENTITIES
  0
LINE
  5
26
100
AcDbEntity
  8
LC-003-002-----0
  6
AUSGEZOGEN
 62
           1
100
AcDbLine
 10
586.287109
 20
679.461182
 30
0.0
 11
594.287109
 21
687.461182
 31
0.0
  0
LINE
  5
27
100
AcDbEntity
  8
LC-003-002-----0
  6
AUSGEZOGEN
 62
           1
100
AcDbLine
 10
686.287109
 20
687.461182
 30
0.0
 11
694.287109
 21
679.461182
 31
0.0
  0
LINE
  5
28
100
AcDbEntity
  8
LC-003-002-----0
  6
AUSGEZOGEN
 62
           1
100
AcDbLine
 10
754.619385
 20
679.461182
 30
0.0
 11
771.619385
 21
679.461182
 31
0.0
  0
LINE
  5
29
100
AcDbEntity
  8
LC-003-002-----0
  6
AUSGEZOGEN
 62
           1
100
AcDbLine
 10
789.619385
 20
679.461182
 30
0.0
 11
895.619385
 21
679.461182
 31
0.0
  0
LINE
  5
2A
100
AcDbEntity
  8
LC-003-002-----0
  6
AUSGEZOGEN
 62
           1
100
AcDbLine
 10
913.619385
 20
679.461182
 30
0.0
 11
930.619385
 21
679.461182
 31
0.0
  0
LINE
  5
2B
100
AcDbEntity
  8
LC-003-002-----0
  6
AUSGEZOGEN
 62
           1
100
AcDbLine
 10
586.287109
 20
610.461182
 30
0.0
 11
586.287109
 21
679.461182
 31
0.0
  0
LINE
  5
2C
100
AcDbEntity
  8
LC-003-002-----0
  6
AUSGEZOGEN
 62
           1
100
AcDbLine
 10
586.287109
 20
610.461182
 30
0.0
 11
694.287109
 21
610.461182
 31
0.0
  0
LINE
  5
2D
100
AcDbEntity
  8
LC-003-002-----0
  6
AUSGEZOGEN
 62
           1
100
AcDbLine
 10
594.287109
 20
687.461182
 30
0.0
 11
625.365295
 21
687.461182
 31
0.0
  0
LINE
  5
2E
100
AcDbEntity
  8
LC-003-002-----0
  6
AUSGEZOGEN
 62
           1
100
AcDbLine
 10
694.287109
 20
679.461182
 30
0.0
 11
694.287109
 21
610.461182
 31
0.0
  0
LINE
  5
2F
100
AcDbEntity
  8
LC-006-012-----0
  6
STRICHPUNKT
 62
           2
100
AcDbLine
 10
640.287109
 20
603.305908
 30
0.0
 11
640.287109
 21
693.78772
 31
0.0
  0
LINE
  5
30
100
AcDbEntity
  8
LC-006-012-----0
  6
STRICHPUNKT
 62
           2
100
AcDbLine
 10
601.878662
 20
655.461182
 30
0.0
 11
677.761414
 21
655.461182
 31
0.0
  0
CIRCLE
  5
31
100
AcDbEntity
  8
LC-003-002-----0
  6
AUSGEZOGEN
 62
           1
100
AcDbCircle
 10
640.287109
 20
655.461182
 30
0.0
 40
20.0
  0
ARC
  5
32
100
AcDbEntity
  8
LC-003-002-----0
  6
AUSGEZOGEN
 62
           1
100
AcDbCircle
 10
640.287109
 20
655.461182
 30
0.0
 40
31.0
100
AcDbArc
 50
115.000004
 51
65.000001
  0
ARC
  5
33
100
AcDbEntity
  8
LC-003-002-----0
  6
AUSGEZOGEN
 62
           1
100
AcDbCircle
 10
640.287109
 20
655.461182
 30
0.0
 40
28.0
100
AcDbArc
 50
115.000004
 51
65.000001
  0
LINE
  5
34
100
AcDbEntity
  8
LC-006-012-----0
  6
STRICHPUNKT
 62
           2
100
AcDbLine
 10
597.287109
 20
603.305908
 30
0.0
 11
597.287109
 21
693.78772
 31
0.0
  0
LINE
  5
35
100
AcDbEntity
  8
LC-003-002-----0
  6
AUSGEZOGEN
 62
           1
100
AcDbLine
 10
754.619385
 20
610.461182
 30
0.0
 11
930.619385
 21
610.461182
 31
0.0
  0
LINE
  5
36
100
AcDbEntity
  8
LC-004-006-----0
  6
STRICHLINIE
 62
           2
100
AcDbLine
 10
604.287109
 20
610.461182
 30
0.0
 11
604.287109
 21
636.461182
 31
0.0
  0
LINE
  5
37
100
AcDbEntity
  8
LC-004-006-----0
  6
STRICHLINIE
 62
           2
100
AcDbLine
 10
590.287109
 20
610.461182
 30
0.0
 11
590.287109
 21
636.461182
 31
0.0
  0
LINE
  5
38
100
AcDbEntity
  8
LC-004-006-----0
  6
STRICHLINIE
 62
           2
100
AcDbLine
 10
603.037109
 20
610.461182
 30
0.0
 11
603.037109
 21
677.461182
 31
0.0
  0
LINE
  5
39
100
AcDbEntity
  8
LC-004-006-----0
  6
STRICHLINIE
 62
           2
100
AcDbLine
 10
591.537109
 20
610.461182
 30
0.0
 11
591.537109
 21
677.461182
 31
0.0
  0
LINE
  5
3A
100
AcDbEntity
  8
LC-004-006-----0
  6
STRICHLINIE
 62
           2
100
AcDbLine
 10
590.287109
 20
636.461182
 30
0.0
 11
604.287109
 21
636.461182
 31
0.0
  0
LINE
  5
3B
100
AcDbEntity
  8
LC-004-006-----0
  6
STRICHLINIE
 62
           2
100
AcDbLine
 10
606.287109
 20
677.461182
 30
0.0
 11
586.287109
 21
677.461182
 31
0.0
  0
LINE
  5
3C
100
AcDbEntity
  8
LC-004-006-----0
  6
STRICHLINIE
 62
           2
100
AcDbLine
 10
606.287109
 20
677.461182
 30
0.0
 11
606.287109
 21
687.461182
 31
0.0
  0
LINE
  5
3D
100
AcDbEntity
  8
LC-006-012-----0
  6
STRICHPUNKT
 62
           2
100
AcDbLine
 10
683.287109
 20
603.305908
 30
0.0
 11
683.287109
 21
693.78772
 31
0.0
  0
LINE
  5
3E
100
AcDbEntity
  8
LC-004-006-----0
  6
STRICHLINIE
 62
           2
100
AcDbLine
 10
676.287109
 20
610.461182
 30
0.0
 11
676.287109
 21
636.461182
 31
0.0
  0
LINE
  5
3F
100
AcDbEntity
  8
LC-004-006-----0
  6
STRICHLINIE
 62
           2
100
AcDbLine
 10
690.287109
 20
610.461182
 30
0.0
 11
690.287109
 21
636.461182
 31
0.0
  0
LINE
  5
40
100
AcDbEntity
  8
LC-004-006-----0
  6
STRICHLINIE
 62
           2
100
AcDbLine
 10
677.537109
 20
610.461182
 30
0.0
 11
677.537109
 21
677.461182
 31
0.0
  0
LINE
  5
41
100
AcDbEntity
  8
LC-004-006-----0
  6
STRICHLINIE
 62
           2
100
AcDbLine
 10
689.037109
 20
610.461182
 30
0.0
 11
689.037109
 21
677.461182
 31
0.0
  0
LINE
  5
42
100
AcDbEntity
  8
LC-004-006-----0
  6
STRICHLINIE
 62
           2
100
AcDbLine
 10
690.287109
 20
636.461182
 30
0.0
 11
676.287109
 21
636.461182
 31
0.0
  0
LINE
  5
43
100
AcDbEntity
  8
LC-004-006-----0
  6
STRICHLINIE
 62
           2
100
AcDbLine
 10
674.287109
 20
677.461182
 30
0.0
 11
694.287109
 21
677.461182
 31
0.0
  0
LINE
  5
44
100
AcDbEntity
  8
LC-004-006-----0
  6
STRICHLINIE
 62
           2
100
AcDbLine
 10
674.287109
 20
677.461182
 30
0.0
 11
674.287109
 21
687.461182
 31
0.0
  0
LINE
  5
45
100
AcDbEntity
  8
LC-003-002-----0
  6
AUSGEZOGEN
 62
           1
100
AcDbLine
 10
930.619385
 20
610.461182
 30
0.0
 11
930.619385
 21
687.461182
 31
0.0
  0
LINE
  5
46
100
AcDbEntity
  8
LC-003-002-----0
  6
AUSGEZOGEN
 62
           1
100
AcDbLine
 10
754.619385
 20
687.461182
 30
0.0
 11
930.619385
 21
687.461182
 31
0.0
  0
LINE
  5
47
100
AcDbEntity
  8
LC-003-002-----0
  6
AUSGEZOGEN
 62
           1
100
AcDbLine
 10
754.619385
 20
610.461182
 30
0.0
 11
754.619385
 21
687.461182
 31
0.0
  0
LINE
  5
48
100
AcDbEntity
  8
LC-003-002-----0
  6
AUSGEZOGEN
 62
           1
100
AcDbLine
 10
895.619385
 20
677.461182
 30
0.0
 11
895.619385
 21
687.461182
 31
0.0
  0
LINE
  5
49
100
AcDbEntity
  8
LC-006-012-----0
  6
STRICHPUNKT
 62
           2
100
AcDbLine
 10
904.619385
 20
603.305908
 30
0.0
 11
904.619385
 21
693.78772
 31
0.0
  0
LINE
  5
4A
100
AcDbEntity
  8
LC-004-006-----0
  6
STRICHLINIE
 62
           2
100
AcDbLine
 10
911.619385
 20
610.461182
 30
0.0
 11
911.619385
 21
636.461182
 31
0.0
  0
LINE
  5
4B
100
AcDbEntity
  8
LC-004-006-----0
  6
STRICHLINIE
 62
           2
100
AcDbLine
 10
897.619385
 20
610.461182
 30
0.0
 11
897.619385
 21
636.461182
 31
0.0
  0
LINE
  5
4C
100
AcDbEntity
  8
LC-004-006-----0
  6
STRICHLINIE
 62
           2
100
AcDbLine
 10
910.369385
 20
610.461182
 30
0.0
 11
910.369385
 21
677.461182
 31
0.0
  0
LINE
  5
4D
100
AcDbEntity
  8
LC-004-006-----0
  6
STRICHLINIE
 62
           2
100
AcDbLine
 10
898.869385
 20
610.461182
 30
0.0
 11
898.869385
 21
677.461182
 31
0.0
  0
LINE
  5
4E
100
AcDbEntity
  8
LC-004-006-----0
  6
STRICHLINIE
 62
           2
100
AcDbLine
 10
897.619385
 20
636.461182
 30
0.0
 11
911.619385
 21
636.461182
 31
0.0
  0
LINE
  5
4F
100
AcDbEntity
  8
LC-006-012-----0
  6
STRICHPUNKT
 62
           2
100
AcDbLine
 10
725.76178
 20
655.461182
 30
0.0
 11
958.778748
 21
655.461182
 31
0.0
  0
LINE
  5
50
100
AcDbEntity
  8
LC-003-002-----0
  6
AUSGEZOGEN
 62
           1
100
AcDbLine
 10
913.619385
 20
677.461182
 30
0.0
 11
913.619385
 21
687.461182
 31
0.0
  0
LINE
  5
51
100
AcDbEntity
  8
LC-003-002-----0
  6
AUSGEZOGEN
 62
           1
100
AcDbLine
 10
913.619385
 20
677.461182
 30
0.0
 11
895.619385
 21
677.461182
 31
0.0
  0
LINE
  5
52
100
AcDbEntity
  8
LC-003-002-----0
  6
AUSGEZOGEN
 62
           1
100
AcDbLine
 10
789.619385
 20
677.461182
 30
0.0
 11
789.619385
 21
687.461182
 31
0.0
  0
LINE
  5
53
100
AcDbEntity
  8
LC-006-012-----0
  6
STRICHPUNKT
 62
           2
100
AcDbLine
 10
780.619385
 20
603.305908
 30
0.0
 11
780.619385
 21
693.78772
 31
0.0
  0
LINE
  5
54
100
AcDbEntity
  8
LC-004-006-----0
  6
STRICHLINIE
 62
           2
100
AcDbLine
 10
773.619385
 20
610.461182
 30
0.0
 11
773.619385
 21
636.461182
 31
0.0
  0
LINE
  5
55
100
AcDbEntity
  8
LC-004-006-----0
  6
STRICHLINIE
 62
           2
100
AcDbLine
 10
787.619385
 20
610.461182
 30
0.0
 11
787.619385
 21
636.461182
 31
0.0
  0
LINE
  5
56
100
AcDbEntity
  8
LC-004-006-----0
  6
STRICHLINIE
 62
           2
100
AcDbLine
 10
774.869385
 20
610.461182
 30
0.0
 11
774.869385
 21
677.461182
 31
0.0
  0
LINE
  5
57
100
AcDbEntity
  8
LC-004-006-----0
  6
STRICHLINIE
 62
           2
100
AcDbLine
 10
786.369385
 20
610.461182
 30
0.0
 11
786.369385
 21
677.461182
 31
0.0
  0
LINE
  5
58
100
AcDbEntity
  8
LC-004-006-----0
  6
STRICHLINIE
 62
           2
100
AcDbLine
 10
787.619385
 20
636.461182
 30
0.0
 11
773.619385
 21
636.461182
 31
0.0
  0
LINE
  5
59
100
AcDbEntity
  8
LC-003-002-----0
  6
AUSGEZOGEN
 62
           1
100
AcDbLine
 10
771.619385
 20
677.461182
 30
0.0
 11
771.619385
 21
687.461182
 31
0.0
  0
LINE
  5
5A
100
AcDbEntity
  8
LC-003-002-----0
  6
AUSGEZOGEN
 62
           1
100
AcDbLine
 10
771.619385
 20
677.461182
 30
0.0
 11
789.619385
 21
677.461182
 31
0.0
  0
LINE
  5
5B
100
AcDbEntity
  8
LC-004-006-----0
  6
STRICHLINIE
 62
           2
100
AcDbLine
 10
754.619385
 20
683.556702
 30
0.0
 11
834.619385
 21
683.556702
 31
0.0
  0
LINE
  5
5C
100
AcDbEntity
  8
LC-004-006-----0
  6
STRICHLINIE
 62
           2
100
AcDbLine
 10
754.619385
 20
624.461182
 30
0.0
 11
834.619385
 21
624.461182
 31
0.0
  0
LINE
  5
5D
100
AcDbEntity
  8
LC-004-006-----0
  6
STRICHLINIE
 62
           2
100
AcDbLine
 10
834.619385
 20
624.461182
 30
0.0
 11
834.619385
 21
683.556702
 31
0.0
  0
LINE
  5
5E
100
AcDbEntity
  8
LC-004-006-----0
  6
STRICHLINIE
 62
           2
100
AcDbLine
 10
850.619385
 20
624.461182
 30
0.0
 11
850.619385
 21
683.556702
 31
0.0
  0
LINE
  5
5F
100
AcDbEntity
  8
LC-003-002-----0
  6
AUSGEZOGEN
 62
           1
100
AcDbLine
 10
586.287109
 20
533.626648
 30
0.0
 11
586.287109
 21
357.626648
 31
0.0
  0
LINE
  5
60
100
AcDbEntity
  8
LC-008-003-----0
  6
AUSGEZOGEN
 62
           2
100
AcDbLine
 10
950.495789
 20
635.461182
 30
0.0
 11
949.856628
 21
645.388306
 31
0.0
  0
LINE
  5
61
100
AcDbEntity
  8
LC-008-003-----0
  6
AUSGEZOGEN
 62
           2
100
AcDbLine
 10
949.856628
 20
645.388306
 30
0.0
 11
952.572083
 21
662.351379
 31
0.0
  0
LINE
  5
62
100
AcDbEntity
  8
LC-008-003-----0
  6
AUSGEZOGEN
 62
           2
100
AcDbLine
 10
952.572083
 20
662.351379
 30
0.0
 11
949.996033
 21
675.461182
 31
0.0
  0
LINE
  5
63
100
AcDbEntity
  8
LC-003-002-----0
  6
AUSGEZOGEN
 62
           1
100
AcDbLine
 10
930.619385
 20
675.461182
 30
0.0
 11
949.996033
 21
675.461182
 31
0.0
  0
LINE
  5
64
100
AcDbEntity
  8
LC-003-002-----0
  6
AUSGEZOGEN
 62
           1
100
AcDbLine
 10
930.619385
 20
635.461182
 30
0.0
 11
950.495789
 21
635.461182
 31
0.0
  0
LINE
  5
65
100
AcDbEntity
  8
LC-008-003-----0
  6
AUSGEZOGEN
 62
           2
100
AcDbLine
 10
734.743042
 20
635.461182
 30
0.0
 11
735.382202
 21
645.388306
 31
0.0
  0
LINE
  5
66
100
AcDbEntity
  8
LC-008-003-----0
  6
AUSGEZOGEN
 62
           2
100
AcDbLine
 10
735.382202
 20
645.388306
 30
0.0
 11
732.666748
 21
662.351379
 31
0.0
  0
LINE
  5
67
100
AcDbEntity
  8
LC-008-003-----0
  6
AUSGEZOGEN
 62
           2
100
AcDbLine
 10
732.666748
 20
662.351379
 30
0.0
 11
735.242798
 21
675.461182
 31
0.0
  0
LINE
  5
68
100
AcDbEntity
  8
LC-003-002-----0
  6
AUSGEZOGEN
 62
           1
100
AcDbLine
 10
735.242798
 20
675.461182
 30
0.0
 11
754.619385
 21
675.461182
 31
0.0
  0
LINE
  5
69
100
AcDbEntity
  8
LC-004-006-----0
  6
STRICHLINIE
 62
           2
100
AcDbLine
 10
754.619385
 20
675.461182
 30
0.0
 11
930.619385
 21
675.461182
 31
0.0
  0
LINE
  5
6A
100
AcDbEntity
  8
LC-003-002-----0
  6
AUSGEZOGEN
 62
           1
100
AcDbLine
 10
734.743042
 20
635.461182
 30
0.0
 11
754.619385
 21
635.461182
 31
0.0
  0
LINE
  5
6B
100
AcDbEntity
  8
LC-004-006-----0
  6
STRICHLINIE
 62
           2
100
AcDbLine
 10
754.619385
 20
635.461182
 30
0.0
 11
930.619385
 21
635.461182
 31
0.0
  0
LINE
  5
6C
100
AcDbEntity
  8
LC-003-002-----0
  6
AUSGEZOGEN
 62
           1
100
AcDbLine
 10
586.287109
 20
357.626648
 30
0.0
 11
694.287109
 21
357.626648
 31
0.0
  0
LINE
  5
6D
100
AcDbEntity
  8
LC-003-002-----0
  6
AUSGEZOGEN
 62
           1
100
AcDbLine
 10
694.287109
 20
533.626648
 30
0.0
 11
694.287109
 21
357.626648
 31
0.0
  0
LINE
  5
6E
100
AcDbEntity
  8
LC-003-002-----0
  6
AUSGEZOGEN
 62
           1
100
AcDbLine
 10
586.287109
 20
533.626648
 30
0.0
 11
694.287109
 21
533.626648
 31
0.0
  0
LINE
  5
6F
100
AcDbEntity
  8
LC-006-012-----0
  6
STRICHPUNKT
 62
           2
100
AcDbLine
 10
640.287109
 20
557.875793
 30
0.0
 11
640.287109
 21
334.532928
 31
0.0
  0
LINE
  5
70
100
AcDbEntity
  8
LC-006-012-----0
  6
STRICHPUNKT
 62
           2
100
AcDbLine
 10
668.204895
 20
507.626648
 30
0.0
 11
696.860107
 21
507.626648
 31
0.0
  0
LINE
  5
71
100
AcDbEntity
  8
LC-006-012-----0
  6
STRICHPUNKT
 62
           2
100
AcDbLine
 10
683.287109
 20
520.916443
 30
0.0
 11
683.287109
 21
493.2258
 31
0.0
  0
LINE
  5
72
100
AcDbEntity
  8
LC-006-012-----0
  6
STRICHPUNKT
 62
           2
100
AcDbLine
 10
612.369324
 20
507.626648
 30
0.0
 11
583.714111
 21
507.626648
 31
0.0
  0
LINE
  5
73
100
AcDbEntity
  8
LC-006-012-----0
  6
STRICHPUNKT
 62
           2
100
AcDbLine
 10
597.287109
 20
520.916443
 30
0.0
 11
597.287109
 21
493.2258
 31
0.0
  0
LINE
  5
74
100
AcDbEntity
  8
LC-006-012-----0
  6
STRICHPUNKT
 62
           2
100
AcDbLine
 10
668.204895
 20
383.626648
 30
0.0
 11
696.860107
 21
383.626648
 31
0.0
  0
LINE
  5
75
100
AcDbEntity
  8
LC-006-012-----0
  6
STRICHPUNKT
 62
           2
100
AcDbLine
 10
683.287109
 20
370.336853
 30
0.0
 11
683.287109
 21
398.027496
 31
0.0
  0
LINE
  5
76
100
AcDbEntity
  8
LC-006-012-----0
  6
STRICHPUNKT
 62
           2
100
AcDbLine
 10
609.369324
 20
383.626648
 30
0.0
 11
580.714111
 21
383.626648
 31
0.0
  0
LINE
  5
77
100
AcDbEntity
  8
LC-006-012-----0
  6
STRICHPUNKT
 62
           2
100
AcDbLine
 10
597.287109
 20
370.336853
 30
0.0
 11
597.287109
 21
398.027496
 31
0.0
  0
LINE
  5
78
100
AcDbEntity
  8
LC-004-006-----0
  6
STRICHLINIE
 62
           2
100
AcDbLine
 10
671.287109
 20
533.626648
 30
0.0
 11
671.287109
 21
453.626648
 31
0.0
  0
LINE
  5
79
100
AcDbEntity
  8
LC-004-006-----0
  6
STRICHLINIE
 62
           2
100
AcDbLine
 10
609.287109
 20
533.626648
 30
0.0
 11
609.287109
 21
453.626648
 31
0.0
  0
LINE
  5
7A
100
AcDbEntity
  8
LC-004-006-----0
  6
STRICHLINIE
 62
           2
100
AcDbLine
 10
609.287109
 20
437.626648
 30
0.0
 11
625.365295
 21
437.626648
 31
0.0
  0
LINE
  5
7B
100
AcDbEntity
  8
LC-004-006-----0
  6
STRICHLINIE
 62
           2
100
AcDbLine
 10
609.287109
 20
453.626648
 30
0.0
 11
625.365295
 21
453.626648
 31
0.0
  0
LINE
  5
7C
100
AcDbEntity
  8
LC-003-002-----0
  6
AUSGEZOGEN
 62
           1
100
AcDbLine
 10
620.287109
 20
550.882935
 30
0.0
 11
620.287109
 21
533.626648
 31
0.0
  0
LINE
  5
7D
100
AcDbEntity
  8
LC-003-002-----0
  6
AUSGEZOGEN
 62
           1
100
AcDbLine
 10
660.287109
 20
551.012207
 30
0.0
 11
660.287109
 21
533.626648
 31
0.0
  0
LINE
  5
7E
100
AcDbEntity
  8
LC-008-003-----0
  6
AUSGEZOGEN
 62
           2
100
AcDbLine
 10
620.287109
 20
345.370331
 30
0.0
 11
631.487915
 21
343.638092
 31
0.0
  0
LINE
  5
7F
100
AcDbEntity
  8
LC-008-003-----0
  6
AUSGEZOGEN
 62
           2
100
AcDbLine
 10
631.487915
 20
343.638092
 30
0.0
 11
650.72644
 21
346.237976
 31
0.0
  0
LINE
  5
80
100
AcDbEntity
  8
LC-008-003-----0
  6
AUSGEZOGEN
 62
           2
100
AcDbLine
 10
650.72644
 20
346.237976
 30
0.0
 11
660.287109
 21
345.241119
 31
0.0
  0
LINE
  5
81
100
AcDbEntity
  8
LC-003-002-----0
  6
AUSGEZOGEN
 62
           1
100
AcDbLine
 10
620.287109
 20
357.626648
 30
0.0
 11
620.287109
 21
345.370331
 31
0.0
  0
LINE
  5
82
100
AcDbEntity
  8
LC-003-002-----0
  6
AUSGEZOGEN
 62
           1
100
AcDbLine
 10
660.287109
 20
357.626648
 30
0.0
 11
660.287109
 21
345.241119
 31
0.0
  0
LINE
  5
83
100
AcDbEntity
  8
LC-008-003-----0
  6
AUSGEZOGEN
 62
           2
100
AcDbLine
 10
620.287109
 20
550.882935
 30
0.0
 11
631.487915
 21
552.615234
 31
0.0
  0
LINE
  5
84
100
AcDbEntity
  8
LC-008-003-----0
  6
AUSGEZOGEN
 62
           2
100
AcDbLine
 10
631.487915
 20
552.615234
 30
0.0
 11
650.72644
 21
550.01532
 31
0.0
  0
LINE
  5
85
100
AcDbEntity
  8
LC-008-003-----0
  6
AUSGEZOGEN
 62
           2
100
AcDbLine
 10
650.72644
 20
550.01532
 30
0.0
 11
660.287109
 21
551.012207
 31
0.0
  0
LINE
  5
86
100
AcDbEntity
  8
LC-004-006-----0
  6
STRICHLINIE
 62
           2
100
AcDbLine
 10
620.287109
 20
533.626648
 30
0.0
 11
620.287109
 21
357.626648
 31
0.0
  0
LINE
  5
87
100
AcDbEntity
  8
LC-004-006-----0
  6
STRICHLINIE
 62
           2
100
AcDbLine
 10
660.287109
 20
533.626648
 30
0.0
 11
660.287109
 21
357.626648
 31
0.0
  0
LINE
  5
88
100
AcDbEntity
  8
LC-003-002-----0
  6
AUSGEZOGEN
 62
           1
100
AcDbLine
 10
594.287109
 20
533.626648
 30
0.0
 11
594.287109
 21
516.626648
 31
0.0
  0
LINE
  5
89
100
AcDbEntity
  8
LC-003-002-----0
  6
AUSGEZOGEN
 62
           1
100
AcDbLine
 10
594.287109
 20
374.626648
 30
0.0
 11
594.287109
 21
357.626648
 31
0.0
  0
LINE
  5
8A
100
AcDbEntity
  8
LC-003-002-----0
  6
AUSGEZOGEN
 62
           1
100
AcDbLine
 10
594.287109
 20
498.626648
 30
0.0
 11
594.287109
 21
392.626648
 31
0.0
  0
LINE
  5
8B
100
AcDbEntity
  8
LC-003-002-----0
  6
AUSGEZOGEN
 62
           1
100
AcDbLine
 10
686.287109
 20
533.626648
 30
0.0
 11
686.287109
 21
516.626648
 31
0.0
  0
LINE
  5
8C
100
AcDbEntity
  8
LC-003-002-----0
  6
AUSGEZOGEN
 62
           1
100
AcDbLine
 10
686.287109
 20
498.626648
 30
0.0
 11
686.287109
 21
392.626648
 31
0.0
  0
LINE
  5
8D
100
AcDbEntity
  8
LC-003-002-----0
  6
AUSGEZOGEN
 62
           1
100
AcDbLine
 10
686.287109
 20
374.626648
 30
0.0
 11
686.287109
 21
357.626648
 31
0.0
  0
LINE
  5
8E
100
AcDbEntity
  8
LC-003-002-----0
  6
AUSGEZOGEN
 62
           1
100
AcDbLine
 10
648.739502
 20
673.587341
 30
0.0
 11
653.388306
 21
683.556702
 31
0.0
  0
LINE
  5
8F
100
AcDbEntity
  8
LC-003-002-----0
  6
AUSGEZOGEN
 62
           1
100
AcDbLine
 10
631.834717
 20
673.587341
 30
0.0
 11
627.185974
 21
683.556702
 31
0.0
  0
LINE
  5
90
100
AcDbEntity
  8
LC-003-002-----0
  6
AUSGEZOGEN
 62
           1
100
AcDbLine
 10
655.208984
 20
687.461182
 30
0.0
 11
686.287109
 21
687.461182
 31
0.0
  0
LINE
  5
91
100
AcDbEntity
  8
LC-003-002-----0
  6
AUSGEZOGEN
 62
           1
100
AcDbLine
 10
627.185974
 20
683.556702
 30
0.0
 11
625.365295
 21
687.461182
 31
0.0
  0
LINE
  5
92
100
AcDbEntity
  8
LC-003-002-----0
  6
AUSGEZOGEN
 62
           1
100
AcDbLine
 10
653.388306
 20
683.556702
 30
0.0
 11
655.208984
 21
687.461182
 31
0.0
  0
LINE
  5
93
100
AcDbEntity
  8
LC-003-002-----0
  6
AUSGEZOGEN
 62
           1
100
AcDbLine
 10
625.365295
 20
533.626648
 30
0.0
 11
625.365295
 21
357.626648
 31
0.0
  0
LINE
  5
94
100
AcDbEntity
  8
LC-003-002-----0
  6
AUSGEZOGEN
 62
           1
100
AcDbLine
 10
627.185974
 20
533.626648
 30
0.0
 11
627.185974
 21
453.626648
 31
0.0
  0
LINE
  5
95
100
AcDbEntity
  8
LC-003-002-----0
  6
AUSGEZOGEN
 62
           1
100
AcDbLine
 10
655.208984
 20
533.626648
 30
0.0
 11
655.208984
 21
357.626648
 31
0.0
  0
LINE
  5
96
100
AcDbEntity
  8
LC-003-002-----0
  6
AUSGEZOGEN
 62
           1
100
AcDbLine
 10
653.388306
 20
533.626648
 30
0.0
 11
653.388306
 21
453.626648
 31
0.0
  0
LINE
  5
97
100
AcDbEntity
  8
LC-003-002-----0
  6
AUSGEZOGEN
 62
           1
100
AcDbLine
 10
631.834717
 20
533.626648
 30
0.0
 11
631.834717
 21
453.626648
 31
0.0
  0
LINE
  5
98
100
AcDbEntity
  8
LC-003-002-----0
  6
AUSGEZOGEN
 62
           1
100
AcDbLine
 10
648.739502
 20
533.626648
 30
0.0
 11
648.739502
 21
453.626648
 31
0.0
  0
LINE
  5
99
100
AcDbEntity
  8
LC-003-002-----0
  6
AUSGEZOGEN
 62
           1
100
AcDbLine
 10
631.834717
 20
437.626648
 30
0.0
 11
631.834717
 21
357.626648
 31
0.0
  0
LINE
  5
9A
100
AcDbEntity
  8
LC-003-002-----0
  6
AUSGEZOGEN
 62
           1
100
AcDbLine
 10
627.185974
 20
437.626648
 30
0.0
 11
627.185974
 21
357.626648
 31
0.0
  0
LINE
  5
9B
100
AcDbEntity
  8
LC-003-002-----0
  6
AUSGEZOGEN
 62
           1
100
AcDbLine
 10
648.739502
 20
437.626648
 30
0.0
 11
648.739502
 21
357.626648
 31
0.0
  0
LINE
  5
9C
100
AcDbEntity
  8
LC-003-002-----0
  6
AUSGEZOGEN
 62
           1
100
AcDbLine
 10
653.388306
 20
437.626648
 30
0.0
 11
653.388306
 21
357.626648
 31
0.0
  0
LINE
  5
9D
100
AcDbEntity
  8
LC-003-002-----0
  6
AUSGEZOGEN
 62
           1
100
AcDbLine
 10
625.365295
 20
453.626648
 30
0.0
 11
631.834717
 21
453.626648
 31
0.0
  0
LINE
  5
9E
100
AcDbEntity
  8
LC-004-006-----0
  6
STRICHLINIE
 62
           2
100
AcDbLine
 10
631.834717
 20
453.626648
 30
0.0
 11
648.739502
 21
453.626648
 31
0.0
  0
LINE
  5
9F
100
AcDbEntity
  8
LC-003-002-----0
  6
AUSGEZOGEN
 62
           1
100
AcDbLine
 10
625.365295
 20
437.626648
 30
0.0
 11
631.834717
 21
437.626648
 31
0.0
  0
LINE
  5
A0
100
AcDbEntity
  8
LC-004-006-----0
  6
STRICHLINIE
 62
           2
100
AcDbLine
 10
631.834717
 20
437.626648
 30
0.0
 11
648.739502
 21
437.626648
 31
0.0
  0
LINE
  5
A1
100
AcDbEntity
  8
LC-003-002-----0
  6
AUSGEZOGEN
 62
           1
100
AcDbLine
 10
648.739502
 20
437.626648
 30
0.0
 11
655.208984
 21
437.626648
 31
0.0
  0
LINE
  5
A2
100
AcDbEntity
  8
LC-004-006-----0
  6
STRICHLINIE
 62
           2
100
AcDbLine
 10
655.208984
 20
437.626648
 30
0.0
 11
671.287109
 21
437.626648
 31
0.0
  0
LINE
  5
A3
100
AcDbEntity
  8
LC-003-002-----0
  6
AUSGEZOGEN
 62
           1
100
AcDbLine
 10
648.739502
 20
453.626648
 30
0.0
 11
655.208984
 21
453.626648
 31
0.0
  0
LINE
  5
A4
100
AcDbEntity
  8
LC-004-006-----0
  6
STRICHLINIE
 62
           2
100
AcDbLine
 10
655.208984
 20
453.626648
 30
0.0
 11
671.287109
 21
453.626648
 31
0.0
  0
LINE
  5
A5
100
AcDbEntity
  8
LC-004-006-----0
  6
STRICHLINIE
 62
           2
100
AcDbLine
 10
754.619385
 20
673.587341
 30
0.0
 11
834.619385
 21
673.587341
 31
0.0
  0
LINE
  5
A6
100
AcDbEntity
  8
LC-004-006-----0
  6
STRICHLINIE
 62
           2
100
AcDbLine
 10
850.619385
 20
673.587341
 30
0.0
 11
930.619385
 21
673.587341
 31
0.0
  0
LINE
  5
A7
100
AcDbEntity
  8
LC-004-006-----0
  6
STRICHLINIE
 62
           2
100
AcDbLine
 10
609.287109
 20
453.626648
 30
0.0
 11
609.287109
 21
437.626648
 31
0.0
  0
LINE
  5
A8
100
AcDbEntity
  8
LC-004-006-----0
  6
STRICHLINIE
 62
           2
100
AcDbLine
 10
609.287109
 20
437.626648
 30
0.0
 11
609.287109
 21
357.626648
 31
0.0
  0
LINE
  5
A9
100
AcDbEntity
  8
LC-004-006-----0
  6
STRICHLINIE
 62
           2
100
AcDbLine
 10
671.287109
 20
453.626648
 30
0.0
 11
671.287109
 21
437.626648
 31
0.0
  0
LINE
  5
AA
100
AcDbEntity
  8
LC-004-006-----0
  6
STRICHLINIE
 62
           2
100
AcDbLine
 10
671.287109
 20
437.626648
 30
0.0
 11
671.287109
 21
357.626648
 31
0.0
  0
LINE
  5
AB
100
AcDbEntity
  8
LC-004-006-----0
  6
STRICHLINIE
 62
           2
100
AcDbLine
 10
834.619385
 20
624.461182
 30
0.0
 11
850.619385
 21
624.461182
 31
0.0
  0
LINE
  5
AC
100
AcDbEntity
  8
LC-004-006-----0
  6
STRICHLINIE
 62
           2
100
AcDbLine
 10
850.619385
 20
624.461182
 30
0.0
 11
930.619385
 21
624.461182
 31
0.0
  0
LINE
  5
AD
100
AcDbEntity
  8
LC-004-006-----0
  6
STRICHLINIE
 62
           2
100
AcDbLine
 10
850.619385
 20
683.556702
 30
0.0
 11
930.619385
 21
683.556702
 31
0.0
  0
LINE
  5
AE
100
AcDbEntity
  8
LC-004-006-----0
  6
STRICHLINIE
 62
           2
100
AcDbLine
 10
677.487122
 20
660.461182
 30
0.0
 11
694.287109
 21
660.461182
 31
0.0
  0
LINE
  5
AF
100
AcDbEntity
  8
LC-004-006-----0
  6
STRICHLINIE
 62
           2
100
AcDbLine
 10
676.987122
 20
655.961182
 30
0.0
 11
671.487122
 21
655.961182
 31
0.0
  0
LINE
  5
B0
100
AcDbEntity
  8
LC-004-006-----0
  6
STRICHLINIE
 62
           2
100
AcDbLine
 10
676.987122
 20
651.961182
 30
0.0
 11
671.487122
 21
651.961182
 31
0.0
  0
LINE
  5
B1
100
AcDbEntity
  8
LC-004-006-----0
  6
STRICHLINIE
 62
           2
100
AcDbLine
 10
671.737122
 20
656.461182
 30
0.0
 11
676.987122
 21
656.461182
 31
0.0
  0
LINE
  5
B2
100
AcDbEntity
  8
LC-004-006-----0
  6
STRICHLINIE
 62
           2
100
AcDbLine
 10
676.987122
 20
651.461182
 30
0.0
 11
671.737122
 21
651.461182
 31
0.0
  0
LINE
  5
B3
100
AcDbEntity
  8
LC-004-006-----0
  6
STRICHLINIE
 62
           2
100
AcDbLine
 10
679.487122
 20
651.411194
 30
0.0
 11
679.487122
 21
656.511169
 31
0.0
  0
LINE
  5
B4
100
AcDbEntity
  8
LC-004-006-----0
  6
STRICHLINIE
 62
           2
100
AcDbLine
 10
668.387085
 20
652.461182
 30
0.0
 11
668.387085
 21
655.461182
 31
0.0
  0
LINE
  5
B5
100
AcDbEntity
  8
LC-004-006-----0
  6
STRICHLINIE
 62
           2
100
AcDbLine
 10
671.487122
 20
656.211182
 30
0.0
 11
671.737122
 21
656.461182
 31
0.0
  0
LINE
  5
B6
100
AcDbEntity
  8
LC-004-006-----0
  6
STRICHLINIE
 62
           2
100
AcDbLine
 10
671.737122
 20
651.461182
 30
0.0
 11
671.487122
 21
651.711182
 31
0.0
  0
LINE
  5
B7
100
AcDbEntity
  8
LC-004-006-----0
  6
STRICHLINIE
 62
           2
100
AcDbLine
 10
671.737122
 20
651.461182
 30
0.0
 11
671.737122
 21
656.461182
 31
0.0
  0
LINE
  5
B8
100
AcDbEntity
  8
LC-004-006-----0
  6
STRICHLINIE
 62
           2
100
AcDbLine
 10
677.487122
 20
647.461182
 30
0.0
 11
677.487122
 21
660.461182
 31
0.0
  0
LINE
  5
B9
100
AcDbEntity
  8
LC-004-006-----0
  6
STRICHLINIE
 62
           2
100
AcDbLine
 10
679.34021
 20
657.261169
 30
0.0
 11
677.487122
 21
657.261169
 31
0.0
  0
LINE
  5
BA
100
AcDbEntity
  8
LC-004-006-----0
  6
STRICHLINIE
 62
           2
100
AcDbLine
 10
679.34021
 20
650.661194
 30
0.0
 11
677.487122
 21
650.661194
 31
0.0
  0
LINE
  5
BB
100
AcDbEntity
  8
LC-004-006-----0
  6
STRICHLINIE
 62
           2
100
AcDbLine
 10
679.34021
 20
655.761169
 30
0.0
 11
677.487122
 21
655.761169
 31
0.0
  0
LINE
  5
BC
100
AcDbEntity
  8
LC-004-006-----0
  6
STRICHLINIE
 62
           2
100
AcDbLine
 10
679.34021
 20
652.161194
 30
0.0
 11
677.487122
 21
652.161194
 31
0.0
  0
LINE
  5
BD
100
AcDbEntity
  8
LC-004-006-----0
  6
STRICHLINIE
 62
           2
100
AcDbLine
 10
671.487122
 20
651.711182
 30
0.0
 11
671.487122
 21
656.211182
 31
0.0
  0
ARC
  5
BE
100
AcDbEntity
  8
LC-004-006-----0
  6
STRICHLINIE
 62
           2
100
AcDbCircle
 10
668.387085
 20
653.961182
 30
0.0
 40
11.1
100
AcDbArc
 50
350.667582
 51
9.332418
  0
ARC
  5
BF
100
AcDbEntity
  8
LC-004-006-----0
  6
STRICHLINIE
 62
           2
100
AcDbCircle
 10
677.487122
 20
651.411194
 30
0.0
 40
1.999103
100
AcDbArc
 50
337.965285999999
 51
22.034714
  0
LINE
  5
C0
100
AcDbEntity
  8
LC-004-006-----0
  6
STRICHLINIE
 62
           2
100
AcDbLine
 10
671.487122
 20
655.711182
 30
0.0
 11
668.637085
 21
655.711182
 31
0.0
  0
ARC
  5
C1
100
AcDbEntity
  8
LC-004-006-----0
  6
STRICHLINIE
 62
           2
100
AcDbCircle
 10
677.487122
 20
656.511169
 30
0.0
 40
1.999103
100
AcDbArc
 50
337.965285999999
 51
22.034714
  0
LINE
  5
C2
100
AcDbEntity
  8
LC-004-006-----0
  6
STRICHLINIE
 62
           2
100
AcDbLine
 10
676.987122
 20
651.461182
 30
0.0
 11
676.987122
 21
656.461182
 31
0.0
  0
LINE
  5
C3
100
AcDbEntity
  8
LC-004-006-----0
  6
STRICHLINIE
 62
           2
100
AcDbLine
 10
677.487122
 20
656.161194
 30
0.0
 11
676.987122
 21
656.161194
 31
0.0
  0
LINE
  5
C4
100
AcDbEntity
  8
LC-004-006-----0
  6
STRICHLINIE
 62
           2
100
AcDbLine
 10
677.487122
 20
651.761169
 30
0.0
 11
676.987122
 21
651.761169
 31
0.0
  0
LINE
  5
C5
100
AcDbEntity
  8
LC-004-006-----0
  6
STRICHLINIE
 62
           2
100
AcDbLine
 10
671.487122
 20
652.211182
 30
0.0
 11
668.637085
 21
652.211182
 31
0.0
  0
ARC
  5
C6
100
AcDbEntity
  8
LC-004-006-----0
  6
STRICHLINIE
 62
           2
100
AcDbCircle
 10
668.637085
 20
655.461182
 30
0.0
 40
0.25
100
AcDbArc
 50
90.000003000011
 51
180.000009000006
  0
ARC
  5
C7
100
AcDbEntity
  8
LC-004-006-----0
  6
STRICHLINIE
 62
           2
100
AcDbCircle
 10
668.637085
 20
652.461182
 30
0.0
 40
0.25
100
AcDbArc
 50
180.000009000006
 51
269.999996999989
  0
LINE
  5
C8
100
AcDbEntity
  8
LC-004-006-----0
  6
STRICHLINIE
 62
           2
100
AcDbLine
 10
677.487122
 20
647.461182
 30
0.0
 11
694.287109
 21
647.461182
 31
0.0
  0
LINE
  5
C9
100
AcDbEntity
  8
LC-006-012-----0
  6
STRICHPUNKT
 62
           2
100
AcDbLine
 10
667.213074
 20
653.961182
 30
0.0
 11
696.616028
 21
653.961182
 31
0.0
  0
LINE
  5
CA
100
AcDbEntity
  8
LC-004-006-----0
  6
STRICHLINIE
 62
           2
100
AcDbLine
 10
603.087097
 20
500.126648
 30
0.0
 11
586.287109
 21
500.126648
 31
0.0
  0
LINE
  5
CB
100
AcDbEntity
  8
LC-006-012-----0
  6
STRICHPUNKT
 62
           2
100
AcDbLine
 10
794.619385
 20
644.458191
 30
0.0
 11
794.619385
 21
663.913208
 31
0.0
  0
CIRCLE
  5
CC
100
AcDbEntity
  8
LC-003-002-----0
  6
AUSGEZOGEN
 62
           1
100
AcDbCircle
 10
794.619385
 20
653.961182
 30
0.0
 40
6.5
  0
LINE
  5
CD
100
AcDbEntity
  8
LC-003-002-----0
  6
AUSGEZOGEN
 62
           1
100
AcDbLine
 10
791.759399
 20
652.309937
 30
0.0
 11
794.619385
 21
650.658752
 31
0.0
  0
LINE
  5
CE
100
AcDbEntity
  8
LC-003-002-----0
  6
AUSGEZOGEN
 62
           1
100
AcDbLine
 10
794.619385
 20
657.263611
 30
0.0
 11
797.479431
 21
655.612366
 31
0.0
  0
LINE
  5
CF
100
AcDbEntity
  8
LC-003-002-----0
  6
AUSGEZOGEN
 62
           1
100
AcDbLine
 10
791.759399
 20
655.612366
 30
0.0
 11
791.759399
 21
652.309937
 31
0.0
  0
LINE
  5
D0
100
AcDbEntity
  8
LC-003-002-----0
  6
AUSGEZOGEN
 62
           1
100
AcDbLine
 10
797.479431
 20
655.612366
 30
0.0
 11
797.479431
 21
652.309937
 31
0.0
  0
LINE
  5
D1
100
AcDbEntity
  8
LC-003-002-----0
  6
AUSGEZOGEN
 62
           1
100
AcDbLine
 10
794.619385
 20
657.263611
 30
0.0
 11
791.759399
 21
655.612366
 31
0.0
  0
LINE
  5
D2
100
AcDbEntity
  8
LC-003-002-----0
  6
AUSGEZOGEN
 62
           1
100
AcDbLine
 10
797.479431
 20
652.309937
 30
0.0
 11
794.619385
 21
650.658752
 31
0.0
  0
CIRCLE
  5
D3
100
AcDbEntity
  8
LC-003-002-----0
  6
AUSGEZOGEN
 62
           1
100
AcDbCircle
 10
794.619385
 20
653.961182
 30
0.0
 40
2.86
  0
LINE
  5
D4
100
AcDbEntity
  8
LC-006-012-----0
  6
STRICHPUNKT
 62
           2
100
AcDbLine
 10
786.164001
 20
653.961182
 30
0.0
 11
803.00531
 21
653.961182
 31
0.0
  0
LINE
  5
D5
100
AcDbEntity
  8
LC-004-006-----0
  6
STRICHLINIE
 62
           2
100
AcDbLine
 10
603.587097
 20
495.626648
 30
0.0
 11
609.087097
 21
495.626648
 31
0.0
  0
LINE
  5
D6
100
AcDbEntity
  8
LC-004-006-----0
  6
STRICHLINIE
 62
           2
100
AcDbLine
 10
677.487122
 20
404.126648
 30
0.0
 11
694.287109
 21
404.126648
 31
0.0
  0
LINE
  5
D7
100
AcDbEntity
  8
LC-004-006-----0
  6
STRICHLINIE
 62
           2
100
AcDbLine
 10
676.987122
 20
399.626648
 30
0.0
 11
671.487122
 21
399.626648
 31
0.0
  0
LINE
  5
D8
100
AcDbEntity
  8
LC-004-006-----0
  6
STRICHLINIE
 62
           2
100
AcDbLine
 10
676.987122
 20
395.626648
 30
0.0
 11
671.487122
 21
395.626648
 31
0.0
  0
LINE
  5
D9
100
AcDbEntity
  8
LC-004-006-----0
  6
STRICHLINIE
 62
           2
100
AcDbLine
 10
671.737122
 20
400.126648
 30
0.0
 11
676.987122
 21
400.126648
 31
0.0
  0
LINE
  5
DA
100
AcDbEntity
  8
LC-004-006-----0
  6
STRICHLINIE
 62
           2
100
AcDbLine
 10
676.987122
 20
395.126648
 30
0.0
 11
671.737122
 21
395.126648
 31
0.0
  0
LINE
  5
DB
100
AcDbEntity
  8
LC-004-006-----0
  6
STRICHLINIE
 62
           2
100
AcDbLine
 10
679.487122
 20
395.07663
 30
0.0
 11
679.487122
 21
400.176636
 31
0.0
  0
LINE
  5
DC
100
AcDbEntity
  8
LC-004-006-----0
  6
STRICHLINIE
 62
           2
100
AcDbLine
 10
668.387085
 20
396.126648
 30
0.0
 11
668.387085
 21
399.126648
 31
0.0
  0
LINE
  5
DD
100
AcDbEntity
  8
LC-004-006-----0
  6
STRICHLINIE
 62
           2
100
AcDbLine
 10
671.487122
 20
399.876648
 30
0.0
 11
671.737122
 21
400.126648
 31
0.0
  0
LINE
  5
DE
100
AcDbEntity
  8
LC-004-006-----0
  6
STRICHLINIE
 62
           2
100
AcDbLine
 10
671.737122
 20
395.126648
 30
0.0
 11
671.487122
 21
395.376648
 31
0.0
  0
LINE
  5
DF
100
AcDbEntity
  8
LC-004-006-----0
  6
STRICHLINIE
 62
           2
100
AcDbLine
 10
671.737122
 20
395.126648
 30
0.0
 11
671.737122
 21
400.126648
 31
0.0
  0
LINE
  5
E0
100
AcDbEntity
  8
LC-004-006-----0
  6
STRICHLINIE
 62
           2
100
AcDbLine
 10
677.487122
 20
391.126648
 30
0.0
 11
677.487122
 21
404.126648
 31
0.0
  0
LINE
  5
E1
100
AcDbEntity
  8
LC-004-006-----0
  6
STRICHLINIE
 62
           2
100
AcDbLine
 10
679.34021
 20
400.926636
 30
0.0
 11
677.487122
 21
400.926636
 31
0.0
  0
LINE
  5
E2
100
AcDbEntity
  8
LC-004-006-----0
  6
STRICHLINIE
 62
           2
100
AcDbLine
 10
679.34021
 20
394.32663
 30
0.0
 11
677.487122
 21
394.32663
 31
0.0
  0
LINE
  5
E3
100
AcDbEntity
  8
LC-004-006-----0
  6
STRICHLINIE
 62
           2
100
AcDbLine
 10
679.34021
 20
399.426636
 30
0.0
 11
677.487122
 21
399.426636
 31
0.0
  0
LINE
  5
E4
100
AcDbEntity
  8
LC-004-006-----0
  6
STRICHLINIE
 62
           2
100
AcDbLine
 10
679.34021
 20
395.82663
 30
0.0
 11
677.487122
 21
395.82663
 31
0.0
  0
LINE
  5
E5
100
AcDbEntity
  8
LC-004-006-----0
  6
STRICHLINIE
 62
           2
100
AcDbLine
 10
671.487122
 20
395.376648
 30
0.0
 11
671.487122
 21
399.876648
 31
0.0
  0
ARC
  5
E6
100
AcDbEntity
  8
LC-004-006-----0
  6
STRICHLINIE
 62
           2
100
AcDbCircle
 10
668.387085
 20
397.626648
 30
0.0
 40
11.1
100
AcDbArc
 50
350.667582
 51
9.332418
  0
ARC
  5
E7
100
AcDbEntity
  8
LC-004-006-----0
  6
STRICHLINIE
 62
           2
100
AcDbCircle
 10
677.487122
 20
395.07663
 30
0.0
 40
1.999103
100
AcDbArc
 50
337.965286000001
 51
22.034714
  0
LINE
  5
E8
100
AcDbEntity
  8
LC-004-006-----0
  6
STRICHLINIE
 62
           2
100
AcDbLine
 10
671.487122
 20
399.376648
 30
0.0
 11
668.637085
 21
399.376648
 31
0.0
  0
ARC
  5
E9
100
AcDbEntity
  8
LC-004-006-----0
  6
STRICHLINIE
 62
           2
100
AcDbCircle
 10
677.487122
 20
400.176636
 30
0.0
 40
1.999103
100
AcDbArc
 50
337.965286000001
 51
22.034714
  0
LINE
  5
EA
100
AcDbEntity
  8
LC-004-006-----0
  6
STRICHLINIE
 62
           2
100
AcDbLine
 10
676.987122
 20
395.126648
 30
0.0
 11
676.987122
 21
400.126648
 31
0.0
  0
LINE
  5
EB
100
AcDbEntity
  8
LC-004-006-----0
  6
STRICHLINIE
 62
           2
100
AcDbLine
 10
677.487122
 20
399.82663
 30
0.0
 11
676.987122
 21
399.82663
 31
0.0
  0
LINE
  5
EC
100
AcDbEntity
  8
LC-004-006-----0
  6
STRICHLINIE
 62
           2
100
AcDbLine
 10
677.487122
 20
395.426636
 30
0.0
 11
676.987122
 21
395.426636
 31
0.0
  0
LINE
  5
ED
100
AcDbEntity
  8
LC-004-006-----0
  6
STRICHLINIE
 62
           2
100
AcDbLine
 10
671.487122
 20
395.876648
 30
0.0
 11
668.637085
 21
395.876648
 31
0.0
  0
ARC
  5
EE
100
AcDbEntity
  8
LC-004-006-----0
  6
STRICHLINIE
 62
           2
100
AcDbCircle
 10
668.637085
 20
399.126648
 30
0.0
 40
0.25
100
AcDbArc
 50
90.000003000011
 51
180.000009000006
  0
ARC
  5
EF
100
AcDbEntity
  8
LC-004-006-----0
  6
STRICHLINIE
 62
           2
100
AcDbCircle
 10
668.637085
 20
396.126648
 30
0.0
 40
0.25
100
AcDbArc
 50
180.000009000006
 51
269.999996999989
  0
LINE
  5
F0
100
AcDbEntity
  8
LC-004-006-----0
  6
STRICHLINIE
 62
           2
100
AcDbLine
 10
677.487122
 20
391.126648
 30
0.0
 11
694.287109
 21
391.126648
 31
0.0
  0
LINE
  5
F1
100
AcDbEntity
  8
LC-006-012-----0
  6
STRICHPUNKT
 62
           2
100
AcDbLine
 10
667.213074
 20
397.626648
 30
0.0
 11
696.616028
 21
397.626648
 31
0.0
  0
LINE
  5
F2
100
AcDbEntity
  8
LC-004-006-----0
  6
STRICHLINIE
 62
           2
100
AcDbLine
 10
603.087097
 20
660.461182
 30
0.0
 11
586.287109
 21
660.461182
 31
0.0
  0
LINE
  5
F3
100
AcDbEntity
  8
LC-004-006-----0
  6
STRICHLINIE
 62
           2
100
AcDbLine
 10
603.587097
 20
655.961182
 30
0.0
 11
609.087097
 21
655.961182
 31
0.0
  0
LINE
  5
F4
100
AcDbEntity
  8
LC-004-006-----0
  6
STRICHLINIE
 62
           2
100
AcDbLine
 10
603.587097
 20
651.961182
 30
0.0
 11
609.087097
 21
651.961182
 31
0.0
  0
LINE
  5
F5
100
AcDbEntity
  8
LC-004-006-----0
  6
STRICHLINIE
 62
           2
100
AcDbLine
 10
608.837097
 20
656.461182
 30
0.0
 11
603.587097
 21
656.461182
 31
0.0
  0
LINE
  5
F6
100
AcDbEntity
  8
LC-004-006-----0
  6
STRICHLINIE
 62
           2
100
AcDbLine
 10
603.587097
 20
651.461182
 30
0.0
 11
608.837097
 21
651.461182
 31
0.0
  0
LINE
  5
F7
100
AcDbEntity
  8
LC-004-006-----0
  6
STRICHLINIE
 62
           2
100
AcDbLine
 10
601.087097
 20
651.411194
 30
0.0
 11
601.087097
 21
656.511169
 31
0.0
  0
LINE
  5
F8
100
AcDbEntity
  8
LC-004-006-----0
  6
STRICHLINIE
 62
           2
100
AcDbLine
 10
612.187134
 20
652.461182
 30
0.0
 11
612.187134
 21
655.461182
 31
0.0
  0
LINE
  5
F9
100
AcDbEntity
  8
LC-004-006-----0
  6
STRICHLINIE
 62
           2
100
AcDbLine
 10
609.087097
 20
656.211182
 30
0.0
 11
608.837097
 21
656.461182
 31
0.0
  0
LINE
  5
FA
100
AcDbEntity
  8
LC-004-006-----0
  6
STRICHLINIE
 62
           2
100
AcDbLine
 10
608.837097
 20
651.461182
 30
0.0
 11
609.087097
 21
651.711182
 31
0.0
  0
LINE
  5
FB
100
AcDbEntity
  8
LC-004-006-----0
  6
STRICHLINIE
 62
           2
100
AcDbLine
 10
608.837097
 20
651.461182
 30
0.0
 11
608.837097
 21
656.461182
 31
0.0
  0
LINE
  5
FC
100
AcDbEntity
  8
LC-004-006-----0
  6
STRICHLINIE
 62
           2
100
AcDbLine
 10
603.087097
 20
647.461182
 30
0.0
 11
603.087097
 21
660.461182
 31
0.0
  0
LINE
  5
FD
100
AcDbEntity
  8
LC-004-006-----0
  6
STRICHLINIE
 62
           2
100
AcDbLine
 10
601.234009
 20
657.261169
 30
0.0
 11
603.087097
 21
657.261169
 31
0.0
  0
LINE
  5
FE
100
AcDbEntity
  8
LC-004-006-----0
  6
STRICHLINIE
 62
           2
100
AcDbLine
 10
601.234009
 20
650.661194
 30
0.0
 11
603.087097
 21
650.661194
 31
0.0
  0
LINE
  5
FF
100
AcDbEntity
  8
LC-004-006-----0
  6
STRICHLINIE
 62
           2
100
AcDbLine
 10
601.234009
 20
655.761169
 30
0.0
 11
603.087097
 21
655.761169
 31
0.0
  0
LINE
  5
100
100
AcDbEntity
  8
LC-004-006-----0
  6
STRICHLINIE
 62
           2
100
AcDbLine
 10
601.234009
 20
652.161194
 30
0.0
 11
603.087097
 21
652.161194
 31
0.0
  0
LINE
  5
101
100
AcDbEntity
  8
LC-004-006-----0
  6
STRICHLINIE
 62
           2
100
AcDbLine
 10
609.087097
 20
651.711182
 30
0.0
 11
609.087097
 21
656.211182
 31
0.0
  0
ARC
  5
102
100
AcDbEntity
  8
LC-004-006-----0
  6
STRICHLINIE
 62
           2
100
AcDbCircle
 10
612.187134
 20
653.961182
 30
0.0
 40
11.1
100
AcDbArc
 50
170.667576
 51
189.332424
  0
ARC
  5
103
100
AcDbEntity
  8
LC-004-006-----0
  6
STRICHLINIE
 62
           2
100
AcDbCircle
 10
603.087097
 20
651.411194
 30
0.0
 40
1.999103
100
AcDbArc
 50
157.965282000001
 51
202.034717999999
  0
LINE
  5
104
100
AcDbEntity
  8
LC-004-006-----0
  6
STRICHLINIE
 62
           2
100
AcDbLine
 10
609.087097
 20
655.711182
 30
0.0
 11
611.937134
 21
655.711182
 31
0.0
  0
ARC
  5
105
100
AcDbEntity
  8
LC-004-006-----0
  6
STRICHLINIE
 62
           2
100
AcDbCircle
 10
603.087097
 20
656.511169
 30
0.0
 40
1.999103
100
AcDbArc
 50
157.965282000001
 51
202.034717999999
  0
LINE
  5
106
100
AcDbEntity
  8
LC-004-006-----0
  6
STRICHLINIE
 62
           2
100
AcDbLine
 10
603.587097
 20
651.461182
 30
0.0
 11
603.587097
 21
656.461182
 31
0.0
  0
LINE
  5
107
100
AcDbEntity
  8
LC-004-006-----0
  6
STRICHLINIE
 62
           2
100
AcDbLine
 10
603.087097
 20
656.161194
 30
0.0
 11
603.587097
 21
656.161194
 31
0.0
  0
LINE
  5
108
100
AcDbEntity
  8
LC-004-006-----0
  6
STRICHLINIE
 62
           2
100
AcDbLine
 10
603.087097
 20
651.761169
 30
0.0
 11
603.587097
 21
651.761169
 31
0.0
  0
LINE
  5
109
100
AcDbEntity
  8
LC-004-006-----0
  6
STRICHLINIE
 62
           2
100
AcDbLine
 10
609.087097
 20
652.211182
 30
0.0
 11
611.937134
 21
652.211182
 31
0.0
  0
ARC
  5
10A
100
AcDbEntity
  8
LC-004-006-----0
  6
STRICHLINIE
 62
           2
100
AcDbCircle
 10
611.937134
 20
655.461182
 30
0.0
 40
0.25
100
AcDbArc
 50
0.0
 51
90.000003000011
  0
ARC
  5
10B
100
AcDbEntity
  8
LC-004-006-----0
  6
STRICHLINIE
 62
           2
100
AcDbCircle
 10
611.937134
 20
652.461182
 30
0.0
 40
0.25
100
AcDbArc
 50
269.999996999989
 51
0.0
  0
LINE
  5
10C
100
AcDbEntity
  8
LC-004-006-----0
  6
STRICHLINIE
 62
           2
100
AcDbLine
 10
603.087097
 20
647.461182
 30
0.0
 11
586.287109
 21
647.461182
 31
0.0
  0
LINE
  5
10D
100
AcDbEntity
  8
LC-006-012-----0
  6
STRICHPUNKT
 62
           2
100
AcDbLine
 10
613.361145
 20
653.961182
 30
0.0
 11
583.958252
 21
653.961182
 31
0.0
  0
LINE
  5
10E
100
AcDbEntity
  8
LC-006-012-----0
  6
STRICHPUNKT
 62
           2
100
AcDbLine
 10
890.619385
 20
644.458191
 30
0.0
 11
890.619385
 21
663.913208
 31
0.0
  0
CIRCLE
  5
10F
100
AcDbEntity
  8
LC-004-006-----0
  6
STRICHLINIE
 62
           2
100
AcDbCircle
 10
890.619385
 20
653.961182
 30
0.0
 40
6.5
  0
LINE
  5
110
100
AcDbEntity
  8
LC-004-006-----0
  6
STRICHLINIE
 62
           2
100
AcDbLine
 10
887.759399
 20
652.309937
 30
0.0
 11
890.619385
 21
650.658752
 31
0.0
  0
LINE
  5
111
100
AcDbEntity
  8
LC-004-006-----0
  6
STRICHLINIE
 62
           2
100
AcDbLine
 10
890.619385
 20
657.263611
 30
0.0
 11
893.479431
 21
655.612366
 31
0.0
  0
LINE
  5
112
100
AcDbEntity
  8
LC-004-006-----0
  6
STRICHLINIE
 62
           2
100
AcDbLine
 10
887.759399
 20
655.612366
 30
0.0
 11
887.759399
 21
652.309937
 31
0.0
  0
LINE
  5
113
100
AcDbEntity
  8
LC-004-006-----0
  6
STRICHLINIE
 62
           2
100
AcDbLine
 10
893.479431
 20
655.612366
 30
0.0
 11
893.479431
 21
652.309937
 31
0.0
  0
LINE
  5
114
100
AcDbEntity
  8
LC-004-006-----0
  6
STRICHLINIE
 62
           2
100
AcDbLine
 10
890.619385
 20
657.263611
 30
0.0
 11
887.759399
 21
655.612366
 31
0.0
  0
LINE
  5
115
100
AcDbEntity
  8
LC-004-006-----0
  6
STRICHLINIE
 62
           2
100
AcDbLine
 10
893.479431
 20
652.309937
 30
0.0
 11
890.619385
 21
650.658752
 31
0.0
  0
CIRCLE
  5
116
100
AcDbEntity
  8
LC-004-006-----0
  6
STRICHLINIE
 62
           2
100
AcDbCircle
 10
890.619385
 20
653.961182
 30
0.0
 40
2.86
  0
LINE
  5
117
100
AcDbEntity
  8
LC-006-012-----0
  6
STRICHPUNKT
 62
           2
100
AcDbLine
 10
882.164001
 20
653.961182
 30
0.0
 11
899.00531
 21
653.961182
 31
0.0
  0
LINE
  5
118
100
AcDbEntity
  8
LC-006-012-----0
  6
STRICHPUNKT
 62
           2
100
AcDbLine
 10
613.361145
 20
493.626648
 30
0.0
 11
583.958252
 21
493.626648
 31
0.0
  0
LINE
  5
119
100
AcDbEntity
  8
LC-004-006-----0
  6
STRICHLINIE
 62
           2
100
AcDbLine
 10
603.087097
 20
487.126648
 30
0.0
 11
586.287109
 21
487.126648
 31
0.0
  0
ARC
  5
11A
100
AcDbEntity
  8
LC-004-006-----0
  6
STRICHLINIE
 62
           2
100
AcDbCircle
 10
611.937134
 20
492.126648
 30
0.0
 40
0.25
100
AcDbArc
 50
269.999996999989
 51
0.0
  0
ARC
  5
11B
100
AcDbEntity
  8
LC-004-006-----0
  6
STRICHLINIE
 62
           2
100
AcDbCircle
 10
611.937134
 20
495.126648
 30
0.0
 40
0.25
100
AcDbArc
 50
0.0
 51
90.000003000011
  0
LINE
  5
11C
100
AcDbEntity
  8
LC-004-006-----0
  6
STRICHLINIE
 62
           2
100
AcDbLine
 10
609.087097
 20
491.876648
 30
0.0
 11
611.937134
 21
491.876648
 31
0.0
  0
LINE
  5
11D
100
AcDbEntity
  8
LC-004-006-----0
  6
STRICHLINIE
 62
           2
100
AcDbLine
 10
603.087097
 20
491.426636
 30
0.0
 11
603.587097
 21
491.426636
 31
0.0
  0
LINE
  5
11E
100
AcDbEntity
  8
LC-004-006-----0
  6
STRICHLINIE
 62
           2
100
AcDbLine
 10
603.087097
 20
495.82663
 30
0.0
 11
603.587097
 21
495.82663
 31
0.0
  0
LINE
  5
11F
100
AcDbEntity
  8
LC-004-006-----0
  6
STRICHLINIE
 62
           2
100
AcDbLine
 10
603.587097
 20
491.626648
 30
0.0
 11
609.087097
 21
491.626648
 31
0.0
  0
LINE
  5
120
100
AcDbEntity
  8
LC-004-006-----0
  6
STRICHLINIE
 62
           2
100
AcDbLine
 10
608.837097
 20
496.126648
 30
0.0
 11
603.587097
 21
496.126648
 31
0.0
  0
LINE
  5
121
100
AcDbEntity
  8
LC-004-006-----0
  6
STRICHLINIE
 62
           2
100
AcDbLine
 10
603.587097
 20
491.126648
 30
0.0
 11
608.837097
 21
491.126648
 31
0.0
  0
LINE
  5
122
100
AcDbEntity
  8
LC-004-006-----0
  6
STRICHLINIE
 62
           2
100
AcDbLine
 10
601.087097
 20
491.07663
 30
0.0
 11
601.087097
 21
496.176636
 31
0.0
  0
LINE
  5
123
100
AcDbEntity
  8
LC-004-006-----0
  6
STRICHLINIE
 62
           2
100
AcDbLine
 10
612.187134
 20
492.126648
 30
0.0
 11
612.187134
 21
495.126648
 31
0.0
  0
LINE
  5
124
100
AcDbEntity
  8
LC-004-006-----0
  6
STRICHLINIE
 62
           2
100
AcDbLine
 10
609.087097
 20
495.876648
 30
0.0
 11
608.837097
 21
496.126648
 31
0.0
  0
LINE
  5
125
100
AcDbEntity
  8
LC-004-006-----0
  6
STRICHLINIE
 62
           2
100
AcDbLine
 10
608.837097
 20
491.126648
 30
0.0
 11
609.087097
 21
491.376648
 31
0.0
  0
LINE
  5
126
100
AcDbEntity
  8
LC-004-006-----0
  6
STRICHLINIE
 62
           2
100
AcDbLine
 10
608.837097
 20
491.126648
 30
0.0
 11
608.837097
 21
496.126648
 31
0.0
  0
LINE
  5
127
100
AcDbEntity
  8
LC-004-006-----0
  6
STRICHLINIE
 62
           2
100
AcDbLine
 10
603.087097
 20
487.126648
 30
0.0
 11
603.087097
 21
500.126648
 31
0.0
  0
LINE
  5
128
100
AcDbEntity
  8
LC-004-006-----0
  6
STRICHLINIE
 62
           2
100
AcDbLine
 10
601.234009
 20
496.926636
 30
0.0
 11
603.087097
 21
496.926636
 31
0.0
  0
LINE
  5
129
100
AcDbEntity
  8
LC-004-006-----0
  6
STRICHLINIE
 62
           2
100
AcDbLine
 10
601.234009
 20
490.32663
 30
0.0
 11
603.087097
 21
490.32663
 31
0.0
  0
LINE
  5
12A
100
AcDbEntity
  8
LC-004-006-----0
  6
STRICHLINIE
 62
           2
100
AcDbLine
 10
601.234009
 20
495.426636
 30
0.0
 11
603.087097
 21
495.426636
 31
0.0
  0
LINE
  5
12B
100
AcDbEntity
  8
LC-004-006-----0
  6
STRICHLINIE
 62
           2
100
AcDbLine
 10
601.234009
 20
491.82663
 30
0.0
 11
603.087097
 21
491.82663
 31
0.0
  0
LINE
  5
12C
100
AcDbEntity
  8
LC-004-006-----0
  6
STRICHLINIE
 62
           2
100
AcDbLine
 10
609.087097
 20
491.376648
 30
0.0
 11
609.087097
 21
495.876648
 31
0.0
  0
ARC
  5
12D
100
AcDbEntity
  8
LC-004-006-----0
  6
STRICHLINIE
 62
           2
100
AcDbCircle
 10
612.187134
 20
493.626648
 30
0.0
 40
11.1
100
AcDbArc
 50
170.667576
 51
189.332424
  0
ARC
  5
12E
100
AcDbEntity
  8
LC-004-006-----0
  6
STRICHLINIE
 62
           2
100
AcDbCircle
 10
603.087097
 20
491.07663
 30
0.0
 40
1.999103
100
AcDbArc
 50
157.965282000001
 51
202.034718000001
  0
LINE
  5
12F
100
AcDbEntity
  8
LC-004-006-----0
  6
STRICHLINIE
 62
           2
100
AcDbLine
 10
609.087097
 20
495.376648
 30
0.0
 11
611.937134
 21
495.376648
 31
0.0
  0
ARC
  5
130
100
AcDbEntity
  8
LC-004-006-----0
  6
STRICHLINIE
 62
           2
100
AcDbCircle
 10
603.087097
 20
496.176636
 30
0.0
 40
1.999103
100
AcDbArc
 50
157.965282000001
 51
202.034718000001
  0
LINE
  5
131
100
AcDbEntity
  8
LC-004-006-----0
  6
STRICHLINIE
 62
           2
100
AcDbLine
 10
603.587097
 20
491.126648
 30
0.0
 11
603.587097
 21
496.126648
 31
0.0
  0
LINE
  5
132
100
AcDbEntity
  8
LC-006-012-----0
  6
AUSGEZOGEN
 62
           1
100
AcDbLine
 10
683.287109
 20
516.626648
 30
0.0
 11
694.287109
 21
516.626648
 31
0.0
  0
ARC
  5
133
100
AcDbEntity
  8
LC-006-012-----0
  6
AUSGEZOGEN
 62
           1
100
AcDbCircle
 10
683.287109
 20
507.626648
 30
0.0
 40
9.0
100
AcDbArc
 50
90.000003
 51
269.999997
  0
CIRCLE
  5
134
100
AcDbEntity
  8
LC-006-012-----0
  6
AUSGEZOGEN
 62
           1
100
AcDbCircle
 10
683.287109
 20
507.626648
 30
0.0
 40
5.75
  0
LINE
  5
135
100
AcDbEntity
  8
LC-006-012-----0
  6
AUSGEZOGEN
 62
           1
100
AcDbLine
 10
683.287109
 20
498.626648
 30
0.0
 11
694.287109
 21
498.626648
 31
0.0
  0
LINE
  5
136
100
AcDbEntity
  8
LC-006-012-----0
  6
AUSGEZOGEN
 62
           1
100
AcDbLine
 10
597.287109
 20
498.626648
 30
0.0
 11
586.287109
 21
498.626648
 31
0.0
  0
LINE
  5
137
100
AcDbEntity
  8
LC-006-012-----0
  6
AUSGEZOGEN
 62
           1
100
AcDbLine
 10
597.287109
 20
516.626648
 30
0.0
 11
586.287109
 21
516.626648
 31
0.0
  0
ARC
  5
138
100
AcDbEntity
  8
LC-006-012-----0
  6
AUSGEZOGEN
 62
           1
100
AcDbCircle
 10
597.287109
 20
507.626648
 30
0.0
 40
9.0
100
AcDbArc
 50
269.999997
 51
90.000003
  0
CIRCLE
  5
139
100
AcDbEntity
  8
LC-006-012-----0
  6
AUSGEZOGEN
 62
           1
100
AcDbCircle
 10
597.287109
 20
507.626648
 30
0.0
 40
5.75
  0
LINE
  5
13A
100
AcDbEntity
  8
LC-006-012-----0
  6
AUSGEZOGEN
 62
           1
100
AcDbLine
 10
683.287109
 20
374.626648
 30
0.0
 11
694.287109
 21
374.626648
 31
0.0
  0
ARC
  5
13B
100
AcDbEntity
  8
LC-006-012-----0
  6
AUSGEZOGEN
 62
           1
100
AcDbCircle
 10
683.287109
 20
383.626648
 30
0.0
 40
9.0
100
AcDbArc
 50
90.000003
 51
269.999997
  0
LINE
  5
13C
100
AcDbEntity
  8
LC-006-012-----0
  6
AUSGEZOGEN
 62
           1
100
AcDbLine
 10
683.287109
 20
392.626648
 30
0.0
 11
694.287109
 21
392.626648
 31
0.0
  0
ARC
  5
13D
100
AcDbEntity
  8
LC-006-012-----0
  6
AUSGEZOGEN
 62
           1
100
AcDbCircle
 10
597.287109
 20
383.626648
 30
0.0
 40
9.0
100
AcDbArc
 50
269.999997
 51
90.000003
  0
LINE
  5
13E
100
AcDbEntity
  8
LC-006-012-----0
  6
AUSGEZOGEN
 62
           1
100
AcDbLine
 10
597.287109
 20
392.626648
 30
0.0
 11
586.287109
 21
392.626648
 31
0.0
  0
LINE
  5
13F
100
AcDbEntity
  8
LC-006-012-----0
  6
AUSGEZOGEN
 62
           1
100
AcDbLine
 10
597.287109
 20
374.626648
 30
0.0
 11
586.287109
 21
374.626648
 31
0.0
  0
CIRCLE
  5
140
100
AcDbEntity
  8
LC-006-012-----0
  6
AUSGEZOGEN
 62
           1
100
AcDbCircle
 10
597.287109
 20
383.626648
 30
0.0
 40
5.75
  0
CIRCLE
  5
141
100
AcDbEntity
  8
LC-006-012-----0
  6
AUSGEZOGEN
 62
           1
100
AcDbCircle
 10
683.287109
 20
383.626648
 30
0.0
 40
5.75
  0
ARC
  5
142
100
AcDbEntity
  8
LC-008-003-----0
  6
AUSGEZOGEN
 62
           2
100
AcDbCircle
 10
683.287109
 20
383.626648
 30
0.0
 40
7.0
100
AcDbArc
 50
352.956723
 51
278.367703
  0
ARC
  5
143
100
AcDbEntity
  8
LC-008-003-----0
  6
AUSGEZOGEN
 62
           2
100
AcDbCircle
 10
597.287109
 20
383.626648
 30
0.0
 40
7.0
100
AcDbArc
 50
261.632299
 51
187.043272
  0
ARC
  5
144
100
AcDbEntity
  8
LC-008-003-----0
  6
AUSGEZOGEN
 62
           2
100
AcDbCircle
 10
683.287109
 20
507.626648
 30
0.0
 40
7.0
100
AcDbArc
 50
81.632297
 51
7.043277
  0
ARC
  5
145
100
AcDbEntity
  8
LC-008-003-----0
  6
AUSGEZOGEN
 62
           2
100
AcDbCircle
 10
597.287109
 20
507.626648
 30
0.0
 40
7.0
100
AcDbArc
 50
172.956728
 51
98.367701
  0
ENDSEC
  0
SECTION
  2
OBJECTS
  0
DICTIONARY
  5
19
100
AcDbDictionary
  3
ACAD_GROUP
350
1A
  3
ACAD_MLINESTYLE
350
1B
  0
DICTIONARY
  5
1A
102
{ACAD_REACTORS
330
19
102
}
100
AcDbDictionary
  0
DICTIONARY
  5
1B
102
{ACAD_REACTORS
330
19
102
}
100
AcDbDictionary
  3
STANDARD
350
1C
  0
MLINESTYLE
  5
1C
102
{ACAD_REACTORS
330
1B
102
}
100
AcDbMlineStyle
  2
STANDARD
 70
           0
  3

 62
           0
 51
90.0
 52
90.0
 71
           2
 49
0.5
 62
         256
  6
BYLAYER
 49
-0.5
 62
         256
  6
BYLAYER
  0
ENDSEC
  0
EOF
