  0
SECTION
  2
HEADER
  9
$ACADVER
  1
AC1014
  9
$ACADMAINTVER
 70
           0
  9
$DWGCODEPAGE
  3
DOS850
  9
$INSBASE
 10
0.0
 20
0.0
 30
0.0
  9
$EXTMIN
 10
-115.0
 20
488.978897
 30
0.0
  9
$EXTMAX
 10
74.88768
 20
674.557129
 30
0.0
  9
$LIMMIN
 10
-115.0
 20
488.978897
  9
$LIMMAX
 10
74.88768
 20
674.557129
  9
$ORTHOMODE
 70
           0
  9
$REGENMODE
 70
           1
  9
$FILLMODE
 70
           1
  9
$QTEXTMODE
 70
           0
  9
$MIRRTEXT
 70
           1
  9
$DRAGMODE
 70
           2
  9
$LTSCALE
 40
5.0
  9
$OSMODE
 70
           0
  9
$ATTMODE
 70
           1
  9
$TEXTSIZE
 40
0.2
  9
$TRACEWID
 40
0.05
  9
$TEXTSTYLE
  7
TXT
  9
$CLAYER
  8
0
  9
$CELTYPE
  6
CONTINUOUS
  9
$CECOLOR
 62
         256
  9
$CELTSCALE
 40
1.0
  9
$DELOBJ
 70
           1
  9
$DISPSILH
 70
           0
  9
$DIMSCALE
 40
1.0
  9
$DIMASZ
 40
3.5
  9
$DIMEXO
 40
0.0625
  9
$DIMDLI
 40
0.38
  9
$DIMRND
 40
0.0
  9
$DIMDLE
 40
0.0
  9
$DIMEXE
 40
0.18
  9
$DIMTP
 40
0.0
  9
$DIMTM
 40
0.0
  9
$DIMTXT
 40
3.5
  9
$DIMCEN
 40
0.09
  9
$DIMTSZ
 40
0.0
  9
$DIMTOL
 70
           0
  9
$DIMLIM
 70
           0
  9
$DIMTIH
 70
           1
  9
$DIMTOH
 70
           1
  9
$DIMSE1
 70
           0
  9
$DIMSE2
 70
           0
  9
$DIMTAD
 70
           0
  9
$DIMZIN
 70
           0
  9
$DIMBLK
  1

  9
$DIMASO
 70
           1
  9
$DIMSHO
 70
           1
  9
$DIMPOST
  1

  9
$DIMAPOST
  1

  9
$DIMALT
 70
           0
  9
$DIMALTD
 70
           2
  9
$DIMALTF
 40
25.4
  9
$DIMLFAC
 40
1.0
  9
$DIMTOFL
 70
           0
  9
$DIMTVP
 40
0.0
  9
$DIMTIX
 70
           0
  9
$DIMSOXD
 70
           0
  9
$DIMSAH
 70
           0
  9
$DIMBLK1
  1

  9
$DIMBLK2
  1

  9
$DIMSTYLE
  2
STANDARD
  9
$DIMCLRD
 70
           0
  9
$DIMCLRE
 70
           0
  9
$DIMCLRT
 70
           0
  9
$DIMTFAC
 40
1.0
  9
$DIMGAP
 40
0.09
  9
$DIMJUST
 70
           0
  9
$DIMSD1
 70
           0
  9
$DIMSD2
 70
           0
  9
$DIMTOLJ
 70
           1
  9
$DIMTZIN
 70
           0
  9
$DIMALTZ
 70
           0
  9
$DIMALTTZ
 70
           0
  9
$DIMFIT
 70
           3
  9
$DIMUPT
 70
           0
  9
$DIMUNIT
 70
           2
  9
$DIMDEC
 70
           4
  9
$DIMTDEC
 70
           4
  9
$DIMALTU
 70
           2
  9
$DIMALTTD
 70
           2
  9
$DIMTXSTY
  7
TXT
  9
$DIMAUNIT
 70
           0
  9
$LUNITS
 70
           2
  9
$LUPREC
 70
           2
  9
$SKETCHINC
 40
0.1
  9
$FILLETRAD
 40
0.0
  9
$AUNITS
 70
           0
  9
$AUPREC
 70
           2
  9
$MENU
  1
acad
  9
$ELEVATION
 40
0.0
  9
$PELEVATION
 40
0.0
  9
$THICKNESS
 40
0.0
  9
$LIMCHECK
 70
           0
  9
$BLIPMODE
 70
           1
  9
$CHAMFERA
 40
0.0
  9
$CHAMFERB
 40
0.0
  9
$CHAMFERC
 40
0.0
  9
$CHAMFERD
 40
0.0
  9
$SKPOLY
 70
           0
  9
$TDCREATE
 40
0.000000000
  9
$TDUPDATE
 40
0.000000000
  9
$TDINDWG
 40
0.0000000000
  9
$TDUSRTIMER
 40
0.0000000000
  9
$USRTIMER
 70
           1
  9
$ANGBASE
 50
0.0
  9
$ANGDIR
 70
           0
  9
$PDMODE
 70
           2
  9
$PDSIZE
 40
0.5
  9
$PLINEWID
 40
0.0
  9
$COORDS
 70
           0
  9
$SPLFRAME
 70
           0
  9
$SPLINETYPE
 70
           6
  9
$SPLINESEGS
 70
           8
  9
$ATTDIA
 70
           0
  9
$ATTREQ
 70
           1
  9
$HANDLING
 70
           1
  9
$HANDSEED
  5
BD
  9
$SURFTAB1
 70
           6
  9
$SURFTAB2
 70
           6
  9
$SURFTYPE
 70
           6
  9
$SURFU
 70
           6
  9
$SURFV
 70
           6
  9
$UCSNAME
  2

  9
$UCSORG
 10
0.0
 20
0.0
 30
0.0
  9
$UCSXDIR
 10
1.0
 20
0.0
 30
0.0
  9
$UCSYDIR
 10
0.0
 20
1.0
 30
0.0
  9
$PUCSNAME
  2

  9
$PUCSORG
 10
0.0
 20
0.0
 30
0.0
  9
$PUCSXDIR
 10
1.0
 20
0.0
 30
0.0
  9
$PUCSYDIR
 10
0.0
 20
1.0
 30
0.0
  9
$USERI1
 70
           0
  9
$USERI2
 70
           0
  9
$USERI3
 70
           0
  9
$USERI4
 70
           0
  9
$USERI5
 70
           0
  9
$USERR1
 40
0.0
  9
$USERR2
 40
0.0
  9
$USERR3
 40
0.0
  9
$USERR4
 40
0.0
  9
$USERR5
 40
0.0
  9
$WORLDVIEW
 70
           1
  9
$SHADEDGE
 70
           3
  9
$SHADEDIF
 70
          70
  9
$TILEMODE
 70
           1
  9
$MAXACTVP
 70
          16
  9
$PINSBASE
 10
0.0
 20
0.0
 30
0.0
  9
$PLIMCHECK
 70
           0
  9
$PEXTMIN
 10
1.000000000000E+20
 20
1.000000000000E+20
 30
1.000000000000E+20
  9
$PEXTMAX
 10
-1.000000000000E+20
 20
-1.000000000000E+20
 30
-1.000000000000E+20
  9
$PLIMMIN
 10
0.0
 20
0.0
  9
$PLIMMAX
 10
12.0
 20
9.0
  9
$UNITMODE
 70
           0
  9
$VISRETAIN
 70
           0
  9
$PLINEGEN
 70
           1
  9
$PSLTSCALE
 70
           0
  9
$TREEDEPTH
 70
        3020
  9
$PICKSTYLE
 70
           1
  9
$CMLSTYLE
  2
STANDARD
  9
$CMLJUST
 70
           0
  9
$CMLSCALE
 40
1.0
  9
$PROXYGRAPHICS
 70
           0
  9
$MEASUREMENT
 70
           0
  0
ENDSEC
  0
SECTION
  2
CLASSES
  0
CLASS
  1
LWPOLYLINE
  2
AcDbPolyline
  3
"AutoCAD"
 90
        0
280
           0
281
           1
  0
CLASS
  1
IMAGE
  2
AcDbRasterImage
  3
ISM
 90
      127
280
           0
281
           1
  0
CLASS
  1
OLE2FRAME
  2
AcDbOle2Frame
  3
""
 90
        0
280
           0
281
           1
  0
CLASS
  1
HATCH
  2
AcDbHatch
  3
"ACAD_SEDONA"
 90
        0
280
           0
281
           1
  0
CLASS
  1
DICTIONARYVAR
  2
AcDbDictionaryVar
  3
"AutoCAD"
 90
        0
280
           0
281
           0
  0
CLASS
  1
RASTERVARIABLES
  2
AcDbRasterVariables
  3
ISM
 90
        0
280
           0
281
           0
  0
CLASS
  1
IMAGEDEF
  2
AcDbRasterImageDef
  3
ISM
 90
        0
280
           0
281
           0
  0
CLASS
  1
IMAGEDEF_REACTOR
  2
AcDbRasterImageDefReactor
  3
ISM
 90
        1
280
           0
281
           0
  0
CLASS
  1
IDBUFFER
  2
AcDbIdBuffer
  3
"Acad"
 90
        0
280
           0
281
           0
  0
CLASS
  1
SPATIAL_FILTER
  2
AcDbSpatialFilter
  3
"Acad"
 90
        0
280
           0
281
           0
  0
CLASS
  1
XRECORD
  2
AcDbXrecord
  3
"<Built In>"
 90
        0
280
           0
281
           0
  0
CLASS
  1
SORTENTSTABLE
  2
AcDbSortentsTable
  3
"AutoCAD"
 90
        0
280
           0
281
           0
  0
CLASS
  1
LAYER_INDEX
  2
AcDbLayerIndex
  3
"Acad"
 90
        0
280
           0
281
           0
  0
CLASS
  1
SPATIAL_INDEX
  2
AcDbSpatialIndex
  3
"Acad"
 90
        0
280
           0
281
           0
  0
CLASS
  1
OBJECT_PTR
  2
CAseDLPNTableRecord
  3
"ASE-LPNTableRecord"
 90
        1
280
           0
281
           0
  0
CLASS
  1
LAYOUT
  2
AcDbLayout
  3
"AutoCAD 2000"
 90
        1
280
           0
281
           0
  0
CLASS
  1
PLOTSETTINGS
  2
AcDbPlotSettings
  3
"AutoCAD 2000"
 90
        1
280
           0
281
           0
  0
CLASS
  1
ACDBDICTIONARYWDFLT
  2
AcDbDictionaryWithDefault
  3
"AutoCAD 2000"
 90
        1
280
           0
281
           0
  0
CLASS
  1
ACDBPLACEHOLDER
  2
AcDbPlaceHolder
  3
"AutoCAD 2000"
 90
        1
280
           0
281
           0
  0
CLASS
  1
VBA_PROJECT
  2
AcDbVbaProject
  3
"acadvba"
 90
        1
280
           0
281
           0
  0
CLASS
  1
WIPEOUT
  2
AcDbWipeout
  3
WipeOut|AutoCAD Express Tool|expresstools@autodesk.com
 90
      127
280
           0
281
           1
  0
CLASS
  1
WIPEOUTVARIABLES
  2
AcDbWipeoutVariables
  3
WipeOut|AutoCAD Express Tool|expresstools@autodesk.com
 90
        0
280
           0
281
           0
  0
CLASS
  1
RTEXT
  2
RText
  3
RText|AutoCAD Express Tool|expresstools@autodesk.com
 90
        0
280
           0
281
           1
  0
CLASS
  1
ARCALIGNEDTEXT
  2
AcDbArcAlignedText
  3
ATEXT|AutoCAD Express Tool|expresstools@autodesk.com
 90
        0
280
           0
281
           1
  0
ENDSEC
  0
SECTION
  2
TABLES
  0
TABLE
  2
VPORT
  5
7
100
AcDbSymbolTable
 70
           1
  0
VPORT
  5
15
100
AcDbSymbolTableRecord
100
AcDbViewportTableRecord
  2
*ACTIVE
 70
           0
 10
0.0
 20
0.0
 11
1.0
 21
1.0
 12
6.591288
 22
4.579184
 13
0.0
 23
0.0
 14
1.0
 24
1.0
 15
0.0
 25
0.0
 16
0.0
 26
0.0
 36
1.0
 17
0.0
 27
0.0
 37
0.0
 40
9.158369
 41
0.688564
 42
50.0
 43
0.0
 44
0.0
 50
0.0
 51
0.0
 71
           0
 72
         100
 73
           1
 74
           1
 75
           0
 76
           0
 77
           0
 78
           0
  0
ENDTAB
  0
TABLE
  2
LTYPE
  5
4
100
AcDbSymbolTable
 70
           6
  0
LTYPE
  5
11
100
AcDbSymbolTableRecord
100
AcDbLinetypeTableRecord
  2
BYBLOCK
 70
          64
  3

 72
          65
 73
           0
 40
0.0
  0
LTYPE
  5
12
100
AcDbSymbolTableRecord
100
AcDbLinetypeTableRecord
  2
BYLAYER
 70
          64
  3

 72
          65
 73
           0
 40
0.0
  0
LTYPE
  5
13
100
AcDbSymbolTableRecord
100
AcDbLinetypeTableRecord
  2
CONTINUOUS
 70
          64
  3
Solid line
 72
          65
 73
           0
 40
0.0
  0
LTYPE
  5
1D
100
AcDbSymbolTableRecord
100
AcDbLinetypeTableRecord
  2
AUSGEZOGEN
 70
           0
  3

 72
          65
 73
           2
 40
0.5
 49
0.25
 74
           0
 49
-0.25
 74
           0
  0
LTYPE
  5
1E
100
AcDbSymbolTableRecord
100
AcDbLinetypeTableRecord
  2
STRICHLINIE
 70
           0
  3

 72
          65
 73
           2
 40
0.5
 49
0.25
 74
           0
 49
-0.25
 74
           0
  0
LTYPE
  5
1F
100
AcDbSymbolTableRecord
100
AcDbLinetypeTableRecord
  2
STRICHPUNKT
 70
           0
  3

 72
          65
 73
           4
 40
1.0
 49
0.5
 74
           0
 49
-0.25
 74
           0
 49
0.0
 74
           0
 49
-0.25
 74
           0
  0
ENDTAB
  0
TABLE
  2
LAYER
  5
2
100
AcDbSymbolTable
 70
           5
  0
LAYER
  5
14
100
AcDbSymbolTableRecord
100
AcDbLayerTableRecord
  2
0
 70
           0
 62
           7
  6
CONTINUOUS
  0
LAYER
  5
20
100
AcDbSymbolTableRecord
100
AcDbLayerTableRecord
  2
LC-003-002-----0
 70
           0
 62
           7
  6
CONTINUOUS
  0
LAYER
  5
21
100
AcDbSymbolTableRecord
100
AcDbLayerTableRecord
  2
LC-004-006-----0
 70
           0
 62
           7
  6
CONTINUOUS
  0
LAYER
  5
22
100
AcDbSymbolTableRecord
100
AcDbLayerTableRecord
  2
LC-006-012-----0
 70
           0
 62
           7
  6
CONTINUOUS
  0
LAYER
  5
23
100
AcDbSymbolTableRecord
100
AcDbLayerTableRecord
  2
LC-008-003-----0
 70
           0
 62
           7
  6
CONTINUOUS
  0
ENDTAB
  0
TABLE
  2
STYLE
  5
3
100
AcDbSymbolTable
 70
           1
  0
STYLE
  5
17
100
AcDbSymbolTableRecord
100
AcDbTextStyleTableRecord
  2
TXT
 70
           0
 40
3.5
 41
1.0
 50
0.0
 71
           0
 42
3.5
  3
TXT
  4

  0
ENDTAB
  0
TABLE
  2
VIEW
  5
5
100
AcDbSymbolTable
 70
           0
  0
ENDTAB
  0
TABLE
  2
UCS
  5
6
100
AcDbSymbolTable
 70
           0
  0
ENDTAB
  0
TABLE
  2
APPID
  5
8
100
AcDbSymbolTable
 70
           2
  0
APPID
  5
16
100
AcDbSymbolTableRecord
100
AcDbRegAppTableRecord
  2
ACAD
 70
           0
  0
APPID
  5
24
100
AcDbSymbolTableRecord
100
AcDbRegAppTableRecord
  2
MegaCADPntStyle
 70
           0
  0
ENDTAB
  0
TABLE
  2
DIMSTYLE
  5
9
100
AcDbSymbolTable
 70
           1
  0
DIMSTYLE
105
18
100
AcDbSymbolTableRecord
100
AcDbDimStyleTableRecord
  2
STANDARD
 70
           0
  3

  4

  5

  6

  7

 40
1.0
 41
0.18
 42
0.0625
 43
0.38
 44
0.18
 45
0.0
 46
0.0
 47
0.0
 48
0.0
 71
           0
 72
           0
 73
           1
 74
           1
 75
           0
 76
           0
 77
           0
 78
           0
140
0.18
141
0.09
142
0.0
143
25.4
144
1.0
145
0.0
146
1.0
147
0.09
170
           0
171
           2
172
           0
173
           0
174
           0
175
           0
176
           0
177
           0
178
           0
270
           2
271
           4
272
           4
273
           2
274
           2
275
           0
280
           0
281
           0
282
           0
283
           1
284
           0
285
           0
286
           0
287
           0
288
           0
340
17
  0
ENDTAB
  0
TABLE
  2
BLOCK_RECORD
  5
1
100
AcDbSymbolTable
 70
           2
  0
BLOCK_RECORD
  5
A
100
AcDbSymbolTableRecord
100
AcDbBlockTableRecord
  2
*MODEL_SPACE
  0
BLOCK_RECORD
  5
B
100
AcDbSymbolTableRecord
100
AcDbBlockTableRecord
  2
*PAPER_SPACE
  0
BLOCK_RECORD
  5
25
102
{ACAD_XDICTIONARY
360
8C
102
}
100
AcDbSymbolTableRecord
100
AcDbBlockTableRecord
  2
ELIPPSE
  0
BLOCK_RECORD
  5
26
102
{ACAD_XDICTIONARY
360
8C
102
}
100
AcDbSymbolTableRecord
100
AcDbBlockTableRecord
  2
*X1
  0
ENDTAB
  0
ENDSEC
  0
SECTION
  2
BLOCKS
  0
BLOCK
  5
D
100
AcDbEntity
  8
0
100
AcDbBlockBegin
  2
*MODEL_SPACE
 70
           0
 10
0.0
 20
0.0
 30
0.0
  3
*MODEL_SPACE
  1

  0
ENDBLK
  5
E
100
AcDbEntity
  8
0
100
AcDbBlockEnd
  0
BLOCK
  5
F
100
AcDbEntity
 67
           1
  8
0
100
AcDbBlockBegin
  2
*PAPER_SPACE
 70
           0
 10
0.0
 20
0.0
 30
0.0
  3
*PAPER_SPACE
  1

  0
ENDBLK
  5
10
100
AcDbEntity
 67
           1
  8
0
100
AcDbBlockEnd
  0
BLOCK
  5
A8
100
AcDbEntity
  8
0
100
AcDbBlockBegin
  2
ELIPPSE
 70
          64
 10
0.0
 20
0.0
 30
0.0
  3
ELIPPSE
  1

  0
CIRCLE
  5
A9
100
AcDbEntity
  8
0
  6
BYBLOCK
 62
           0
100
AcDbCircle
 10
0.0
 20
0.0
 30
0.0
 40
1.0
  0
ENDBLK
  5
AA
100
AcDbEntity
  8
0
  6
BYBLOCK
 62
           0
100
AcDbBlockEnd
  0
BLOCK
  5
AB
100
AcDbEntity
  8
0
100
AcDbBlockBegin
  2
*X1
 70
          65
 10
0.0
 20
0.0
 30
0.0
  3
*X1
  1

  0
LINE
  5
AC
100
AcDbEntity
  8
0
  6
BYBLOCK
 62
           0
100
AcDbLine
 10
-71.162063844727
 20
560.991398536047
 30
0.0
 11
-68.562073
 21
563.591389380773
 31
0.0
  0
LINE
  5
AD
100
AcDbEntity
  8
0
  6
BYBLOCK
 62
           0
100
AcDbLine
 10
-71.162063844726
 20
565.234039223166
 30
0.0
 11
-68.562073
 21
567.834030067893
 31
0.0
  0
LINE
  5
AE
100
AcDbEntity
  8
0
  6
BYBLOCK
 62
           0
100
AcDbLine
 10
-76.750109815737
 20
563.888633939275
 30
0.0
 11
-75.962082155273
 21
564.676661599739
 31
0.0
  0
LINE
  5
AF
100
AcDbEntity
  8
0
  6
BYBLOCK
 62
           0
100
AcDbLine
 10
-71.162063844727
 20
569.476679910286
 30
0.0
 11
-70.562065370605
 21
570.076678384407
 31
0.0
  0
LINE
  5
B0
100
AcDbEntity
  8
0
  6
BYBLOCK
 62
           0
100
AcDbLine
 10
-70.562065370605
 20
570.076678384407
 30
0.0
 11
-68.562073
 21
572.076670755012
 31
0.0
  0
LINE
  5
B1
100
AcDbEntity
  8
0
  6
BYBLOCK
 62
           0
100
AcDbLine
 10
-77.40089690303
 20
567.480487539101
 30
0.0
 11
-76.562080629395
 21
568.319303812737
 31
0.0
  0
LINE
  5
B2
100
AcDbEntity
  8
0
  6
BYBLOCK
 62
           0
100
AcDbLine
 10
-76.562080629395
 20
568.319303812737
 30
0.0
 11
-75.962082155273
 21
568.919302286858
 31
0.0
  0
LINE
  5
B3
100
AcDbEntity
  8
0
  6
BYBLOCK
 62
           0
100
AcDbLine
 10
-71.162063844727
 20
573.719320597405
 30
0.0
 11
-70.562065370605
 21
574.319319071526
 31
0.0
  0
LINE
  5
B4
100
AcDbEntity
  8
0
  6
BYBLOCK
 62
           0
100
AcDbLine
 10
-70.562065370605
 20
574.319319071526
 30
0.0
 11
-68.562073
 21
576.319311442131
 31
0.0
  0
LINE
  5
B5
100
AcDbEntity
  8
0
  6
BYBLOCK
 62
           0
100
AcDbLine
 10
-77.662287823935
 20
571.461737305316
 30
0.0
 11
-76.562080629394
 21
572.561944499856
 31
0.0
  0
LINE
  5
B6
100
AcDbEntity
  8
0
  6
BYBLOCK
 62
           0
100
AcDbLine
 10
-76.562080629394
 20
572.561944499856
 30
0.0
 11
-75.962082155273
 21
573.161942973977
 31
0.0
  0
LINE
  5
B7
100
AcDbEntity
  8
0
  6
BYBLOCK
 62
           0
100
AcDbLine
 10
-71.162063844726
 20
577.961961284524
 30
0.0
 11
-70.562065370605
 21
578.561959758645
 31
0.0
  0
LINE
  5
B8
100
AcDbEntity
  8
0
  6
BYBLOCK
 62
           0
100
AcDbLine
 10
-70.562065370605
 20
578.561959758645
 30
0.0
 11
-68.562073
 21
580.561952129251
 31
0.0
  0
LINE
  5
B9
100
AcDbEntity
  8
0
  6
BYBLOCK
 62
           0
100
AcDbLine
 10
-77.864422205287
 20
575.502243611083
 30
0.0
 11
-76.562080629395
 21
576.804585186975
 31
0.0
  0
LINE
  5
BA
100
AcDbEntity
  8
0
  6
BYBLOCK
 62
           0
100
AcDbLine
 10
-76.562080629395
 20
576.804585186975
 30
0.0
 11
-75.962082155273
 21
577.404583661096
 31
0.0
  0
LINE
  5
BB
100
AcDbEntity
  8
0
  6
BYBLOCK
 62
           0
100
AcDbLine
 10
-77.785262850347
 20
579.824043653143
 30
0.0
 11
-76.771148503489
 21
580.838158
 31
0.0
  0
ENDBLK
  5
BC
100
AcDbEntity
  8
0
  6
BYBLOCK
 62
           0
100
AcDbBlockEnd
  0
ENDSEC
  0
SECTION
  2
ENTITIES
  0
LINE
  5
27
100
AcDbEntity
  8
LC-003-002-----0
  6
AUSGEZOGEN
 62
           1
100
AcDbLine
 10
-110.562073
 20
671.42865
 30
0.0
 11
-110.562073
 21
635.42865
 31
0.0
  0
LINE
  5
28
100
AcDbEntity
  8
LC-003-002-----0
  6
AUSGEZOGEN
 62
           1
100
AcDbLine
 10
-110.562073
 20
635.42865
 30
0.0
 11
-68.562073
 21
635.42865
 31
0.0
  0
LINE
  5
29
100
AcDbEntity
  8
LC-003-002-----0
  6
AUSGEZOGEN
 62
           1
100
AcDbLine
 10
-68.562073
 20
671.42865
 30
0.0
 11
-68.562073
 21
635.42865
 31
0.0
  0
LINE
  5
2A
100
AcDbEntity
  8
LC-004-006-----0
  6
STRICHPUNKT
 62
           2
100
AcDbLine
 10
-89.562073
 20
631.916321
 30
0.0
 11
-89.562073
 21
674.557129
 31
0.0
  0
LINE
  5
2B
100
AcDbEntity
  8
LC-004-006-----0
  6
STRICHPUNKT
 62
           2
100
AcDbLine
 10
-115.0
 20
653.42865
 30
0.0
 11
-65.0
 21
653.42865
 31
0.0
  0
CIRCLE
  5
2C
100
AcDbEntity
  8
LC-003-002-----0
  6
AUSGEZOGEN
 62
           1
100
AcDbCircle
 10
-89.562073
 20
653.42865
 30
0.0
 40
6.0
  0
CIRCLE
  5
2D
100
AcDbEntity
  8
LC-003-002-----0
  6
AUSGEZOGEN
 62
           1
100
AcDbCircle
 10
-89.562073
 20
653.42865
 30
0.0
 40
11.0
  0
CIRCLE
  5
2E
100
AcDbEntity
  8
LC-003-002-----0
  6
AUSGEZOGEN
 62
           1
100
AcDbCircle
 10
-89.562073
 20
653.42865
 30
0.0
 40
9.0
  0
LINE
  5
2F
100
AcDbEntity
  8
LC-003-002-----0
  6
AUSGEZOGEN
 62
           1
100
AcDbLine
 10
-16.971581
 20
635.42865
 30
0.0
 11
29.028419
 21
635.42865
 31
0.0
  0
LINE
  5
30
100
AcDbEntity
  8
LC-003-002-----0
  6
AUSGEZOGEN
 62
           1
100
AcDbLine
 10
59.028419
 20
638.52865
 30
0.0
 11
59.028419
 21
668.32865
 31
0.0
  0
LINE
  5
31
100
AcDbEntity
  8
LC-003-002-----0
  6
AUSGEZOGEN
 62
           1
100
AcDbLine
 10
-16.971581
 20
671.42865
 30
0.0
 11
29.028419
 21
671.42865
 31
0.0
  0
LINE
  5
32
100
AcDbEntity
  8
LC-003-002-----0
  6
AUSGEZOGEN
 62
           1
100
AcDbLine
 10
-16.971581
 20
635.42865
 30
0.0
 11
-16.971581
 21
671.42865
 31
0.0
  0
LINE
  5
33
100
AcDbEntity
  8
LC-006-012-----0
  6
STRICHLINIE
 62
           2
100
AcDbLine
 10
15.028419
 20
642.42865
 30
0.0
 11
15.028419
 21
664.42865
 31
0.0
  0
LINE
  5
34
100
AcDbEntity
  8
LC-006-012-----0
  6
STRICHLINIE
 62
           2
100
AcDbLine
 10
27.028419
 20
642.42865
 30
0.0
 11
27.028419
 21
664.42865
 31
0.0
  0
LINE
  5
35
100
AcDbEntity
  8
LC-004-006-----0
  6
STRICHPUNKT
 62
           2
100
AcDbLine
 10
-36.339069
 20
653.42865
 30
0.0
 11
74.88768
 21
653.42865
 31
0.0
  0
LINE
  5
36
100
AcDbEntity
  8
LC-006-012-----0
  6
STRICHLINIE
 62
           2
100
AcDbLine
 10
-16.971581
 20
664.42865
 30
0.0
 11
15.028418
 21
664.42865
 31
0.0
  0
LINE
  5
37
100
AcDbEntity
  8
LC-006-012-----0
  6
STRICHLINIE
 62
           2
100
AcDbLine
 10
-16.971581
 20
642.42865
 30
0.0
 11
15.028418
 21
642.42865
 31
0.0
  0
LINE
  5
38
100
AcDbEntity
  8
LC-003-002-----0
  6
AUSGEZOGEN
 62
           1
100
AcDbLine
 10
-31.494692
 20
659.42865
 30
0.0
 11
-16.971581
 21
659.42865
 31
0.0
  0
LINE
  5
39
100
AcDbEntity
  8
LC-003-002-----0
  6
AUSGEZOGEN
 62
           1
100
AcDbLine
 10
-31.73147
 20
647.42865
 30
0.0
 11
-16.971581
 21
647.42865
 31
0.0
  0
LINE
  5
3A
100
AcDbEntity
  8
LC-008-003-----0
  6
AUSGEZOGEN
 62
           2
100
AcDbLine
 10
70.716316
 20
647.42865
 30
0.0
 11
71.052277
 21
649.455017
 31
0.0
  0
LINE
  5
3B
100
AcDbEntity
  8
LC-008-003-----0
  6
AUSGEZOGEN
 62
           2
100
AcDbLine
 10
71.052277
 20
649.455017
 30
0.0
 11
70.314697
 21
655.683167
 31
0.0
  0
LINE
  5
3C
100
AcDbEntity
  8
LC-008-003-----0
  6
AUSGEZOGEN
 62
           2
100
AcDbLine
 10
70.314697
 20
655.683167
 30
0.0
 11
70.66954
 21
659.42865
 31
0.0
  0
LINE
  5
3D
100
AcDbEntity
  8
LC-008-003-----0
  6
AUSGEZOGEN
 62
           2
100
AcDbLine
 10
-31.73147
 20
647.42865
 30
0.0
 11
-31.176023
 21
650.011108
 31
0.0
  0
LINE
  5
3E
100
AcDbEntity
  8
LC-008-003-----0
  6
AUSGEZOGEN
 62
           2
100
AcDbLine
 10
-31.176023
 20
650.011108
 30
0.0
 11
-31.766087
 21
656.461731
 31
0.0
  0
LINE
  5
3F
100
AcDbEntity
  8
LC-008-003-----0
  6
AUSGEZOGEN
 62
           2
100
AcDbLine
 10
-31.766087
 20
656.461731
 30
0.0
 11
-31.494692
 21
659.42865
 31
0.0
  0
LINE
  5
40
100
AcDbEntity
  8
LC-006-012-----0
  6
STRICHLINIE
 62
           2
100
AcDbLine
 10
-16.971581
 20
659.42865
 30
0.0
 11
59.028419
 21
659.42865
 31
0.0
  0
LINE
  5
41
100
AcDbEntity
  8
LC-006-012-----0
  6
STRICHLINIE
 62
           2
100
AcDbLine
 10
-16.971581
 20
647.42865
 30
0.0
 11
59.028419
 21
647.42865
 31
0.0
  0
LINE
  5
42
100
AcDbEntity
  8
LC-003-002-----0
  6
AUSGEZOGEN
 62
           1
100
AcDbLine
 10
59.028419
 20
647.42865
 30
0.0
 11
70.716316
 21
647.42865
 31
0.0
  0
LINE
  5
43
100
AcDbEntity
  8
LC-003-002-----0
  6
AUSGEZOGEN
 62
           1
100
AcDbLine
 10
59.028419
 20
659.42865
 30
0.0
 11
70.66954
 21
659.42865
 31
0.0
  0
LINE
  5
44
100
AcDbEntity
  8
LC-006-012-----0
  6
STRICHLINIE
 62
           2
100
AcDbLine
 10
15.028419
 20
642.42865
 30
0.0
 11
59.028419
 21
642.42865
 31
0.0
  0
LINE
  5
45
100
AcDbEntity
  8
LC-006-012-----0
  6
STRICHLINIE
 62
           2
100
AcDbLine
 10
15.028419
 20
664.42865
 30
0.0
 11
27.028419
 21
664.42865
 31
0.0
  0
LINE
  5
46
100
AcDbEntity
  8
LC-006-012-----0
  6
STRICHLINIE
 62
           2
100
AcDbLine
 10
27.028419
 20
664.42865
 30
0.0
 11
59.028419
 21
664.42865
 31
0.0
  0
LINE
  5
47
100
AcDbEntity
  8
LC-003-002-----0
  6
AUSGEZOGEN
 62
           1
100
AcDbLine
 10
-110.562073
 20
671.42865
 30
0.0
 11
-68.562073
 21
671.42865
 31
0.0
  0
LINE
  5
48
100
AcDbEntity
  8
LC-004-006-----0
  6
STRICHPUNKT
 62
           2
100
AcDbLine
 10
-73.562073
 20
636.752358135161
 30
0.0
 11
-73.562073
 21
670.233375262908
 31
0.0
  0
LINE
  5
49
100
AcDbEntity
  8
LC-004-006-----0
  6
STRICHPUNKT
 62
           2
100
AcDbLine
 10
-105.562073
 20
636.846670859464
 30
0.0
 11
-105.562073
 21
670.233375262908
 31
0.0
  0
LINE
  5
4A
100
AcDbEntity
  8
LC-004-006-----0
  6
STRICHPUNKT
 62
           2
100
AcDbLine
 10
-110.053028128928
 20
665.42865
 30
0.0
 11
-69.247377374588
 21
665.42865
 31
0.0
  0
LINE
  5
4B
100
AcDbEntity
  8
LC-004-006-----0
  6
STRICHPUNKT
 62
           2
100
AcDbLine
 10
-110.147050365689
 20
641.42865
 30
0.0
 11
-69.34139961135
 21
641.42865
 31
0.0
  0
CIRCLE
  5
4C
100
AcDbEntity
  8
LC-003-002-----0
  6
AUSGEZOGEN
 62
           1
100
AcDbCircle
 10
-105.562073
 20
665.42865
 30
0.0
 40
2.400009155273
  0
ARC
  5
4D
100
AcDbEntity
  8
LC-006-012-----0
  6
STRICHLINIE
 62
           2
100
AcDbCircle
 10
-105.562073
 20
665.42865
 30
0.0
 40
3.000007629395
100
AcDbArc
 50
18.542576138932
 51
297.398244237582
  0
CIRCLE
  5
4E
100
AcDbEntity
  8
LC-003-002-----0
  6
AUSGEZOGEN
 62
           1
100
AcDbCircle
 10
-73.562073
 20
665.42865
 30
0.0
 40
2.400009155273
  0
ARC
  5
4F
100
AcDbEntity
  8
LC-006-012-----0
  6
STRICHLINIE
 62
           2
100
AcDbCircle
 10
-73.562073
 20
665.42865
 30
0.0
 40
3.000007629395
100
AcDbArc
 50
18.542576138932
 51
297.398244237582
  0
CIRCLE
  5
50
100
AcDbEntity
  8
LC-003-002-----0
  6
AUSGEZOGEN
 62
           1
100
AcDbCircle
 10
-73.562073
 20
641.42865
 30
0.0
 40
2.400009155273
  0
ARC
  5
51
100
AcDbEntity
  8
LC-006-012-----0
  6
STRICHLINIE
 62
           2
100
AcDbCircle
 10
-73.562073
 20
641.42865
 30
0.0
 40
3.000007629395
100
AcDbArc
 50
18.542576138932
 51
297.398244237582
  0
CIRCLE
  5
52
100
AcDbEntity
  8
LC-003-002-----0
  6
AUSGEZOGEN
 62
           1
100
AcDbCircle
 10
-105.562073
 20
641.42865
 30
0.0
 40
2.400009155273
  0
ARC
  5
53
100
AcDbEntity
  8
LC-006-012-----0
  6
STRICHLINIE
 62
           2
100
AcDbCircle
 10
-105.562073
 20
641.42865
 30
0.0
 40
3.000007629395
100
AcDbArc
 50
18.542576138932
 51
297.398244237582
  0
CIRCLE
  5
54
100
AcDbEntity
  8
LC-003-002-----0
  6
AUSGEZOGEN
 62
           1
100
AcDbCircle
 10
-89.562073
 20
653.42865
 30
0.0
 40
15.0
  0
LINE
  5
55
100
AcDbEntity
  8
LC-003-002-----0
  6
AUSGEZOGEN
 62
           1
100
AcDbLine
 10
29.028419
 20
635.42865
 30
0.0
 11
29.028419
 21
671.42865
 31
0.0
  0
LINE
  5
56
100
AcDbEntity
  8
LC-003-002-----0
  6
AUSGEZOGEN
 62
           1
100
AcDbLine
 10
29.028419
 20
668.42865
 30
0.0
 11
39.028419
 21
668.42865
 31
0.0
  0
LINE
  5
57
100
AcDbEntity
  8
LC-003-002-----0
  6
AUSGEZOGEN
 62
           1
100
AcDbLine
 10
29.028419
 20
638.42865
 30
0.0
 11
39.028419
 21
638.42865
 31
0.0
  0
LINE
  5
58
100
AcDbEntity
  8
LC-003-002-----0
  6
AUSGEZOGEN
 62
           1
100
AcDbLine
 10
39.028419
 20
638.42865
 30
0.0
 11
39.028419
 21
668.42865
 31
0.0
  0
LINE
  5
59
100
AcDbEntity
  8
LC-003-002-----0
  6
AUSGEZOGEN
 62
           1
100
AcDbLine
 10
39.028419
 20
668.32865
 30
0.0
 11
59.028419
 21
668.32865
 31
0.0
  0
LINE
  5
5A
100
AcDbEntity
  8
LC-003-002-----0
  6
AUSGEZOGEN
 62
           1
100
AcDbLine
 10
39.028419
 20
638.52865
 30
0.0
 11
59.028419
 21
638.52865
 31
0.0
  0
LINE
  5
5B
100
AcDbEntity
  8
LC-004-006-----0
  6
STRICHPUNKT
 62
           2
100
AcDbLine
 10
19.028419
 20
646.32794147217
 30
0.0
 11
19.028419
 21
660.0
 31
0.0
  0
CIRCLE
  5
5C
100
AcDbEntity
  8
LC-003-002-----0
  6
AUSGEZOGEN
 62
           1
100
AcDbCircle
 10
19.028419
 20
653.42865
 30
0.0
 40
3.400001525879
  0
ARC
  5
5D
100
AcDbEntity
  8
LC-008-003-----0
  6
AUSGEZOGEN
 62
           2
100
AcDbCircle
 10
19.028419
 20
653.42865
 30
0.0
 40
4.0
100
AcDbArc
 50
23.505993116864
 51
289.417486080364
  0
LINE
  5
5E
100
AcDbEntity
  8
LC-004-006-----0
  6
STRICHPUNKT
 62
           2
100
AcDbLine
 10
-20.0
 20
665.42865
 30
0.0
 11
31.149074302805
 21
665.42865
 31
0.0
  0
LINE
  5
5F
100
AcDbEntity
  8
LC-004-006-----0
  6
STRICHPUNKT
 62
           2
100
AcDbLine
 10
-20.0
 20
641.42865
 30
0.0
 11
31.149074302805
 21
641.42865
 31
0.0
  0
LINE
  5
60
100
AcDbEntity
  8
LC-006-012-----0
  6
STRICHLINIE
 62
           2
100
AcDbLine
 10
-16.971581
 20
667.828659155273
 30
0.0
 11
29.028419
 21
667.828659155273
 31
0.0
  0
LINE
  5
61
100
AcDbEntity
  8
LC-006-012-----0
  6
STRICHLINIE
 62
           2
100
AcDbLine
 10
-16.971581
 20
668.428657629394
 30
0.0
 11
-3.971581
 21
668.428657629394
 31
0.0
  0
LINE
  5
62
100
AcDbEntity
  8
LC-006-012-----0
  6
STRICHLINIE
 62
           2
100
AcDbLine
 10
-16.971581
 20
663.028640844727
 30
0.0
 11
29.028419
 21
663.028640844727
 31
0.0
  0
LINE
  5
63
100
AcDbEntity
  8
LC-006-012-----0
  6
STRICHLINIE
 62
           2
100
AcDbLine
 10
-16.971581
 20
662.428642370605
 30
0.0
 11
-3.971581
 21
662.428642370605
 31
0.0
  0
LINE
  5
64
100
AcDbEntity
  8
LC-006-012-----0
  6
STRICHLINIE
 62
           2
100
AcDbLine
 10
-16.971581
 20
643.828659155273
 30
0.0
 11
29.028419
 21
643.828659155273
 31
0.0
  0
LINE
  5
65
100
AcDbEntity
  8
LC-006-012-----0
  6
STRICHLINIE
 62
           2
100
AcDbLine
 10
-16.971581
 20
644.428657629394
 30
0.0
 11
-3.971581
 21
644.428657629394
 31
0.0
  0
LINE
  5
66
100
AcDbEntity
  8
LC-006-012-----0
  6
STRICHLINIE
 62
           2
100
AcDbLine
 10
-16.971581
 20
638.428642370605
 30
0.0
 11
-3.971581
 21
638.428642370605
 31
0.0
  0
LINE
  5
67
100
AcDbEntity
  8
LC-006-012-----0
  6
STRICHLINIE
 62
           2
100
AcDbLine
 10
-16.971581
 20
639.028640844727
 30
0.0
 11
29.028419
 21
639.028640844727
 31
0.0
  0
LINE
  5
68
100
AcDbEntity
  8
LC-006-012-----0
  6
STRICHLINIE
 62
           2
100
AcDbLine
 10
-3.971581
 20
662.428642370605
 30
0.0
 11
-3.971581
 21
668.428657629394
 31
0.0
  0
LINE
  5
69
100
AcDbEntity
  8
LC-006-012-----0
  6
STRICHLINIE
 62
           2
100
AcDbLine
 10
-3.971581
 20
638.428642370605
 30
0.0
 11
-3.971581
 21
644.428657629394
 31
0.0
  0
LINE
  5
6A
100
AcDbEntity
  8
LC-003-002-----0
  6
AUSGEZOGEN
 62
           1
100
AcDbLine
 10
-110.562073
 20
580.838158
 30
0.0
 11
-110.562073
 21
534.838158
 31
0.0
  0
LINE
  5
6B
100
AcDbEntity
  8
LC-003-002-----0
  6
AUSGEZOGEN
 62
           1
100
AcDbLine
 10
-104.462073
 20
504.838158
 30
0.0
 11
-74.662073
 21
504.838158
 31
0.0
  0
LINE
  5
6C
100
AcDbEntity
  8
LC-003-002-----0
  6
AUSGEZOGEN
 62
           1
100
AcDbLine
 10
-68.562073
 20
580.838158
 30
0.0
 11
-68.562073
 21
534.838158
 31
0.0
  0
LINE
  5
6D
100
AcDbEntity
  8
LC-003-002-----0
  6
AUSGEZOGEN
 62
           1
100
AcDbLine
 10
-110.562073
 20
580.838158
 30
0.0
 11
-68.562073
 21
580.838158
 31
0.0
  0
LINE
  5
6E
100
AcDbEntity
  8
LC-006-012-----0
  6
STRICHLINIE
 62
           2
100
AcDbLine
 10
-100.562073
 20
548.838158
 30
0.0
 11
-78.562073
 21
548.838158
 31
0.0
  0
LINE
  5
6F
100
AcDbEntity
  8
LC-006-012-----0
  6
STRICHLINIE
 62
           2
100
AcDbLine
 10
-100.562073
 20
536.838158
 30
0.0
 11
-78.562073
 21
536.838158
 31
0.0
  0
LINE
  5
70
100
AcDbEntity
  8
LC-004-006-----0
  6
STRICHPUNKT
 62
           2
100
AcDbLine
 10
-89.562073
 20
600.205646
 30
0.0
 11
-89.562073
 21
488.978897
 31
0.0
  0
LINE
  5
71
100
AcDbEntity
  8
LC-006-012-----0
  6
STRICHLINIE
 62
           2
100
AcDbLine
 10
-78.562073
 20
580.838158
 30
0.0
 11
-78.562073
 21
548.838159
 31
0.0
  0
LINE
  5
72
100
AcDbEntity
  8
LC-006-012-----0
  6
STRICHLINIE
 62
           2
100
AcDbLine
 10
-100.562073
 20
580.838158
 30
0.0
 11
-100.562073
 21
548.838159
 31
0.0
  0
LINE
  5
73
100
AcDbEntity
  8
LC-003-002-----0
  6
AUSGEZOGEN
 62
           1
100
AcDbLine
 10
-83.562073
 20
595.361269
 30
0.0
 11
-83.562073
 21
580.838158
 31
0.0
  0
LINE
  5
74
100
AcDbEntity
  8
LC-003-002-----0
  6
AUSGEZOGEN
 62
           1
100
AcDbLine
 10
-95.562073
 20
595.598047
 30
0.0
 11
-95.562073
 21
580.838158
 31
0.0
  0
LINE
  5
75
100
AcDbEntity
  8
LC-008-003-----0
  6
AUSGEZOGEN
 62
           2
100
AcDbLine
 10
-95.562073
 20
493.150261
 30
0.0
 11
-93.535706
 21
492.8143
 31
0.0
  0
LINE
  5
76
100
AcDbEntity
  8
LC-008-003-----0
  6
AUSGEZOGEN
 62
           2
100
AcDbLine
 10
-93.535706
 20
492.8143
 30
0.0
 11
-87.307556
 21
493.55188
 31
0.0
  0
LINE
  5
77
100
AcDbEntity
  8
LC-008-003-----0
  6
AUSGEZOGEN
 62
           2
100
AcDbLine
 10
-87.307556
 20
493.55188
 30
0.0
 11
-83.562073
 21
493.197037
 31
0.0
  0
LINE
  5
78
100
AcDbEntity
  8
LC-008-003-----0
  6
AUSGEZOGEN
 62
           2
100
AcDbLine
 10
-95.562073
 20
595.598047
 30
0.0
 11
-92.979615
 21
595.0426
 31
0.0
  0
LINE
  5
79
100
AcDbEntity
  8
LC-008-003-----0
  6
AUSGEZOGEN
 62
           2
100
AcDbLine
 10
-92.979615
 20
595.0426
 30
0.0
 11
-86.528992
 21
595.632664
 31
0.0
  0
LINE
  5
7A
100
AcDbEntity
  8
LC-008-003-----0
  6
AUSGEZOGEN
 62
           2
100
AcDbLine
 10
-86.528992
 20
595.632664
 30
0.0
 11
-83.562073
 21
595.361269
 31
0.0
  0
LINE
  5
7B
100
AcDbEntity
  8
LC-006-012-----0
  6
STRICHLINIE
 62
           2
100
AcDbLine
 10
-83.562073
 20
580.838158
 30
0.0
 11
-83.562073
 21
504.838158
 31
0.0
  0
LINE
  5
7C
100
AcDbEntity
  8
LC-006-012-----0
  6
STRICHLINIE
 62
           2
100
AcDbLine
 10
-95.562073
 20
580.838158
 30
0.0
 11
-95.562073
 21
504.838158
 31
0.0
  0
LINE
  5
7D
100
AcDbEntity
  8
LC-003-002-----0
  6
AUSGEZOGEN
 62
           1
100
AcDbLine
 10
-95.562073
 20
504.838158
 30
0.0
 11
-95.562073
 21
493.150261
 31
0.0
  0
LINE
  5
7E
100
AcDbEntity
  8
LC-003-002-----0
  6
AUSGEZOGEN
 62
           1
100
AcDbLine
 10
-83.562073
 20
504.838158
 30
0.0
 11
-83.562073
 21
493.197037
 31
0.0
  0
LINE
  5
7F
100
AcDbEntity
  8
LC-006-012-----0
  6
STRICHLINIE
 62
           2
100
AcDbLine
 10
-100.562073
 20
548.838158
 30
0.0
 11
-100.562073
 21
504.838158
 31
0.0
  0
LINE
  5
80
100
AcDbEntity
  8
LC-006-012-----0
  6
STRICHLINIE
 62
           2
100
AcDbLine
 10
-78.562073
 20
548.838158
 30
0.0
 11
-78.562073
 21
536.838158
 31
0.0
  0
LINE
  5
81
100
AcDbEntity
  8
LC-006-012-----0
  6
STRICHLINIE
 62
           2
100
AcDbLine
 10
-78.562073
 20
536.838158
 30
0.0
 11
-78.562073
 21
504.838158
 31
0.0
  0
LINE
  5
82
100
AcDbEntity
  8
LC-003-002-----0
  6
AUSGEZOGEN
 62
           1
100
AcDbLine
 10
-110.562073
 20
534.838158
 30
0.0
 11
-68.562073
 21
534.838158
 31
0.0
  0
LINE
  5
83
100
AcDbEntity
  8
LC-003-002-----0
  6
AUSGEZOGEN
 62
           1
100
AcDbLine
 10
-74.562073
 20
534.838158
 30
0.0
 11
-74.562073
 21
524.838158
 31
0.0
  0
LINE
  5
84
100
AcDbEntity
  8
LC-003-002-----0
  6
AUSGEZOGEN
 62
           1
100
AcDbLine
 10
-104.562073
 20
534.838158
 30
0.0
 11
-104.562073
 21
524.838158
 31
0.0
  0
LINE
  5
85
100
AcDbEntity
  8
LC-003-002-----0
  6
AUSGEZOGEN
 62
           1
100
AcDbLine
 10
-104.562073
 20
524.838158
 30
0.0
 11
-74.562073
 21
524.838158
 31
0.0
  0
LINE
  5
86
100
AcDbEntity
  8
LC-003-002-----0
  6
AUSGEZOGEN
 62
           1
100
AcDbLine
 10
-74.662073
 20
524.838158
 30
0.0
 11
-74.662073
 21
504.838158
 31
0.0
  0
LINE
  5
87
100
AcDbEntity
  8
LC-003-002-----0
  6
AUSGEZOGEN
 62
           1
100
AcDbLine
 10
-104.462073
 20
524.838158
 30
0.0
 11
-104.462073
 21
504.838158
 31
0.0
  0
LINE
  5
88
100
AcDbEntity
  8
LC-004-006-----0
  6
STRICHPUNKT
 62
           2
100
AcDbLine
 10
-73.562073
 20
583.866577
 30
0.0
 11
-73.562073
 21
532.717502697195
 31
0.0
  0
LINE
  5
89
100
AcDbEntity
  8
LC-004-006-----0
  6
STRICHPUNKT
 62
           2
100
AcDbLine
 10
-105.562073
 20
583.866577
 30
0.0
 11
-105.562073
 21
532.717502697195
 31
0.0
  0
LINE
  5
8A
100
AcDbEntity
  8
LC-006-012-----0
  6
STRICHLINIE
 62
           2
100
AcDbLine
 10
-71.162063844727
 20
559.843083439532
 30
0.0
 11
-71.162063844727
 21
534.838158
 31
0.0
  0
LINE
  5
8B
100
AcDbEntity
  8
LC-003-002-----0
  6
AUSGEZOGEN
 62
           1
100
AcDbLine
 10
-71.162063844727
 20
580.838158
 30
0.0
 11
-71.162063844727
 21
559.843083439532
 31
0.0
  0
LINE
  5
8C
100
AcDbEntity
  8
LC-008-003-----0
  6
AUSGEZOGEN
 62
           2
100
AcDbLine
 10
-70.562065370605
 20
580.838158
 30
0.0
 11
-70.562065370605
 21
567.838158
 31
0.0
  0
LINE
  5
8D
100
AcDbEntity
  8
LC-006-012-----0
  6
STRICHLINIE
 62
           2
100
AcDbLine
 10
-75.962082155273
 20
562.843183772946
 30
0.0
 11
-75.962082155273
 21
534.838158
 31
0.0
  0
LINE
  5
8E
100
AcDbEntity
  8
LC-003-002-----0
  6
AUSGEZOGEN
 62
           1
100
AcDbLine
 10
-75.962082155273
 20
580.838158
 30
0.0
 11
-75.962082155273
 21
562.843183772946
 31
0.0
  0
LINE
  5
8F
100
AcDbEntity
  8
LC-008-003-----0
  6
AUSGEZOGEN
 62
           2
100
AcDbLine
 10
-76.562080629394
 20
580.838158
 30
0.0
 11
-76.562080629394
 21
567.838158
 31
0.0
  0
LINE
  5
90
100
AcDbEntity
  8
LC-006-012-----0
  6
STRICHLINIE
 62
           2
100
AcDbLine
 10
-103.162063844727
 20
580.838158
 30
0.0
 11
-103.162063844727
 21
534.838158
 31
0.0
  0
LINE
  5
91
100
AcDbEntity
  8
LC-006-012-----0
  6
STRICHLINIE
 62
           2
100
AcDbLine
 10
-102.562065370605
 20
580.838158
 30
0.0
 11
-102.562065370605
 21
567.838158
 31
0.0
  0
LINE
  5
92
100
AcDbEntity
  8
LC-006-012-----0
  6
STRICHLINIE
 62
           2
100
AcDbLine
 10
-108.562080629394
 20
580.838158
 30
0.0
 11
-108.562080629394
 21
567.838158
 31
0.0
  0
LINE
  5
93
100
AcDbEntity
  8
LC-006-012-----0
  6
STRICHLINIE
 62
           2
100
AcDbLine
 10
-107.962082155273
 20
580.838158
 30
0.0
 11
-107.962082155273
 21
534.838158
 31
0.0
  0
LINE
  5
94
100
AcDbEntity
  8
LC-003-002-----0
  6
AUSGEZOGEN
 62
           1
100
AcDbLine
 10
-76.562080629394
 20
567.838158
 30
0.0
 11
-70.562065370605
 21
567.838158
 31
0.0
  0
LINE
  5
95
100
AcDbEntity
  8
LC-006-012-----0
  6
STRICHLINIE
 62
           2
100
AcDbLine
 10
-108.562080629394
 20
567.838158
 30
0.0
 11
-102.562065370605
 21
567.838158
 31
0.0
  0
LINE
  5
96
100
AcDbEntity
  8
LC-008-003-----0
  6
AUSGEZOGEN
 62
           2
100
AcDbLine
 10
-77.81525846428
 20
580.838158
 30
0.0
 11
-77.723114878177
 21
577.72289812083
 31
0.0
  0
LINE
  5
97
100
AcDbEntity
  8
LC-008-003-----0
  6
AUSGEZOGEN
 62
           2
100
AcDbLine
 10
-77.723114878177
 20
577.72289812083
 30
0.0
 11
-77.999545636487
 21
573.378769457255
 31
0.0
  0
LINE
  5
98
100
AcDbEntity
  8
LC-008-003-----0
  6
AUSGEZOGEN
 62
           2
100
AcDbLine
 10
-77.999545636487
 20
573.378769457255
 30
0.0
 11
-77.446684119867
 21
570.23620829637
 31
0.0
  0
LINE
  5
99
100
AcDbEntity
  8
LC-008-003-----0
  6
AUSGEZOGEN
 62
           2
100
AcDbLine
 10
-77.446684119867
 20
570.23620829637
 30
0.0
 11
-77.354540533763
 21
564.690512130103
 31
0.0
  0
LINE
  5
9A
100
AcDbEntity
  8
LC-008-003-----0
  6
AUSGEZOGEN
 62
           2
100
AcDbLine
 10
-77.354540533763
 20
564.690512130103
 30
0.0
 11
-74.498089364559
 21
560.900953083155
 31
0.0
  0
LINE
  5
9B
100
AcDbEntity
  8
LC-008-003-----0
  6
AUSGEZOGEN
 62
           2
100
AcDbLine
 10
-74.498089364559
 20
560.900953083155
 30
0.0
 11
-72.378786884182
 21
560.069098658215
 31
0.0
  0
LINE
  5
9C
100
AcDbEntity
  8
LC-008-003-----0
  6
AUSGEZOGEN
 62
           2
100
AcDbLine
 10
-72.378786884182
 20
560.069098658215
 30
0.0
 11
-69.890910059392
 21
559.606957311026
 31
0.0
  0
LINE
  5
9D
100
AcDbEntity
  8
LC-008-003-----0
  6
AUSGEZOGEN
 62
           2
100
AcDbLine
 10
-69.890910059392
 20
559.606957311026
 30
0.0
 11
-68.562073
 21
559.884242119339
 31
0.0
  0
INSERT
  5
9E
100
AcDbEntity
  8
LC-008-003-----0
  6
AUSGEZOGEN
 62
           2
100
AcDbBlockReference
  2
*X1
 10
0.0
 20
0.0
 30
0.0
  0
LINE
  5
9F
100
AcDbEntity
  8
LC-006-012-----0
  6
STRICHLINIE
 62
           2
100
AcDbLine
 10
-110.562073
 20
657.42865
 30
0.0
 11
-99.80902376596
 21
657.42865
 31
0.0
  0
LINE
  5
A0
100
AcDbEntity
  8
LC-006-012-----0
  6
STRICHLINIE
 62
           2
100
AcDbLine
 10
-110.562073
 20
656.828651525879
 30
0.0
 11
-100.023429968578
 21
656.828651525879
 31
0.0
  0
LINE
  5
A1
100
AcDbEntity
  8
LC-006-012-----0
  6
STRICHLINIE
 62
           2
100
AcDbLine
 10
-110.562073
 20
650.028648474121
 30
0.0
 11
-100.023429968578
 21
650.028648474121
 31
0.0
  0
LINE
  5
A2
100
AcDbEntity
  8
LC-006-012-----0
  6
STRICHLINIE
 62
           2
100
AcDbLine
 10
-110.562073
 20
649.42865
 30
0.0
 11
-99.80902376596
 21
649.42865
 31
0.0
  0
LINE
  5
A3
100
AcDbEntity
  8
LC-004-006-----0
  6
STRICHPUNKT
 62
           2
100
AcDbLine
 10
-115.0
 20
544.838158
 30
0.0
 11
-95.0
 21
544.838158
 31
0.0
  0
LINE
  5
A4
100
AcDbEntity
  8
LC-006-012-----0
  6
STRICHLINIE
 62
           2
100
AcDbLine
 10
-110.562073
 20
548.838158
 30
0.0
 11
-100.562073
 21
548.838158
 31
0.0
  0
LINE
  5
A5
100
AcDbEntity
  8
LC-006-012-----0
  6
STRICHLINIE
 62
           2
100
AcDbLine
 10
-110.562073
 20
548.238159525879
 30
0.0
 11
-100.562073
 21
548.238159525879
 31
0.0
  0
LINE
  5
A6
100
AcDbEntity
  8
LC-006-012-----0
  6
STRICHLINIE
 62
           2
100
AcDbLine
 10
-110.562073
 20
541.438156474121
 30
0.0
 11
-100.562073
 21
541.438156474121
 31
0.0
  0
LINE
  5
A7
100
AcDbEntity
  8
LC-006-012-----0
  6
STRICHLINIE
 62
           2
100
AcDbLine
 10
-110.562073
 20
540.838158
 30
0.0
 11
-100.562073
 21
540.838158
 31
0.0
  0
ENDSEC
  0
SECTION
  2
OBJECTS
  0
DICTIONARY
  5
19
100
AcDbDictionary
  3
ACAD_GROUP
350
1A
  3
ACAD_MLINESTYLE
350
1B
  0
DICTIONARY
  5
1A
102
{ACAD_REACTORS
330
19
102
}
100
AcDbDictionary
  0
DICTIONARY
  5
1B
102
{ACAD_REACTORS
330
19
102
}
100
AcDbDictionary
  3
STANDARD
350
1C
  0
MLINESTYLE
  5
1C
102
{ACAD_REACTORS
330
1B
102
}
100
AcDbMlineStyle
  2
STANDARD
 70
           0
  3

 62
           0
 51
90.0
 52
90.0
 71
           2
 49
0.5
 62
         256
  6
BYLAYER
 49
-0.5
 62
         256
  6
BYLAYER
  0
ENDSEC
  0
EOF
