  0
SECTION
  2
HEADER
  9
$LIMMIN
 10
58.999424
 20
494.934265
  9
$LIMMAX
 10
564.880798
 20
779.931396
  9
$EXTMIN
 10
58.999424
 20
494.934265
  9
$EXTMAX
 10
564.880798
 20
779.931396
  0
ENDSEC
  0
SECTION
  2
TABLES
  0
TABLE
  2
LTYPE
 70
     3
  0
LTYPE
  2
CONTINUOUS
 70
    64
  3
Ausgezogene Linie
 72
    65
 73
     0
 40
0.0
  0
LTYPE
  2
DASHED
 70
    64
  3
__ __ __ __ __ __ __ __ __ __ __ __ __ __ __
 72
    65
 73
     2
 40
0.75
 49
0.5
 49
-0.25
  0
LTYPE
  2
DASHDOT
 70
    64
  3
__ . __ . __ . __ . __ . __ . __ . __ . __ . __
 72
    65
 73
     4
 40
1.0
 49
0.5
 49
-0.25
 49
0.0
 49
-0.25
  0
ENDTAB
  0
TABLE
  2
LAYER
 70
     5
  0
LAYER
  2
LC-INFO-1-1-MM-A0-0
 70
    64
 62
     7
  6
CONTINUOUS
  0
LAYER
  2
LC-003-002-----0
 70
    64
 62
     7
  6
CONTINUOUS
  0
LAYER
  2
LC-005-002-RND-0
 70
    64
 62
     7
  6
CONTINUOUS
  0
LAYER
  2
LC-004-006-----0
 70
    64
 62
     7
  6
CONTINUOUS
  0
LAYER
  2
LC-006-012-----0
 70
    64
 62
     7
  6
CONTINUOUS
  0
ENDTAB
  0
TABLE
  2
STYLE
 70
     1
  0
STYLE
  2
TXT8
 70
    64
 40
0.0
 41
1.0
 50
0.0
 71
     0
 42
3.500000
  3
TXT8
  4

  0
ENDTAB
  0
ENDSEC
  0
SECTION
  2
BLOCKS
  0
ENDSEC
  0
SECTION
  2
ENTITIES
  0
LINE
  8
LC-006-012-----0
 62
     2
  6
CONTINUOUS
 10
527.811096
 20
633.877075
 11
537.047424
 21
643.113464
  0
LINE
  8
LC-006-012-----0
 62
     2
  6
CONTINUOUS
 10
522.735718
 20
633.044373
 11
537.880127
 21
648.188782
  0
LINE
  8
LC-006-012-----0
 62
     2
  6
CONTINUOUS
 10
519.002441
 20
633.553772
 11
537.370789
 21
651.922058
  0
LINE
  8
LC-006-012-----0
 62
     2
  6
CONTINUOUS
 10
515.947998
 20
634.741943
 11
536.182556
 21
654.976501
  0
LINE
  8
LC-006-012-----0
 62
     2
  6
CONTINUOUS
 10
513.390808
 20
636.427368
 11
534.497131
 21
657.533752
  0
LINE
  8
LC-006-012-----0
 62
     2
  6
CONTINUOUS
 10
511.268951
 20
638.548157
 11
532.376343
 21
659.655579
  0
LINE
  8
LC-006-012-----0
 62
     2
  6
CONTINUOUS
 10
509.582489
 20
641.104370
 11
529.820190
 21
661.342041
  0
LINE
  8
LC-006-012-----0
 62
     2
  6
CONTINUOUS
 10
508.392975
 20
644.157471
 11
526.767029
 21
662.531555
  0
LINE
  8
LC-006-012-----0
 62
     2
  6
CONTINUOUS
 10
507.881622
 20
647.888794
 11
523.035767
 21
663.042908
  0
LINE
  8
LC-006-012-----0
 62
     2
  6
CONTINUOUS
 10
508.708923
 20
652.958740
 11
517.965820
 21
662.215576
  0
LINE
  8
LC-006-012-----0
 62
     2
  6
CONTINUOUS
 10
429.655884
 20
633.302612
 11
441.621887
 21
645.268616
  0
LINE
  8
LC-006-012-----0
 62
     2
  6
CONTINUOUS
 10
425.243896
 20
633.133301
 11
441.791229
 21
649.680603
  0
LINE
  8
LC-006-012-----0
 62
     2
  6
CONTINUOUS
 10
421.798798
 20
633.930847
 11
440.993683
 21
653.125732
  0
LINE
  8
LC-006-012-----0
 62
     2
  6
CONTINUOUS
 10
418.942047
 20
635.316711
 11
439.607788
 21
655.982483
  0
LINE
  8
LC-006-012-----0
 62
     2
  6
CONTINUOUS
 10
416.550507
 20
637.167847
 11
437.756683
 21
658.374023
  0
LINE
  8
LC-006-012-----0
 62
     2
  6
CONTINUOUS
 10
414.588013
 20
639.447937
 11
435.476563
 21
660.336487
  0
LINE
  8
LC-006-012-----0
 62
     2
  6
CONTINUOUS
 10
413.075287
 20
642.177917
 11
432.746613
 21
661.849243
  0
LINE
  8
LC-006-012-----0
 62
     2
  6
CONTINUOUS
 10
412.106476
 20
645.451721
 11
429.472809
 21
662.818054
  0
LINE
  8
LC-006-012-----0
 62
     2
  6
CONTINUOUS
 10
411.956024
 20
649.543884
 11
425.380615
 21
662.968506
  0
LINE
  8
LC-006-012-----0
 62
     2
  6
CONTINUOUS
 10
414.157013
 20
655.987549
 11
418.936981
 21
660.767517
  0
LINE
  8
LC-003-002-----0
 62
     1
  6
CONTINUOUS
 10
66.632454
 20
771.250061
 11
66.632454
 21
713.250061
  0
LINE
  8
LC-003-002-----0
 62
     1
  6
CONTINUOUS
 10
66.632454
 20
713.250061
 11
91.632454
 21
713.250061
  0
LINE
  8
LC-003-002-----0
 62
     1
  6
CONTINUOUS
 10
91.632454
 20
771.250061
 11
91.632454
 21
713.250061
  0
LINE
  8
LC-003-002-----0
 62
     1
  6
CONTINUOUS
 10
66.632454
 20
771.250061
 11
91.632454
 21
771.250061
  0
LINE
  8
LC-003-002-----0
 62
     1
  6
CONTINUOUS
 10
111.632454
 20
710.250061
 11
291.632446
 21
710.250061
  0
LINE
  8
LC-003-002-----0
 62
     1
  6
CONTINUOUS
 10
111.632454
 20
774.250061
 11
291.632446
 21
774.250061
  0
LINE
  8
LC-003-002-----0
 62
     1
  6
CONTINUOUS
 10
111.632454
 20
774.250061
 11
111.632454
 21
710.250061
  0
LINE
  8
LC-003-002-----0
 62
     1
  6
CONTINUOUS
 10
291.632446
 20
774.250061
 11
291.632446
 21
710.250061
  0
LINE
  8
LC-005-002-RND-0
 62
     2
  6
DASHDOT
 10
79.132454
 20
774.851807
 11
79.132454
 21
709.569031
  0
LINE
  8
LC-004-006-----0
 62
     2
  6
DASHED
 10
85.882454
 20
758.250061
 11
85.882454
 21
743.750061
  0
LINE
  8
LC-004-006-----0
 62
     2
  6
DASHED
 10
72.382454
 20
758.250061
 11
72.382454
 21
743.750061
  0
LINE
  8
LC-004-006-----0
 62
     2
  6
DASHED
 10
89.132454
 20
771.250061
 11
89.132454
 21
758.250061
  0
LINE
  8
LC-004-006-----0
 62
     2
  6
DASHED
 10
69.132454
 20
771.250061
 11
69.132454
 21
758.250061
  0
LINE
  8
LC-004-006-----0
 62
     2
  6
DASHED
 10
69.132454
 20
758.250061
 11
89.132454
 21
758.250061
  0
LINE
  8
LC-005-002-RND-0
 62
     2
  6
DASHDOT
 10
58.999424
 20
742.250061
 11
345.166870
 21
742.250061
  0
LINE
  8
LC-003-002-----0
 62
     1
  6
CONTINUOUS
 10
66.632454
 20
743.750061
 11
91.632454
 21
743.750061
  0
LINE
  8
LC-003-002-----0
 62
     1
  6
CONTINUOUS
 10
66.632454
 20
740.750061
 11
91.632454
 21
740.750061
  0
LINE
  8
LC-004-006-----0
 62
     2
  6
DASHED
 10
85.132454
 20
740.750061
 11
85.132454
 21
713.250061
  0
LINE
  8
LC-004-006-----0
 62
     2
  6
DASHED
 10
73.132454
 20
740.750061
 11
73.132454
 21
713.250061
  0
LINE
  8
LC-003-002-----0
 62
     1
  6
CONTINUOUS
 10
66.632454
 20
677.043701
 11
66.632454
 21
497.043701
  0
LINE
  8
LC-003-002-----0
 62
     1
  6
CONTINUOUS
 10
336.632446
 20
771.250061
 11
336.632446
 21
713.250061
  0
LINE
  8
LC-003-002-----0
 62
     1
  6
CONTINUOUS
 10
336.632446
 20
713.250061
 11
311.632446
 21
713.250061
  0
LINE
  8
LC-003-002-----0
 62
     1
  6
CONTINUOUS
 10
311.632446
 20
771.250061
 11
311.632446
 21
713.250061
  0
LINE
  8
LC-003-002-----0
 62
     1
  6
CONTINUOUS
 10
336.632446
 20
771.250061
 11
311.632446
 21
771.250061
  0
LINE
  8
LC-005-002-RND-0
 62
     2
  6
DASHDOT
 10
324.132446
 20
774.851807
 11
324.132446
 21
709.569031
  0
LINE
  8
LC-004-006-----0
 62
     2
  6
DASHED
 10
317.382446
 20
758.250061
 11
317.382446
 21
743.750061
  0
LINE
  8
LC-004-006-----0
 62
     2
  6
DASHED
 10
330.882446
 20
758.250061
 11
330.882446
 21
743.750061
  0
LINE
  8
LC-004-006-----0
 62
     2
  6
DASHED
 10
314.132446
 20
771.250061
 11
314.132446
 21
758.250061
  0
LINE
  8
LC-004-006-----0
 62
     2
  6
DASHED
 10
334.132446
 20
771.250061
 11
334.132446
 21
758.250061
  0
LINE
  8
LC-004-006-----0
 62
     2
  6
DASHED
 10
334.132446
 20
758.250061
 11
314.132446
 21
758.250061
  0
LINE
  8
LC-004-006-----0
 62
     2
  6
DASHED
 10
66.632454
 20
757.250061
 11
91.632454
 21
757.250061
  0
LINE
  8
LC-003-002-----0
 62
     1
  6
CONTINUOUS
 10
336.632446
 20
743.750061
 11
311.632446
 21
743.750061
  0
LINE
  8
LC-003-002-----0
 62
     1
  6
CONTINUOUS
 10
336.632446
 20
740.750061
 11
311.632446
 21
740.750061
  0
LINE
  8
LC-004-006-----0
 62
     2
  6
DASHED
 10
84.132454
 20
740.750061
 11
84.132454
 21
713.250061
  0
LINE
  8
LC-004-006-----0
 62
     2
  6
DASHED
 10
74.132454
 20
740.750061
 11
74.132454
 21
713.250061
  0
LINE
  8
LC-004-006-----0
 62
     2
  6
DASHED
 10
66.632454
 20
727.250061
 11
91.632454
 21
727.250061
  0
LINE
  8
LC-003-002-----0
 62
     1
  6
CONTINUOUS
 10
91.632454
 20
757.250061
 11
111.632454
 21
757.250061
  0
LINE
  8
LC-004-006-----0
 62
     2
  6
DASHED
 10
111.632454
 20
757.250061
 11
291.632446
 21
757.250061
  0
LINE
  8
LC-003-002-----0
 62
     1
  6
CONTINUOUS
 10
91.632454
 20
727.250061
 11
111.632454
 21
727.250061
  0
LINE
  8
LC-004-006-----0
 62
     2
  6
DASHED
 10
111.632454
 20
727.250061
 11
291.632446
 21
727.250061
  0
LINE
  8
LC-003-002-----0
 62
     1
  6
CONTINUOUS
 10
291.632446
 20
757.250061
 11
311.632446
 21
757.250061
  0
LINE
  8
LC-004-006-----0
 62
     2
  6
DASHED
 10
311.632446
 20
757.250061
 11
336.632446
 21
757.250061
  0
LINE
  8
LC-003-002-----0
 62
     1
  6
CONTINUOUS
 10
291.632446
 20
727.250061
 11
311.632446
 21
727.250061
  0
LINE
  8
LC-004-006-----0
 62
     2
  6
DASHED
 10
311.632446
 20
727.250061
 11
336.632446
 21
727.250061
  0
LINE
  8
LC-005-002-RND-0
 62
     2
  6
DASHDOT
 10
280.632446
 20
705.131226
 11
280.632446
 21
779.931396
  0
LINE
  8
LC-004-006-----0
 62
     2
  6
DASHED
 10
286.632446
 20
748.250061
 11
286.632446
 21
774.250061
  0
LINE
  8
LC-004-006-----0
 62
     2
  6
DASHED
 10
274.632446
 20
748.250061
 11
274.632446
 21
774.250061
  0
LINE
  8
LC-004-006-----0
 62
     2
  6
DASHED
 10
285.882446
 20
721.250061
 11
285.882446
 21
774.250061
  0
LINE
  8
LC-004-006-----0
 62
     2
  6
DASHED
 10
275.382446
 20
721.250061
 11
275.382446
 21
774.250061
  0
LINE
  8
LC-004-006-----0
 62
     2
  6
DASHED
 10
274.632446
 20
748.250061
 11
286.632446
 21
748.250061
  0
LINE
  8
LC-004-006-----0
 62
     2
  6
DASHED
 10
271.632446
 20
721.250061
 11
289.632446
 21
721.250061
  0
LINE
  8
LC-005-002-RND-0
 62
     2
  6
DASHDOT
 10
122.632454
 20
705.131226
 11
122.632454
 21
779.931396
  0
LINE
  8
LC-004-006-----0
 62
     2
  6
DASHED
 10
289.632446
 20
710.250061
 11
289.632446
 21
721.250061
  0
LINE
  8
LC-004-006-----0
 62
     2
  6
DASHED
 10
271.632446
 20
710.250061
 11
271.632446
 21
721.250061
  0
LINE
  8
LC-004-006-----0
 62
     2
  6
DASHED
 10
116.632454
 20
748.250061
 11
116.632454
 21
774.250061
  0
LINE
  8
LC-004-006-----0
 62
     2
  6
DASHED
 10
128.632446
 20
748.250061
 11
128.632446
 21
774.250061
  0
LINE
  8
LC-004-006-----0
 62
     2
  6
DASHED
 10
117.382454
 20
721.250061
 11
117.382454
 21
774.250061
  0
LINE
  8
LC-004-006-----0
 62
     2
  6
DASHED
 10
127.882454
 20
721.250061
 11
127.882454
 21
774.250061
  0
LINE
  8
LC-004-006-----0
 62
     2
  6
DASHED
 10
128.632446
 20
748.250061
 11
116.632462
 21
748.250061
  0
LINE
  8
LC-004-006-----0
 62
     2
  6
DASHED
 10
131.632446
 20
721.250061
 11
113.632462
 21
721.250061
  0
LINE
  8
LC-004-006-----0
 62
     2
  6
DASHED
 10
113.632454
 20
710.250061
 11
113.632454
 21
721.250061
  0
LINE
  8
LC-004-006-----0
 62
     2
  6
DASHED
 10
131.632446
 20
710.250061
 11
131.632446
 21
721.250061
  0
LINE
  8
LC-004-006-----0
 62
     2
  6
DASHED
 10
111.632454
 20
765.750061
 11
179.632446
 21
765.750061
  0
LINE
  8
LC-004-006-----0
 62
     2
  6
DASHED
 10
111.632454
 20
718.750061
 11
179.632446
 21
718.750061
  0
LINE
  8
LC-004-006-----0
 62
     2
  6
DASHED
 10
179.632446
 20
765.750061
 11
179.632446
 21
718.750061
  0
LINE
  8
LC-004-006-----0
 62
     2
  6
DASHED
 10
223.632446
 20
765.750061
 11
223.632446
 21
718.750061
  0
LINE
  8
LC-004-006-----0
 62
     2
  6
DASHED
 10
179.632446
 20
765.750061
 11
223.632446
 21
765.750061
  0
LINE
  8
LC-004-006-----0
 62
     2
  6
DASHED
 10
223.632446
 20
765.750061
 11
291.632446
 21
765.750061
  0
LINE
  8
LC-004-006-----0
 62
     2
  6
DASHED
 10
179.632446
 20
718.750061
 11
223.632446
 21
718.750061
  0
LINE
  8
LC-004-006-----0
 62
     2
  6
DASHED
 10
223.632446
 20
718.750061
 11
291.632446
 21
718.750061
  0
LINE
  8
LC-003-002-----0
 62
     1
  6
CONTINUOUS
 10
66.632454
 20
497.043701
 11
91.632454
 21
497.043701
  0
LINE
  8
LC-003-002-----0
 62
     1
  6
CONTINUOUS
 10
91.632454
 20
677.043701
 11
91.632454
 21
497.043701
  0
LINE
  8
LC-003-002-----0
 62
     1
  6
CONTINUOUS
 10
111.632454
 20
677.043701
 11
111.632454
 21
497.043701
  0
LINE
  8
LC-003-002-----0
 62
     1
  6
CONTINUOUS
 10
291.632446
 20
677.043701
 11
291.632446
 21
497.043701
  0
LINE
  8
LC-003-002-----0
 62
     1
  6
CONTINUOUS
 10
66.632454
 20
677.043701
 11
91.632454
 21
677.043701
  0
LINE
  8
LC-003-002-----0
 62
     1
  6
CONTINUOUS
 10
111.632454
 20
497.043701
 11
291.632446
 21
497.043701
  0
LINE
  8
LC-003-002-----0
 62
     1
  6
CONTINUOUS
 10
111.632454
 20
677.043701
 11
291.632446
 21
677.043701
  0
LINE
  8
LC-005-002-RND-0
 62
     2
  6
DASHDOT
 10
79.132454
 20
675.387390
 11
79.132454
 21
647.094910
  0
LINE
  8
LC-003-002-----0
 62
     1
  6
CONTINUOUS
 10
384.880829
 20
713.250061
 11
564.880798
 21
713.250061
  0
LINE
  8
LC-005-002-RND-0
 62
     2
  6
DASHDOT
 10
93.982750
 20
662.043701
 11
64.389679
 21
662.043701
  0
LINE
  8
LC-004-006-----0
 62
     2
  6
DASHED
 10
330.132446
 20
740.750061
 11
330.132446
 21
713.250061
  0
CIRCLE
  8
LC-003-002-----0
 62
     1
  6
CONTINUOUS
 10
79.132454
 20
662.043701
 40
10.000000
  0
LINE
  8
LC-005-002-RND-0
 62
     2
  6
DASHDOT
 10
79.132454
 20
498.699982
 11
79.132454
 21
526.992493
  0
LINE
  8
LC-005-002-RND-0
 62
     2
  6
DASHDOT
 10
93.982750
 20
512.043701
 11
64.389679
 21
512.043701
  0
CIRCLE
  8
LC-003-002-----0
 62
     1
  6
CONTINUOUS
 10
79.132454
 20
512.043701
 40
10.000000
  0
LINE
  8
LC-003-002-----0
 62
     1
  6
CONTINUOUS
 10
384.880829
 20
710.250061
 11
564.880798
 21
710.250061
  0
LINE
  8
LC-003-002-----0
 62
     1
  6
CONTINUOUS
 10
564.880798
 20
713.250061
 11
564.880798
 21
740.750061
  0
LINE
  8
LC-003-002-----0
 62
     1
  6
CONTINUOUS
 10
336.632446
 20
677.043701
 11
336.632446
 21
497.043701
  0
LINE
  8
LC-003-002-----0
 62
     1
  6
CONTINUOUS
 10
336.632446
 20
497.043701
 11
311.632446
 21
497.043701
  0
LINE
  8
LC-003-002-----0
 62
     1
  6
CONTINUOUS
 10
311.632446
 20
677.043701
 11
311.632446
 21
497.043701
  0
LINE
  8
LC-003-002-----0
 62
     1
  6
CONTINUOUS
 10
336.632446
 20
677.043701
 11
311.632446
 21
677.043701
  0
LINE
  8
LC-005-002-RND-0
 62
     2
  6
DASHDOT
 10
324.132446
 20
675.387390
 11
324.132446
 21
647.094910
  0
LINE
  8
LC-005-002-RND-0
 62
     2
  6
DASHDOT
 10
309.282166
 20
662.043701
 11
338.875214
 21
662.043701
  0
LINE
  8
LC-004-006-----0
 62
     2
  6
DASHED
 10
329.132446
 20
740.750061
 11
329.132446
 21
713.250061
  0
CIRCLE
  8
LC-003-002-----0
 62
     1
  6
CONTINUOUS
 10
324.132446
 20
662.043701
 40
10.000000
  0
LINE
  8
LC-005-002-RND-0
 62
     2
  6
DASHDOT
 10
324.132446
 20
498.699982
 11
324.132446
 21
526.992493
  0
LINE
  8
LC-005-002-RND-0
 62
     2
  6
DASHDOT
 10
309.282166
 20
512.043701
 11
338.875214
 21
512.043701
  0
CIRCLE
  8
LC-003-002-----0
 62
     1
  6
CONTINUOUS
 10
79.132454
 20
512.043701
 40
5.000000
  0
CIRCLE
  8
LC-003-002-----0
 62
     1
  6
CONTINUOUS
 10
324.132446
 20
512.043701
 40
10.000000
  0
LINE
  8
LC-005-002-RND-0
 62
     2
  6
DASHDOT
 10
58.999424
 20
635.043701
 11
345.166870
 21
635.043701
  0
LINE
  8
LC-004-006-----0
 62
     2
  6
DASHED
 10
111.632454
 20
650.043701
 11
291.632446
 21
650.043701
  0
LINE
  8
LC-004-006-----0
 62
     2
  6
DASHED
 10
111.632454
 20
620.043701
 11
291.632446
 21
620.043701
  0
LINE
  8
LC-004-006-----0
 62
     2
  6
DASHED
 10
111.632454
 20
658.543701
 11
179.632446
 21
658.543701
  0
LINE
  8
LC-004-006-----0
 62
     2
  6
DASHED
 10
111.632454
 20
611.543701
 11
179.632446
 21
611.543701
  0
LINE
  8
LC-004-006-----0
 62
     2
  6
DASHED
 10
179.632446
 20
658.543701
 11
179.632446
 21
611.543701
  0
LINE
  8
LC-004-006-----0
 62
     2
  6
DASHED
 10
223.632446
 20
658.543701
 11
223.632446
 21
611.543701
  0
LINE
  8
LC-004-006-----0
 62
     2
  6
DASHED
 10
179.632446
 20
658.543701
 11
223.632446
 21
658.543701
  0
LINE
  8
LC-004-006-----0
 62
     2
  6
DASHED
 10
223.632446
 20
658.543701
 11
291.632446
 21
658.543701
  0
LINE
  8
LC-004-006-----0
 62
     2
  6
DASHED
 10
179.632446
 20
611.543701
 11
223.632446
 21
611.543701
  0
LINE
  8
LC-004-006-----0
 62
     2
  6
DASHED
 10
223.632446
 20
611.543701
 11
291.632446
 21
611.543701
  0
LINE
  8
LC-005-002-RND-0
 62
     2
  6
DASHDOT
 10
122.632454
 20
679.153137
 11
122.632454
 21
652.122131
  0
LINE
  8
LC-003-002-----0
 62
     1
  6
CONTINUOUS
 10
291.632446
 20
620.043701
 11
311.632446
 21
620.043701
  0
LINE
  8
LC-003-002-----0
 62
     1
  6
CONTINUOUS
 10
291.632446
 20
650.043701
 11
311.632446
 21
650.043701
  0
LINE
  8
LC-004-006-----0
 62
     2
  6
DASHED
 10
311.632446
 20
620.043701
 11
336.632446
 21
620.043701
  0
LINE
  8
LC-003-002-----0
 62
     1
  6
CONTINUOUS
 10
91.632454
 20
620.043701
 11
111.632454
 21
620.043701
  0
LINE
  8
LC-003-002-----0
 62
     1
  6
CONTINUOUS
 10
91.632454
 20
650.043701
 11
111.632454
 21
650.043701
  0
LINE
  8
LC-004-006-----0
 62
     2
  6
DASHED
 10
66.632454
 20
620.043701
 11
91.632454
 21
620.043701
  0
LINE
  8
LC-005-002-RND-0
 62
     2
  6
DASHDOT
 10
135.450058
 20
666.043701
 11
110.048882
 21
666.043701
  0
LINE
  8
LC-004-006-----0
 62
     2
  6
DASHED
 10
66.632454
 20
650.043701
 11
91.632454
 21
650.043701
  0
LINE
  8
LC-004-006-----0
 62
     2
  6
DASHED
 10
311.632446
 20
650.043701
 11
336.632446
 21
650.043701
  0
LINE
  8
LC-005-002-RND-0
 62
     2
  6
DASHDOT
 10
58.999424
 20
539.043701
 11
345.166870
 21
539.043701
  0
LINE
  8
LC-004-006-----0
 62
     2
  6
DASHED
 10
111.632454
 20
524.043701
 11
291.632446
 21
524.043701
  0
LINE
  8
LC-004-006-----0
 62
     2
  6
DASHED
 10
111.632454
 20
554.043701
 11
291.632446
 21
554.043701
  0
LINE
  8
LC-004-006-----0
 62
     2
  6
DASHED
 10
111.632454
 20
515.543701
 11
179.632446
 21
515.543701
  0
LINE
  8
LC-004-006-----0
 62
     2
  6
DASHED
 10
111.632454
 20
562.543701
 11
179.632446
 21
562.543701
  0
LINE
  8
LC-004-006-----0
 62
     2
  6
DASHED
 10
179.632446
 20
515.543701
 11
179.632446
 21
562.543701
  0
LINE
  8
LC-004-006-----0
 62
     2
  6
DASHED
 10
223.632446
 20
515.543701
 11
223.632446
 21
562.543701
  0
LINE
  8
LC-004-006-----0
 62
     2
  6
DASHED
 10
179.632446
 20
515.543701
 11
223.632446
 21
515.543701
  0
LINE
  8
LC-004-006-----0
 62
     2
  6
DASHED
 10
223.632446
 20
515.543701
 11
291.632446
 21
515.543701
  0
LINE
  8
LC-004-006-----0
 62
     2
  6
DASHED
 10
179.632446
 20
562.543701
 11
223.632446
 21
562.543701
  0
LINE
  8
LC-004-006-----0
 62
     2
  6
DASHED
 10
223.632446
 20
562.543701
 11
291.632446
 21
562.543701
  0
CIRCLE
  8
LC-003-002-----0
 62
     1
  6
CONTINUOUS
 10
122.632454
 20
666.043701
 40
5.250000
  0
LINE
  8
LC-003-002-----0
 62
     1
  6
CONTINUOUS
 10
291.632446
 20
524.043701
 11
311.632446
 21
524.043701
  0
LINE
  8
LC-003-002-----0
 62
     1
  6
CONTINUOUS
 10
291.632446
 20
554.043701
 11
311.632446
 21
554.043701
  0
LINE
  8
LC-004-006-----0
 62
     2
  6
DASHED
 10
311.632446
 20
554.043701
 11
336.632446
 21
554.043701
  0
LINE
  8
LC-004-006-----0
 62
     2
  6
DASHED
 10
311.632446
 20
524.043701
 11
336.632446
 21
524.043701
  0
LINE
  8
LC-003-002-----0
 62
     1
  6
CONTINUOUS
 10
91.632454
 20
554.043701
 11
111.632454
 21
554.043701
  0
LINE
  8
LC-003-002-----0
 62
     1
  6
CONTINUOUS
 10
91.632454
 20
524.043701
 11
111.632454
 21
524.043701
  0
LINE
  8
LC-004-006-----0
 62
     2
  6
DASHED
 10
66.632454
 20
554.043701
 11
91.632454
 21
554.043701
  0
LINE
  8
LC-004-006-----0
 62
     2
  6
DASHED
 10
66.632454
 20
524.043701
 11
91.632454
 21
524.043701
  0
ARC
  8
LC-006-012-----0
 62
     2
  6
CONTINUOUS
 10
122.632454
 20
666.043701
 40
6.000000
 50
80.787423
 51
12.945233
  0
CIRCLE
  8
LC-004-006-----0
 62
     2
  6
DASHED
 10
122.632454
 20
666.043701
 40
9.000000
  0
LINE
  8
LC-005-002-RND-0
 62
     2
  6
DASHDOT
 10
280.632446
 20
679.153137
 11
280.632446
 21
652.122131
  0
LINE
  8
LC-005-002-RND-0
 62
     2
  6
DASHDOT
 10
267.814850
 20
666.043701
 11
293.216034
 21
666.043701
  0
CIRCLE
  8
LC-003-002-----0
 62
     1
  6
CONTINUOUS
 10
280.632446
 20
666.043701
 40
5.250000
  0
ARC
  8
LC-006-012-----0
 62
     2
  6
CONTINUOUS
 10
280.632446
 20
666.043701
 40
6.000000
 50
167.054761
 51
99.212575
  0
CIRCLE
  8
LC-004-006-----0
 62
     2
  6
DASHED
 10
280.632446
 20
666.043701
 40
9.000000
  0
LINE
  8
LC-005-002-RND-0
 62
     2
  6
DASHDOT
 10
122.632454
 20
494.934265
 11
122.632454
 21
521.965271
  0
LINE
  8
LC-005-002-RND-0
 62
     2
  6
DASHDOT
 10
135.450058
 20
508.043701
 11
110.048882
 21
508.043701
  0
CIRCLE
  8
LC-003-002-----0
 62
     1
  6
CONTINUOUS
 10
122.632454
 20
508.043701
 40
5.250000
  0
ARC
  8
LC-006-012-----0
 62
     2
  6
CONTINUOUS
 10
122.632454
 20
508.043701
 40
6.000000
 50
347.054767
 51
279.212577
  0
CIRCLE
  8
LC-004-006-----0
 62
     2
  6
DASHED
 10
122.632454
 20
508.043701
 40
9.000000
  0
LINE
  8
LC-005-002-RND-0
 62
     2
  6
DASHDOT
 10
280.632446
 20
494.934265
 11
280.632446
 21
521.965271
  0
LINE
  8
LC-005-002-RND-0
 62
     2
  6
DASHDOT
 10
267.814850
 20
508.043701
 11
293.216034
 21
508.043701
  0
CIRCLE
  8
LC-003-002-----0
 62
     1
  6
CONTINUOUS
 10
280.632446
 20
508.043701
 40
5.250000
  0
ARC
  8
LC-006-012-----0
 62
     2
  6
CONTINUOUS
 10
280.632446
 20
508.043701
 40
6.000000
 50
260.787425
 51
192.945239
  0
CIRCLE
  8
LC-004-006-----0
 62
     2
  6
DASHED
 10
280.632446
 20
508.043701
 40
9.000000
  0
LINE
  8
LC-003-002-----0
 62
     1
  6
CONTINUOUS
 10
384.880829
 20
771.250061
 11
564.880798
 21
771.250061
  0
LINE
  8
LC-003-002-----0
 62
     1
  6
CONTINUOUS
 10
384.880829
 20
713.250061
 11
384.880829
 21
740.750061
  0
LINE
  8
LC-005-002-RND-0
 62
     2
  6
DASHDOT
 10
407.753052
 20
742.250061
 11
446.559845
 21
742.250061
  0
LINE
  8
LC-005-002-RND-0
 62
     2
  6
DASHDOT
 10
399.880829
 20
774.851807
 11
399.880829
 21
709.569031
  0
LINE
  8
LC-004-006-----0
 62
     2
  6
DASHED
 10
393.130829
 20
758.250061
 11
393.130829
 21
743.750061
  0
LINE
  8
LC-004-006-----0
 62
     2
  6
DASHED
 10
406.630829
 20
758.250061
 11
406.630829
 21
743.750061
  0
LINE
  8
LC-004-006-----0
 62
     2
  6
DASHED
 10
389.880829
 20
771.250061
 11
389.880829
 21
758.250061
  0
LINE
  8
LC-004-006-----0
 62
     2
  6
DASHED
 10
409.880829
 20
771.250061
 11
409.880829
 21
758.250061
  0
LINE
  8
LC-004-006-----0
 62
     2
  6
DASHED
 10
409.880829
 20
758.250061
 11
389.880829
 21
758.250061
  0
LINE
  8
LC-004-006-----0
 62
     2
  6
DASHED
 10
405.880829
 20
740.750061
 11
405.880829
 21
713.250061
  0
LINE
  8
LC-004-006-----0
 62
     2
  6
DASHED
 10
404.880829
 20
740.750061
 11
404.880829
 21
713.250061
  0
LINE
  8
LC-003-002-----0
 62
     1
  6
CONTINUOUS
 10
411.956024
 20
743.750061
 11
384.880829
 21
743.750061
  0
LINE
  8
LC-003-002-----0
 62
     1
  6
CONTINUOUS
 10
411.956024
 20
740.750061
 11
384.880829
 21
740.750061
  0
LINE
  8
LC-003-002-----0
 62
     1
  6
CONTINUOUS
 10
384.880829
 20
743.750061
 11
384.880829
 21
771.250061
  0
LINE
  8
LC-005-002-RND-0
 62
     2
  6
DASHDOT
 10
426.880829
 20
722.612671
 11
426.880829
 21
761.417664
  0
CIRCLE
  8
LC-003-002-----0
 62
     1
  6
CONTINUOUS
 10
426.880829
 20
742.250061
 40
15.000000
  0
LINE
  8
LC-005-002-RND-0
 62
     2
  6
DASHDOT
 10
542.008606
 20
742.250061
 11
503.201782
 21
742.250061
  0
LINE
  8
LC-005-002-RND-0
 62
     2
  6
DASHDOT
 10
549.880798
 20
774.851807
 11
549.880798
 21
709.569031
  0
LINE
  8
LC-004-006-----0
 62
     2
  6
DASHED
 10
556.630798
 20
758.250061
 11
556.630798
 21
743.750061
  0
LINE
  8
LC-004-006-----0
 62
     2
  6
DASHED
 10
543.130798
 20
758.250061
 11
543.130798
 21
743.750061
  0
LINE
  8
LC-004-006-----0
 62
     2
  6
DASHED
 10
559.880798
 20
771.250061
 11
559.880798
 21
758.250061
  0
LINE
  8
LC-004-006-----0
 62
     2
  6
DASHED
 10
539.880798
 20
771.250061
 11
539.880798
 21
758.250061
  0
LINE
  8
LC-004-006-----0
 62
     2
  6
DASHED
 10
539.880798
 20
758.250061
 11
559.880798
 21
758.250061
  0
LINE
  8
LC-004-006-----0
 62
     2
  6
DASHED
 10
393.880829
 20
740.750061
 11
393.880829
 21
713.250061
  0
LINE
  8
LC-004-006-----0
 62
     2
  6
DASHED
 10
394.880829
 20
740.750061
 11
394.880829
 21
713.250061
  0
LINE
  8
LC-003-002-----0
 62
     1
  6
CONTINUOUS
 10
537.805664
 20
743.750061
 11
564.880798
 21
743.750061
  0
LINE
  8
LC-003-002-----0
 62
     1
  6
CONTINUOUS
 10
537.805664
 20
740.750061
 11
564.880798
 21
740.750061
  0
LINE
  8
LC-003-002-----0
 62
     1
  6
CONTINUOUS
 10
564.880798
 20
743.750061
 11
564.880798
 21
771.250061
  0
LINE
  8
LC-005-002-RND-0
 62
     2
  6
DASHDOT
 10
522.880798
 20
722.612671
 11
522.880798
 21
761.417664
  0
CIRCLE
  8
LC-003-002-----0
 62
     1
  6
CONTINUOUS
 10
522.880798
 20
742.250061
 40
15.000000
  0
LINE
  8
LC-003-002-----0
 62
     1
  6
CONTINUOUS
 10
384.880829
 20
774.250061
 11
564.880798
 21
774.250061
  0
LINE
  8
LC-003-002-----0
 62
     1
  6
CONTINUOUS
 10
384.880829
 20
771.250061
 11
384.880829
 21
774.250061
  0
LINE
  8
LC-003-002-----0
 62
     1
  6
CONTINUOUS
 10
564.880798
 20
771.250061
 11
564.880798
 21
774.250061
  0
LINE
  8
LC-003-002-----0
 62
     1
  6
CONTINUOUS
 10
384.880829
 20
613.043701
 11
564.880798
 21
613.043701
  0
LINE
  8
LC-003-002-----0
 62
     1
  6
CONTINUOUS
 10
564.880798
 20
613.043701
 11
564.880798
 21
677.043701
  0
LINE
  8
LC-003-002-----0
 62
     1
  6
CONTINUOUS
 10
384.880829
 20
677.043701
 11
564.880798
 21
677.043701
  0
LINE
  8
LC-003-002-----0
 62
     1
  6
CONTINUOUS
 10
384.880829
 20
613.043701
 11
384.880829
 21
677.043701
  0
LINE
  8
LC-005-002-RND-0
 62
     2
  6
DASHDOT
 10
400.308350
 20
648.043701
 11
455.157745
 21
648.043701
  0
LINE
  8
LC-005-002-RND-0
 62
     2
  6
DASHDOT
 10
553.880798
 20
607.924866
 11
553.880798
 21
682.725037
  0
LINE
  8
LC-005-002-RND-0
 62
     2
  6
DASHDOT
 10
395.880829
 20
607.924866
 11
395.880829
 21
682.725037
  0
LINE
  8
LC-004-006-----0
 62
     2
  6
DASHED
 10
401.880829
 20
651.043701
 11
401.880829
 21
677.043701
  0
LINE
  8
LC-004-006-----0
 62
     2
  6
DASHED
 10
389.880829
 20
651.043701
 11
389.880829
 21
677.043701
  0
LINE
  8
LC-004-006-----0
 62
     2
  6
DASHED
 10
401.130829
 20
624.043701
 11
401.130829
 21
677.043701
  0
LINE
  8
LC-004-006-----0
 62
     2
  6
DASHED
 10
390.630829
 20
624.043701
 11
390.630829
 21
677.043701
  0
LINE
  8
LC-004-006-----0
 62
     2
  6
DASHED
 10
389.880829
 20
651.043701
 11
401.880829
 21
651.043701
  0
LINE
  8
LC-004-006-----0
 62
     2
  6
DASHED
 10
386.880829
 20
624.043701
 11
404.880829
 21
624.043701
  0
LINE
  8
LC-004-006-----0
 62
     2
  6
DASHED
 10
404.880829
 20
613.043701
 11
404.880829
 21
624.043701
  0
LINE
  8
LC-004-006-----0
 62
     2
  6
DASHED
 10
386.880829
 20
613.043701
 11
386.880829
 21
624.043701
  0
LINE
  8
LC-005-002-RND-0
 62
     2
  6
DASHDOT
 10
426.880829
 20
619.913513
 11
426.880829
 21
675.517090
  0
CIRCLE
  8
LC-003-002-----0
 62
     1
  6
CONTINUOUS
 10
426.880829
 20
648.043701
 40
15.000000
  0
LINE
  8
LC-004-006-----0
 62
     2
  6
DASHED
 10
547.880798
 20
651.043701
 11
547.880798
 21
677.043701
  0
LINE
  8
LC-004-006-----0
 62
     2
  6
DASHED
 10
559.880798
 20
651.043701
 11
559.880798
 21
677.043701
  0
LINE
  8
LC-004-006-----0
 62
     2
  6
DASHED
 10
548.630798
 20
624.043701
 11
548.630798
 21
677.043701
  0
LINE
  8
LC-004-006-----0
 62
     2
  6
DASHED
 10
559.130798
 20
624.043701
 11
559.130798
 21
677.043701
  0
LINE
  8
LC-004-006-----0
 62
     2
  6
DASHED
 10
559.880798
 20
651.043701
 11
547.880798
 21
651.043701
  0
LINE
  8
LC-004-006-----0
 62
     2
  6
DASHED
 10
562.880798
 20
624.043701
 11
544.880798
 21
624.043701
  0
LINE
  8
LC-004-006-----0
 62
     2
  6
DASHED
 10
544.880798
 20
613.043701
 11
544.880798
 21
624.043701
  0
LINE
  8
LC-004-006-----0
 62
     2
  6
DASHED
 10
562.880798
 20
613.043701
 11
562.880798
 21
624.043701
  0
CIRCLE
  8
LC-003-002-----0
 62
     1
  6
CONTINUOUS
 10
426.880829
 20
648.043701
 40
23.500000
  0
CIRCLE
  8
LC-003-002-----0
 62
     1
  6
CONTINUOUS
 10
426.880829
 20
648.043701
 40
20.000000
  0
LINE
  8
LC-005-002-RND-0
 62
     2
  6
DASHDOT
 10
549.453308
 20
648.043701
 11
494.603882
 21
648.043701
  0
LINE
  8
LC-005-002-RND-0
 62
     2
  6
DASHDOT
 10
522.880798
 20
619.913513
 11
522.880798
 21
675.517090
  0
CIRCLE
  8
LC-003-002-----0
 62
     1
  6
CONTINUOUS
 10
522.880798
 20
648.043701
 40
15.000000
  0
CIRCLE
  8
LC-003-002-----0
 62
     1
  6
CONTINUOUS
 10
522.880798
 20
648.043701
 40
23.500000
  0
CIRCLE
  8
LC-003-002-----0
 62
     1
  6
CONTINUOUS
 10
522.880798
 20
648.043701
 40
20.000000
  0
LINE
  8
LC-004-006-----0
 62
     2
  6
DASHED
 10
318.132446
 20
740.750061
 11
318.132446
 21
713.250061
  0
LINE
  8
LC-004-006-----0
 62
     2
  6
DASHED
 10
319.132446
 20
740.750061
 11
319.132446
 21
713.250061
  0
LINE
  8
LC-004-006-----0
 62
     2
  6
DASHED
 10
555.880798
 20
740.750061
 11
555.880798
 21
713.250061
  0
LINE
  8
LC-004-006-----0
 62
     2
  6
DASHED
 10
554.880798
 20
740.750061
 11
554.880798
 21
713.250061
  0
LINE
  8
LC-004-006-----0
 62
     2
  6
DASHED
 10
543.880798
 20
740.750061
 11
543.880798
 21
713.250061
  0
LINE
  8
LC-004-006-----0
 62
     2
  6
DASHED
 10
544.880798
 20
740.750061
 11
544.880798
 21
713.250061
  0
CIRCLE
  8
LC-003-002-----0
 62
     1
  6
CONTINUOUS
 10
79.132454
 20
662.043701
 40
5.000000
  0
ARC
  8
LC-006-012-----0
 62
     2
  6
CONTINUOUS
 10
79.132454
 20
662.043701
 40
6.000000
 50
80.778660
 51
11.300852
  0
CIRCLE
  8
LC-003-002-----0
 62
     1
  6
CONTINUOUS
 10
324.132446
 20
662.043701
 40
5.000000
  0
ARC
  8
LC-006-012-----0
 62
     2
  6
CONTINUOUS
 10
324.132446
 20
662.043701
 40
6.000000
 50
80.778660
 51
11.300852
  0
ARC
  8
LC-006-012-----0
 62
     2
  6
CONTINUOUS
 10
79.132454
 20
512.043701
 40
6.000000
 50
80.778660
 51
11.300852
  0
LINE
  8
LC-003-002-----0
 62
     1
  6
CONTINUOUS
 10
564.880798
 20
713.250061
 11
564.880798
 21
710.250061
  0
CIRCLE
  8
LC-003-002-----0
 62
     1
  6
CONTINUOUS
 10
324.132446
 20
512.043701
 40
5.000000
  0
ARC
  8
LC-006-012-----0
 62
     2
  6
CONTINUOUS
 10
324.132446
 20
512.043701
 40
6.000000
 50
80.778660
 51
11.300852
  0
LINE
  8
LC-003-002-----0
 62
     1
  6
CONTINUOUS
 10
384.880829
 20
713.250061
 11
384.880829
 21
710.250061
  0
ENDSEC
  0
EOF
