  0
SECTION
  2
HEADER
  9
$LIMMIN
 10
77.737389
 20
639.256714
  9
$LIMMAX
 10
322.473114
 20
764.917542
  9
$EXTMIN
 10
77.737389
 20
639.256714
  9
$EXTMAX
 10
322.473114
 20
764.917542
  0
ENDSEC
  0
SECTION
  2
TABLES
  0
TABLE
  2
LTYPE
 70
     3
  0
LTYPE
  2
CONTINUOUS
 70
    64
  3
Ausgezogene Linie
 72
    65
 73
     0
 40
0.0
  0
LTYPE
  2
DASHED
 70
    64
  3
__ __ __ __ __ __ __ __ __ __ __ __ __ __ __
 72
    65
 73
     2
 40
0.75
 49
0.5
 49
-0.25
  0
LTYPE
  2
DASHDOT
 70
    64
  3
__ . __ . __ . __ . __ . __ . __ . __ . __ . __
 72
    65
 73
     4
 40
1.0
 49
0.5
 49
-0.25
 49
0.0
 49
-0.25
  0
ENDTAB
  0
TABLE
  2
LAYER
 70
     5
  0
LAYER
  2
LC-INFO-1-1-MM-A0-0
 70
    64
 62
     7
  6
CONTINUOUS
  0
LAYER
  2
LC-003-002-----0
 70
    64
 62
     7
  6
CONTINUOUS
  0
LAYER
  2
LC-004-006-----0
 70
    64
 62
     7
  6
CONTINUOUS
  0
LAYER
  2
LC-006-012-----0
 70
    64
 62
     7
  6
CONTINUOUS
  0
LAYER
  2
LC-008-003-----0
 70
    64
 62
     7
  6
CONTINUOUS
  0
ENDTAB
  0
TABLE
  2
STYLE
 70
     1
  0
STYLE
  2
TXT8
 70
    64
 40
0.0
 41
1.0
 50
0.0
 71
     0
 42
3.500000
  3
TXT8
  4

  0
ENDTAB
  0
ENDSEC
  0
SECTION
  2
BLOCKS
  0
ENDSEC
  0
SECTION
  2
ENTITIES
  0
LINE
  8
LC-008-003-----0
 62
     2
  6
CONTINUOUS
 10
307.927002
 20
689.764648
 11
309.463440
 21
691.301086
  0
LINE
  8
LC-008-003-----0
 62
     2
  6
CONTINUOUS
 10
306.003235
 20
689.255127
 11
309.973022
 21
693.224915
  0
LINE
  8
LC-008-003-----0
 62
     2
  6
CONTINUOUS
 10
304.773132
 20
689.439209
 11
309.788879
 21
694.454956
  0
LINE
  8
LC-008-003-----0
 62
     2
  6
CONTINUOUS
 10
303.810028
 20
689.890320
 11
309.337799
 21
695.418091
  0
LINE
  8
LC-008-003-----0
 62
     2
  6
CONTINUOUS
 10
303.040375
 20
690.534912
 11
308.693237
 21
696.187744
  0
LINE
  8
LC-008-003-----0
 62
     2
  6
CONTINUOUS
 10
302.450775
 20
691.359497
 11
307.868622
 21
696.777344
  0
LINE
  8
LC-008-003-----0
 62
     2
  6
CONTINUOUS
 10
302.067657
 20
692.390564
 11
306.837524
 21
697.160461
  0
LINE
  8
LC-008-003-----0
 62
     2
  6
CONTINUOUS
 10
302.002625
 20
693.739746
 11
305.488342
 21
697.225525
  0
LINE
  8
LC-008-003-----0
 62
     2
  6
CONTINUOUS
 10
275.033539
 20
689.398132
 11
277.830017
 21
692.194580
  0
LINE
  8
LC-008-003-----0
 62
     2
  6
CONTINUOUS
 10
273.503845
 20
689.282593
 11
277.945496
 21
693.724304
  0
LINE
  8
LC-008-003-----0
 62
     2
  6
CONTINUOUS
 10
272.389038
 20
689.582031
 11
277.646088
 21
694.839111
  0
LINE
  8
LC-008-003-----0
 62
     2
  6
CONTINUOUS
 10
271.502197
 20
690.109436
 11
277.118683
 21
695.725891
  0
LINE
  8
LC-008-003-----0
 62
     2
  6
CONTINUOUS
 10
270.799194
 20
690.820618
 11
276.407501
 21
696.428894
  0
LINE
  8
LC-008-003-----0
 62
     2
  6
CONTINUOUS
 10
270.280853
 20
691.716492
 11
275.511627
 21
696.947266
  0
LINE
  8
LC-008-003-----0
 62
     2
  6
CONTINUOUS
 10
269.994293
 20
692.844116
 11
274.383972
 21
697.233826
  0
LINE
  8
LC-008-003-----0
 62
     2
  6
CONTINUOUS
 10
270.142456
 20
694.406555
 11
272.821594
 21
697.085632
  0
LINE
  8
LC-003-002-----0
 62
     1
  6
CONTINUOUS
 10
80.614502
 20
737.966309
 11
92.614502
 21
737.966309
  0
LINE
  8
LC-003-002-----0
 62
     1
  6
CONTINUOUS
 10
80.614502
 20
737.966309
 11
80.614502
 21
760.966309
  0
LINE
  8
LC-003-002-----0
 62
     1
  6
CONTINUOUS
 10
80.614502
 20
760.966309
 11
92.614502
 21
760.966309
  0
LINE
  8
LC-003-002-----0
 62
     1
  6
CONTINUOUS
 10
92.614502
 20
737.966309
 11
92.614502
 21
760.966309
  0
LINE
  8
LC-004-006-----0
 62
     2
  6
DASHDOT
 10
86.614502
 20
763.179688
 11
86.614502
 21
736.118591
  0
LINE
  8
LC-006-012-----0
 62
     2
  6
DASHED
 10
89.364502
 20
755.266357
 11
89.364502
 21
750.966309
  0
LINE
  8
LC-006-012-----0
 62
     2
  6
DASHED
 10
83.864502
 20
755.266357
 11
83.864502
 21
750.966309
  0
LINE
  8
LC-006-012-----0
 62
     2
  6
DASHED
 10
91.614502
 20
760.966309
 11
91.614502
 21
755.266357
  0
LINE
  8
LC-006-012-----0
 62
     2
  6
DASHED
 10
81.614502
 20
760.966309
 11
81.614502
 21
755.266357
  0
LINE
  8
LC-006-012-----0
 62
     2
  6
DASHED
 10
81.614502
 20
755.266357
 11
91.614502
 21
755.266357
  0
LINE
  8
LC-004-006-----0
 62
     2
  6
DASHDOT
 10
77.737396
 20
750.466309
 11
212.794907
 21
750.466309
  0
LINE
  8
LC-003-002-----0
 62
     1
  6
CONTINUOUS
 10
112.614502
 20
738.966309
 11
112.614502
 21
761.966309
  0
LINE
  8
LC-003-002-----0
 62
     1
  6
CONTINUOUS
 10
177.614502
 20
738.966309
 11
177.614502
 21
761.966309
  0
LINE
  8
LC-003-002-----0
 62
     1
  6
CONTINUOUS
 10
112.614502
 20
761.966309
 11
177.614502
 21
761.966309
  0
LINE
  8
LC-003-002-----0
 62
     1
  6
CONTINUOUS
 10
112.614502
 20
738.966309
 11
177.614502
 21
738.966309
  0
LINE
  8
LC-003-002-----0
 62
     1
  6
CONTINUOUS
 10
80.614502
 20
750.966309
 11
92.614502
 21
750.966309
  0
LINE
  8
LC-003-002-----0
 62
     1
  6
CONTINUOUS
 10
209.614502
 20
737.966309
 11
197.614502
 21
737.966309
  0
LINE
  8
LC-003-002-----0
 62
     1
  6
CONTINUOUS
 10
209.614502
 20
737.966309
 11
209.614502
 21
760.966309
  0
LINE
  8
LC-003-002-----0
 62
     1
  6
CONTINUOUS
 10
209.614502
 20
760.966309
 11
197.614502
 21
760.966309
  0
LINE
  8
LC-003-002-----0
 62
     1
  6
CONTINUOUS
 10
197.614502
 20
737.966309
 11
197.614502
 21
760.966309
  0
LINE
  8
LC-004-006-----0
 62
     2
  6
DASHDOT
 10
203.614502
 20
763.179688
 11
203.614502
 21
736.118591
  0
LINE
  8
LC-006-012-----0
 62
     2
  6
DASHED
 10
206.364502
 20
755.266357
 11
206.364502
 21
750.966309
  0
LINE
  8
LC-006-012-----0
 62
     2
  6
DASHED
 10
200.864502
 20
755.266357
 11
200.864502
 21
750.966309
  0
LINE
  8
LC-006-012-----0
 62
     2
  6
DASHED
 10
198.614502
 20
760.966309
 11
198.614502
 21
755.266357
  0
LINE
  8
LC-006-012-----0
 62
     2
  6
DASHED
 10
200.864502
 20
749.966309
 11
200.864502
 21
737.966309
  0
LINE
  8
LC-006-012-----0
 62
     2
  6
DASHED
 10
206.364502
 20
749.966309
 11
206.364502
 21
737.966309
  0
LINE
  8
LC-003-002-----0
 62
     1
  6
CONTINUOUS
 10
80.614502
 20
749.966309
 11
92.614502
 21
749.966309
  0
LINE
  8
LC-006-012-----0
 62
     2
  6
DASHED
 10
83.864502
 20
749.966309
 11
83.864502
 21
737.966309
  0
LINE
  8
LC-006-012-----0
 62
     2
  6
DASHED
 10
89.364502
 20
749.966309
 11
89.364502
 21
737.966309
  0
LINE
  8
LC-003-002-----0
 62
     1
  6
CONTINUOUS
 10
197.614502
 20
750.966309
 11
209.614502
 21
750.966309
  0
LINE
  8
LC-003-002-----0
 62
     1
  6
CONTINUOUS
 10
197.614502
 20
749.966309
 11
209.614502
 21
749.966309
  0
LINE
  8
LC-006-012-----0
 62
     2
  6
DASHED
 10
266.723114
 20
755.266357
 11
266.723114
 21
750.966309
  0
LINE
  8
LC-006-012-----0
 62
     2
  6
DASHED
 10
208.614502
 20
760.966309
 11
208.614502
 21
755.266357
  0
LINE
  8
LC-003-002-----0
 62
     1
  6
CONTINUOUS
 10
92.614502
 20
754.466309
 11
112.614502
 21
754.466309
  0
LINE
  8
LC-003-002-----0
 62
     1
  6
CONTINUOUS
 10
92.614502
 20
746.466309
 11
112.614502
 21
746.466309
  0
LINE
  8
LC-006-012-----0
 62
     2
  6
DASHED
 10
112.614502
 20
754.466309
 11
177.614502
 21
754.466309
  0
LINE
  8
LC-003-002-----0
 62
     1
  6
CONTINUOUS
 10
177.614502
 20
754.466309
 11
197.614502
 21
754.466309
  0
LINE
  8
LC-006-012-----0
 62
     2
  6
DASHED
 10
112.614502
 20
746.466309
 11
177.614502
 21
746.466309
  0
LINE
  8
LC-003-002-----0
 62
     1
  6
CONTINUOUS
 10
177.614502
 20
746.466309
 11
197.614502
 21
746.466309
  0
LINE
  8
LC-006-012-----0
 62
     2
  6
DASHED
 10
92.614502
 20
754.466309
 11
80.614502
 21
754.466309
  0
LINE
  8
LC-006-012-----0
 62
     2
  6
DASHED
 10
92.614502
 20
746.466309
 11
80.614502
 21
746.466309
  0
LINE
  8
LC-006-012-----0
 62
     2
  6
DASHED
 10
197.614502
 20
754.466309
 11
209.614502
 21
754.466309
  0
LINE
  8
LC-006-012-----0
 62
     2
  6
DASHED
 10
197.614502
 20
746.466309
 11
209.614502
 21
746.466309
  0
LINE
  8
LC-006-012-----0
 62
     2
  6
DASHED
 10
112.614502
 20
758.466309
 11
137.614502
 21
758.466309
  0
LINE
  8
LC-006-012-----0
 62
     2
  6
DASHED
 10
112.614502
 20
742.466309
 11
137.614502
 21
742.466309
  0
LINE
  8
LC-003-002-----0
 62
     1
  6
CONTINUOUS
 10
80.614502
 20
704.755005
 11
80.614502
 21
639.755005
  0
LINE
  8
LC-006-012-----0
 62
     2
  6
DASHED
 10
152.614502
 20
742.466309
 11
152.614502
 21
758.466309
  0
LINE
  8
LC-006-012-----0
 62
     2
  6
DASHED
 10
137.614502
 20
758.466309
 11
152.614502
 21
758.466309
  0
LINE
  8
LC-006-012-----0
 62
     2
  6
DASHED
 10
152.614502
 20
758.466309
 11
177.614502
 21
758.466309
  0
LINE
  8
LC-006-012-----0
 62
     2
  6
DASHED
 10
137.614502
 20
742.466309
 11
137.614502
 21
758.466309
  0
LINE
  8
LC-006-012-----0
 62
     2
  6
DASHED
 10
137.614502
 20
742.466309
 11
152.614502
 21
742.466309
  0
LINE
  8
LC-006-012-----0
 62
     2
  6
DASHED
 10
152.614502
 20
742.466309
 11
177.614502
 21
742.466309
  0
LINE
  8
LC-003-002-----0
 62
     1
  6
CONTINUOUS
 10
80.614502
 20
639.755005
 11
92.614502
 21
639.755005
  0
LINE
  8
LC-003-002-----0
 62
     1
  6
CONTINUOUS
 10
209.614502
 20
704.755005
 11
209.614502
 21
639.755005
  0
LINE
  8
LC-003-002-----0
 62
     1
  6
CONTINUOUS
 10
80.614502
 20
704.755005
 11
92.614502
 21
704.755005
  0
LINE
  8
LC-003-002-----0
 62
     1
  6
CONTINUOUS
 10
92.614502
 20
704.755005
 11
92.614502
 21
639.755005
  0
LINE
  8
LC-003-002-----0
 62
     1
  6
CONTINUOUS
 10
197.614502
 20
704.755005
 11
197.614502
 21
639.755005
  0
LINE
  8
LC-003-002-----0
 62
     1
  6
CONTINUOUS
 10
112.614502
 20
704.755005
 11
112.614502
 21
639.755005
  0
LINE
  8
LC-003-002-----0
 62
     1
  6
CONTINUOUS
 10
177.614502
 20
704.755005
 11
177.614502
 21
639.755005
  0
LINE
  8
LC-003-002-----0
 62
     1
  6
CONTINUOUS
 10
112.614502
 20
704.755005
 11
177.614502
 21
704.755005
  0
LINE
  8
LC-003-002-----0
 62
     1
  6
CONTINUOUS
 10
112.614502
 20
639.755005
 11
177.614502
 21
639.755005
  0
LINE
  8
LC-003-002-----0
 62
     1
  6
CONTINUOUS
 10
197.614502
 20
639.755005
 11
209.614502
 21
639.755005
  0
LINE
  8
LC-003-002-----0
 62
     1
  6
CONTINUOUS
 10
197.614502
 20
704.755005
 11
209.614502
 21
704.755005
  0
LINE
  8
LC-004-006-----0
 62
     2
  6
DASHDOT
 10
212.794907
 20
656.255005
 11
77.737389
 21
656.255005
  0
LINE
  8
LC-004-006-----0
 62
     2
  6
DASHDOT
 10
212.794907
 20
688.255005
 11
77.737389
 21
688.255005
  0
LINE
  8
LC-003-002-----0
 62
     1
  6
CONTINUOUS
 10
92.614502
 20
692.255005
 11
112.614502
 21
692.255005
  0
LINE
  8
LC-003-002-----0
 62
     1
  6
CONTINUOUS
 10
92.614502
 20
684.255005
 11
112.614502
 21
684.255005
  0
LINE
  8
LC-003-002-----0
 62
     1
  6
CONTINUOUS
 10
257.473114
 20
681.755005
 11
257.473114
 21
704.755005
  0
LINE
  8
LC-003-002-----0
 62
     1
  6
CONTINUOUS
 10
177.614502
 20
692.255005
 11
197.614502
 21
692.255005
  0
LINE
  8
LC-003-002-----0
 62
     1
  6
CONTINUOUS
 10
177.614502
 20
684.255005
 11
197.614502
 21
684.255005
  0
LINE
  8
LC-006-012-----0
 62
     2
  6
DASHED
 10
112.614502
 20
692.255005
 11
177.614502
 21
692.255005
  0
LINE
  8
LC-006-012-----0
 62
     2
  6
DASHED
 10
112.614502
 20
684.255005
 11
177.614502
 21
684.255005
  0
LINE
  8
LC-006-012-----0
 62
     2
  6
DASHED
 10
197.614502
 20
684.255005
 11
209.614502
 21
684.255005
  0
LINE
  8
LC-006-012-----0
 62
     2
  6
DASHED
 10
197.614502
 20
692.255005
 11
209.614502
 21
692.255005
  0
LINE
  8
LC-006-012-----0
 62
     2
  6
DASHED
 10
92.614502
 20
692.255005
 11
80.614502
 21
692.255005
  0
LINE
  8
LC-006-012-----0
 62
     2
  6
DASHED
 10
92.614502
 20
684.255005
 11
80.614502
 21
684.255005
  0
LINE
  8
LC-006-012-----0
 62
     2
  6
DASHED
 10
112.614502
 20
696.255005
 11
137.614502
 21
696.255005
  0
LINE
  8
LC-006-012-----0
 62
     2
  6
DASHED
 10
137.614502
 20
680.255005
 11
137.614502
 21
696.255005
  0
LINE
  8
LC-006-012-----0
 62
     2
  6
DASHED
 10
112.614502
 20
680.255005
 11
137.614502
 21
680.255005
  0
LINE
  8
LC-006-012-----0
 62
     2
  6
DASHED
 10
152.614502
 20
680.255005
 11
152.614502
 21
696.255005
  0
LINE
  8
LC-006-012-----0
 62
     2
  6
DASHED
 10
152.614502
 20
696.255005
 11
177.614502
 21
696.255005
  0
LINE
  8
LC-006-012-----0
 62
     2
  6
DASHED
 10
152.614502
 20
680.255005
 11
177.614502
 21
680.255005
  0
LINE
  8
LC-003-002-----0
 62
     1
  6
CONTINUOUS
 10
322.473114
 20
737.966309
 11
257.473114
 21
737.966309
  0
LINE
  8
LC-006-012-----0
 62
     2
  6
DASHED
 10
137.614502
 20
696.255005
 11
152.614502
 21
696.255005
  0
LINE
  8
LC-006-012-----0
 62
     2
  6
DASHED
 10
137.614502
 20
680.255005
 11
152.614502
 21
680.255005
  0
LINE
  8
LC-003-002-----0
 62
     1
  6
CONTINUOUS
 10
92.614502
 20
652.255005
 11
112.614502
 21
652.255005
  0
LINE
  8
LC-003-002-----0
 62
     1
  6
CONTINUOUS
 10
92.614502
 20
660.255005
 11
112.614502
 21
660.255005
  0
LINE
  8
LC-003-002-----0
 62
     1
  6
CONTINUOUS
 10
177.614502
 20
652.255005
 11
197.614502
 21
652.255005
  0
LINE
  8
LC-003-002-----0
 62
     1
  6
CONTINUOUS
 10
177.614502
 20
660.255005
 11
197.614502
 21
660.255005
  0
LINE
  8
LC-006-012-----0
 62
     2
  6
DASHED
 10
112.614502
 20
652.255005
 11
177.614502
 21
652.255005
  0
LINE
  8
LC-006-012-----0
 62
     2
  6
DASHED
 10
112.614502
 20
660.255005
 11
177.614502
 21
660.255005
  0
LINE
  8
LC-006-012-----0
 62
     2
  6
DASHED
 10
197.614502
 20
660.255005
 11
209.614502
 21
660.255005
  0
LINE
  8
LC-006-012-----0
 62
     2
  6
DASHED
 10
197.614502
 20
652.255005
 11
209.614502
 21
652.255005
  0
LINE
  8
LC-006-012-----0
 62
     2
  6
DASHED
 10
92.614502
 20
652.255005
 11
80.614502
 21
652.255005
  0
LINE
  8
LC-006-012-----0
 62
     2
  6
DASHED
 10
92.614502
 20
660.255005
 11
80.614502
 21
660.255005
  0
LINE
  8
LC-006-012-----0
 62
     2
  6
DASHED
 10
112.614502
 20
648.255005
 11
137.614502
 21
648.255005
  0
LINE
  8
LC-006-012-----0
 62
     2
  6
DASHED
 10
137.614502
 20
664.255005
 11
137.614502
 21
648.255005
  0
LINE
  8
LC-006-012-----0
 62
     2
  6
DASHED
 10
112.614502
 20
664.255005
 11
137.614502
 21
664.255005
  0
LINE
  8
LC-006-012-----0
 62
     2
  6
DASHED
 10
152.614502
 20
664.255005
 11
152.614502
 21
648.255005
  0
LINE
  8
LC-006-012-----0
 62
     2
  6
DASHED
 10
152.614502
 20
648.255005
 11
177.614502
 21
648.255005
  0
LINE
  8
LC-006-012-----0
 62
     2
  6
DASHED
 10
152.614502
 20
664.255005
 11
177.614502
 21
664.255005
  0
LINE
  8
LC-006-012-----0
 62
     2
  6
DASHED
 10
137.614502
 20
648.255005
 11
152.614502
 21
648.255005
  0
LINE
  8
LC-006-012-----0
 62
     2
  6
DASHED
 10
137.614502
 20
664.255005
 11
152.614502
 21
664.255005
  0
CIRCLE
  8
LC-003-002-----0
 62
     1
  6
CONTINUOUS
 10
273.973114
 20
693.255005
 40
8.000000
  0
LINE
  8
LC-003-002-----0
 62
     1
  6
CONTINUOUS
 10
257.473114
 20
737.966309
 11
257.473114
 21
749.966309
  0
LINE
  8
LC-004-006-----0
 62
     2
  6
DASHDOT
 10
86.614502
 20
703.959717
 11
86.614502
 21
692.882263
  0
LINE
  8
LC-004-006-----0
 62
     2
  6
DASHDOT
 10
92.139977
 20
698.255005
 11
81.360832
 21
698.255005
  0
CIRCLE
  8
LC-003-002-----0
 62
     1
  6
CONTINUOUS
 10
86.614502
 20
698.255005
 40
2.750000
  0
CIRCLE
  8
LC-003-002-----0
 62
     1
  6
CONTINUOUS
 10
86.614502
 20
698.255005
 40
5.000000
  0
LINE
  8
LC-004-006-----0
 62
     2
  6
DASHDOT
 10
86.614502
 20
640.550293
 11
86.614502
 21
651.627747
  0
LINE
  8
LC-004-006-----0
 62
     2
  6
DASHDOT
 10
92.139977
 20
646.255005
 11
81.360832
 21
646.255005
  0
CIRCLE
  8
LC-003-002-----0
 62
     1
  6
CONTINUOUS
 10
203.614502
 20
698.255005
 40
2.750000
  0
CIRCLE
  8
LC-003-002-----0
 62
     1
  6
CONTINUOUS
 10
203.614502
 20
698.255005
 40
5.000000
  0
LINE
  8
LC-004-006-----0
 62
     2
  6
DASHDOT
 10
203.614502
 20
703.959717
 11
203.614502
 21
692.882263
  0
LINE
  8
LC-004-006-----0
 62
     2
  6
DASHDOT
 10
209.139969
 20
698.255005
 11
198.360825
 21
698.255005
  0
CIRCLE
  8
LC-003-002-----0
 62
     1
  6
CONTINUOUS
 10
86.614502
 20
646.255005
 40
2.750000
  0
CIRCLE
  8
LC-003-002-----0
 62
     1
  6
CONTINUOUS
 10
86.614502
 20
646.255005
 40
5.000000
  0
LINE
  8
LC-004-006-----0
 62
     2
  6
DASHDOT
 10
203.614502
 20
640.550293
 11
203.614502
 21
651.627747
  0
LINE
  8
LC-004-006-----0
 62
     2
  6
DASHDOT
 10
209.139969
 20
646.255005
 11
198.360825
 21
646.255005
  0
CIRCLE
  8
LC-003-002-----0
 62
     1
  6
CONTINUOUS
 10
203.614502
 20
646.255005
 40
2.750000
  0
CIRCLE
  8
LC-003-002-----0
 62
     1
  6
CONTINUOUS
 10
203.614502
 20
646.255005
 40
5.000000
  0
LINE
  8
LC-004-006-----0
 62
     2
  6
DASHDOT
 10
283.771301
 20
693.255005
 11
264.121735
 21
693.255005
  0
LINE
  8
LC-004-006-----0
 62
     2
  6
DASHDOT
 10
263.973114
 20
763.179688
 11
263.973114
 21
736.118591
  0
LINE
  8
LC-003-002-----0
 62
     1
  6
CONTINUOUS
 10
270.004486
 20
750.966309
 11
257.473114
 21
750.966309
  0
LINE
  8
LC-003-002-----0
 62
     1
  6
CONTINUOUS
 10
270.004486
 20
749.966309
 11
257.473114
 21
749.966309
  0
LINE
  8
LC-003-002-----0
 62
     1
  6
CONTINUOUS
 10
257.473114
 20
750.966309
 11
257.473114
 21
760.966309
  0
CIRCLE
  8
LC-003-002-----0
 62
     1
  6
CONTINUOUS
 10
273.973114
 20
750.466309
 40
4.000000
  0
LINE
  8
LC-003-002-----0
 62
     1
  6
CONTINUOUS
 10
322.473114
 20
760.966309
 11
257.473114
 21
760.966309
  0
LINE
  8
LC-003-002-----0
 62
     1
  6
CONTINUOUS
 10
257.473114
 20
761.966309
 11
257.473114
 21
760.966309
  0
LINE
  8
LC-003-002-----0
 62
     1
  6
CONTINUOUS
 10
257.473114
 20
761.966309
 11
322.473114
 21
761.966309
  0
LINE
  8
LC-006-012-----0
 62
     2
  6
DASHED
 10
261.223114
 20
755.266357
 11
261.223114
 21
750.966309
  0
LINE
  8
LC-006-012-----0
 62
     2
  6
DASHED
 10
258.973114
 20
760.966309
 11
258.973114
 21
755.266357
  0
LINE
  8
LC-006-012-----0
 62
     2
  6
DASHED
 10
261.223114
 20
749.966309
 11
261.223114
 21
737.966309
  0
LINE
  8
LC-006-012-----0
 62
     2
  6
DASHED
 10
266.723114
 20
749.966309
 11
266.723114
 21
737.966309
  0
LINE
  8
LC-006-012-----0
 62
     2
  6
DASHED
 10
268.973114
 20
760.966309
 11
268.973114
 21
755.266357
  0
LINE
  8
LC-006-012-----0
 62
     2
  6
DASHED
 10
258.973114
 20
755.266357
 11
268.973114
 21
755.266357
  0
LINE
  8
LC-003-002-----0
 62
     1
  6
CONTINUOUS
 10
322.473114
 20
737.966309
 11
322.473114
 21
749.966309
  0
LINE
  8
LC-004-006-----0
 62
     2
  6
DASHDOT
 10
315.973114
 20
763.179688
 11
315.973114
 21
736.118591
  0
LINE
  8
LC-003-002-----0
 62
     1
  6
CONTINUOUS
 10
309.941742
 20
750.966309
 11
322.473114
 21
750.966309
  0
LINE
  8
LC-003-002-----0
 62
     1
  6
CONTINUOUS
 10
309.941742
 20
749.966309
 11
322.473114
 21
749.966309
  0
LINE
  8
LC-004-006-----0
 62
     2
  6
DASHDOT
 10
280.719147
 20
750.466309
 11
267.365509
 21
750.466309
  0
LINE
  8
LC-004-006-----0
 62
     2
  6
DASHDOT
 10
273.973114
 20
757.274475
 11
273.973114
 21
743.709290
  0
LINE
  8
LC-003-002-----0
 62
     1
  6
CONTINUOUS
 10
322.473114
 20
750.966309
 11
322.473114
 21
760.966309
  0
CIRCLE
  8
LC-003-002-----0
 62
     1
  6
CONTINUOUS
 10
305.973114
 20
750.466309
 40
4.000000
  0
LINE
  8
LC-004-006-----0
 62
     2
  6
DASHDOT
 10
117.614502
 20
735.197876
 11
117.614502
 21
764.917542
  0
LINE
  8
LC-004-006-----0
 62
     2
  6
DASHDOT
 10
123.203735
 20
699.755005
 11
111.959106
 21
699.755005
  0
LINE
  8
LC-004-006-----0
 62
     2
  6
DASHDOT
 10
117.614502
 20
705.253296
 11
117.614502
 21
694.638672
  0
CIRCLE
  8
LC-003-002-----0
 62
     1
  6
CONTINUOUS
 10
117.614502
 20
699.755005
 40
2.150000
  0
ARC
  8
LC-008-003-----0
 62
     2
  6
CONTINUOUS
 10
117.614502
 20
699.755005
 40
2.500000
 50
81.305629
 51
9.970100
  0
LINE
  8
LC-004-006-----0
 62
     2
  6
DASHDOT
 10
123.203735
 20
644.755005
 11
111.959106
 21
644.755005
  0
CIRCLE
  8
LC-006-012-----0
 62
     2
  6
DASHED
 10
117.614502
 20
699.755005
 40
4.000000
  0
LINE
  8
LC-004-006-----0
 62
     2
  6
DASHDOT
 10
117.614502
 20
639.256714
 11
117.614502
 21
649.871338
  0
CIRCLE
  8
LC-003-002-----0
 62
     1
  6
CONTINUOUS
 10
117.614502
 20
644.755005
 40
2.150000
  0
ARC
  8
LC-008-003-----0
 62
     2
  6
CONTINUOUS
 10
117.614502
 20
644.755005
 40
2.500000
 50
350.029900
 51
278.694371
  0
CIRCLE
  8
LC-006-012-----0
 62
     2
  6
DASHED
 10
117.614502
 20
644.755005
 40
4.000000
  0
LINE
  8
LC-006-012-----0
 62
     2
  6
DASHED
 10
121.614502
 20
738.966309
 11
121.614502
 21
743.466309
  0
LINE
  8
LC-004-006-----0
 62
     2
  6
DASHDOT
 10
167.025269
 20
644.755005
 11
178.269897
 21
644.755005
  0
LINE
  8
LC-004-006-----0
 62
     2
  6
DASHDOT
 10
172.614502
 20
639.256714
 11
172.614502
 21
649.871338
  0
CIRCLE
  8
LC-003-002-----0
 62
     1
  6
CONTINUOUS
 10
172.614502
 20
644.755005
 40
2.150000
  0
ARC
  8
LC-008-003-----0
 62
     2
  6
CONTINUOUS
 10
172.614502
 20
644.755005
 40
2.500000
 50
261.305624
 51
189.970104
  0
CIRCLE
  8
LC-006-012-----0
 62
     2
  6
DASHED
 10
172.614502
 20
644.755005
 40
4.000000
  0
LINE
  8
LC-004-006-----0
 62
     2
  6
DASHDOT
 10
167.025269
 20
699.755005
 11
178.269897
 21
699.755005
  0
LINE
  8
LC-004-006-----0
 62
     2
  6
DASHDOT
 10
172.614502
 20
705.253296
 11
172.614502
 21
694.638672
  0
CIRCLE
  8
LC-003-002-----0
 62
     1
  6
CONTINUOUS
 10
172.614502
 20
699.755005
 40
2.150000
  0
ARC
  8
LC-008-003-----0
 62
     2
  6
CONTINUOUS
 10
172.614502
 20
699.755005
 40
2.500000
 50
170.029896
 51
98.694376
  0
CIRCLE
  8
LC-006-012-----0
 62
     2
  6
DASHED
 10
172.614502
 20
699.755005
 40
4.000000
  0
LINE
  8
LC-006-012-----0
 62
     2
  6
DASHED
 10
113.614502
 20
738.966309
 11
113.614502
 21
743.466309
  0
LINE
  8
LC-006-012-----0
 62
     2
  6
DASHED
 10
115.464500
 20
743.466309
 11
115.464500
 21
761.966309
  0
LINE
  8
LC-006-012-----0
 62
     2
  6
DASHED
 10
119.764496
 20
743.466309
 11
119.764496
 21
761.966309
  0
LINE
  8
LC-006-012-----0
 62
     2
  6
DASHED
 10
120.114502
 20
750.966309
 11
120.114502
 21
761.966309
  0
LINE
  8
LC-006-012-----0
 62
     2
  6
DASHED
 10
115.114502
 20
750.966309
 11
115.114502
 21
761.966309
  0
LINE
  8
LC-006-012-----0
 62
     2
  6
DASHED
 10
115.114502
 20
750.966309
 11
120.114502
 21
750.966309
  0
LINE
  8
LC-006-012-----0
 62
     2
  6
DASHED
 10
113.614502
 20
743.466309
 11
121.614502
 21
743.466309
  0
LINE
  8
LC-004-006-----0
 62
     2
  6
DASHDOT
 10
172.614502
 20
735.197876
 11
172.614502
 21
764.917542
  0
LINE
  8
LC-006-012-----0
 62
     2
  6
DASHED
 10
176.614502
 20
738.966309
 11
176.614502
 21
743.466309
  0
LINE
  8
LC-006-012-----0
 62
     2
  6
DASHED
 10
168.614502
 20
738.966309
 11
168.614502
 21
743.466309
  0
LINE
  8
LC-006-012-----0
 62
     2
  6
DASHED
 10
170.464493
 20
743.466309
 11
170.464493
 21
761.966309
  0
LINE
  8
LC-006-012-----0
 62
     2
  6
DASHED
 10
174.764496
 20
743.466309
 11
174.764496
 21
761.966309
  0
LINE
  8
LC-006-012-----0
 62
     2
  6
DASHED
 10
175.114502
 20
750.966309
 11
175.114502
 21
761.966309
  0
LINE
  8
LC-006-012-----0
 62
     2
  6
DASHED
 10
170.114502
 20
750.966309
 11
170.114502
 21
761.966309
  0
LINE
  8
LC-006-012-----0
 62
     2
  6
DASHED
 10
170.114502
 20
750.966309
 11
175.114502
 21
750.966309
  0
LINE
  8
LC-006-012-----0
 62
     2
  6
DASHED
 10
168.614502
 20
743.466309
 11
176.614502
 21
743.466309
  0
LINE
  8
LC-003-002-----0
 62
     1
  6
CONTINUOUS
 10
322.473114
 20
761.966309
 11
322.473114
 21
760.966309
  0
LINE
  8
LC-006-012-----0
 62
     2
  6
DASHED
 10
318.723114
 20
755.266357
 11
318.723114
 21
750.966309
  0
LINE
  8
LC-006-012-----0
 62
     2
  6
DASHED
 10
313.223114
 20
755.266357
 11
313.223114
 21
750.966309
  0
LINE
  8
LC-006-012-----0
 62
     2
  6
DASHED
 10
310.973114
 20
760.966309
 11
310.973114
 21
755.266357
  0
LINE
  8
LC-006-012-----0
 62
     2
  6
DASHED
 10
313.223114
 20
749.966309
 11
313.223114
 21
737.966309
  0
LINE
  8
LC-006-012-----0
 62
     2
  6
DASHED
 10
318.723114
 20
749.966309
 11
318.723114
 21
737.966309
  0
LINE
  8
LC-006-012-----0
 62
     2
  6
DASHED
 10
320.973114
 20
760.966309
 11
320.973114
 21
755.266357
  0
LINE
  8
LC-006-012-----0
 62
     2
  6
DASHED
 10
310.973114
 20
755.266357
 11
320.973114
 21
755.266357
  0
LINE
  8
LC-004-006-----0
 62
     2
  6
DASHDOT
 10
299.227112
 20
750.466309
 11
312.580750
 21
750.466309
  0
LINE
  8
LC-004-006-----0
 62
     2
  6
DASHDOT
 10
305.973114
 20
757.274475
 11
305.973114
 21
743.709290
  0
LINE
  8
LC-003-002-----0
 62
     1
  6
CONTINUOUS
 10
257.473114
 20
680.755005
 11
322.473114
 21
680.755005
  0
LINE
  8
LC-003-002-----0
 62
     1
  6
CONTINUOUS
 10
322.473114
 20
681.755005
 11
322.473114
 21
704.755005
  0
LINE
  8
LC-003-002-----0
 62
     1
  6
CONTINUOUS
 10
257.473114
 20
680.755005
 11
257.473114
 21
681.755005
  0
LINE
  8
LC-004-006-----0
 62
     2
  6
DASHDOT
 10
273.973114
 20
702.580261
 11
273.973114
 21
683.705322
  0
LINE
  8
LC-003-002-----0
 62
     1
  6
CONTINUOUS
 10
322.473114
 20
681.755005
 11
322.473114
 21
680.755005
  0
CIRCLE
  8
LC-003-002-----0
 62
     1
  6
CONTINUOUS
 10
273.973114
 20
693.255005
 40
4.000000
  0
LINE
  8
LC-004-006-----0
 62
     2
  6
DASHDOT
 10
262.473114
 20
677.986511
 11
262.473114
 21
707.706177
  0
LINE
  8
LC-006-012-----0
 62
     2
  6
DASHED
 10
258.473114
 20
681.755005
 11
258.473114
 21
686.255005
  0
LINE
  8
LC-006-012-----0
 62
     2
  6
DASHED
 10
266.473114
 20
681.755005
 11
266.473114
 21
686.255005
  0
CIRCLE
  8
LC-003-002-----0
 62
     1
  6
CONTINUOUS
 10
305.973114
 20
693.255005
 40
8.000000
  0
LINE
  8
LC-006-012-----0
 62
     2
  6
DASHED
 10
264.623138
 20
686.255005
 11
264.623138
 21
704.755005
  0
LINE
  8
LC-003-002-----0
 62
     1
  6
CONTINUOUS
 10
257.473114
 20
704.755005
 11
322.473114
 21
704.755005
  0
LINE
  8
LC-006-012-----0
 62
     2
  6
DASHED
 10
260.323120
 20
686.255005
 11
260.323120
 21
704.755005
  0
LINE
  8
LC-006-012-----0
 62
     2
  6
DASHED
 10
259.973114
 20
693.755005
 11
259.973114
 21
704.755005
  0
LINE
  8
LC-006-012-----0
 62
     2
  6
DASHED
 10
264.973114
 20
693.755005
 11
264.973114
 21
704.755005
  0
LINE
  8
LC-006-012-----0
 62
     2
  6
DASHED
 10
264.973114
 20
693.755005
 11
259.973114
 21
693.755005
  0
LINE
  8
LC-006-012-----0
 62
     2
  6
DASHED
 10
266.473114
 20
686.255005
 11
258.473114
 21
686.255005
  0
LINE
  8
LC-003-002-----0
 62
     1
  6
CONTINUOUS
 10
257.473114
 20
681.755005
 11
322.473114
 21
681.755005
  0
LINE
  8
LC-004-006-----0
 62
     2
  6
DASHDOT
 10
296.174927
 20
693.255005
 11
315.824524
 21
693.255005
  0
LINE
  8
LC-004-006-----0
 62
     2
  6
DASHDOT
 10
305.973114
 20
702.580261
 11
305.973114
 21
683.705322
  0
CIRCLE
  8
LC-003-002-----0
 62
     1
  6
CONTINUOUS
 10
305.973114
 20
693.255005
 40
4.000000
  0
CIRCLE
  8
LC-003-002-----0
 62
     1
  6
CONTINUOUS
 10
273.973114
 20
693.255005
 40
7.000000
  0
CIRCLE
  8
LC-003-002-----0
 62
     1
  6
CONTINUOUS
 10
305.973114
 20
693.255005
 40
7.000000
  0
LINE
  8
LC-004-006-----0
 62
     2
  6
DASHDOT
 10
317.473114
 20
677.986511
 11
317.473114
 21
707.706177
  0
LINE
  8
LC-006-012-----0
 62
     2
  6
DASHED
 10
321.473114
 20
681.755005
 11
321.473114
 21
686.255005
  0
LINE
  8
LC-006-012-----0
 62
     2
  6
DASHED
 10
313.473114
 20
681.755005
 11
313.473114
 21
686.255005
  0
LINE
  8
LC-006-012-----0
 62
     2
  6
DASHED
 10
315.323120
 20
686.255005
 11
315.323120
 21
704.755005
  0
LINE
  8
LC-006-012-----0
 62
     2
  6
DASHED
 10
319.623138
 20
686.255005
 11
319.623138
 21
704.755005
  0
LINE
  8
LC-006-012-----0
 62
     2
  6
DASHED
 10
319.973114
 20
693.755005
 11
319.973114
 21
704.755005
  0
LINE
  8
LC-006-012-----0
 62
     2
  6
DASHED
 10
314.973114
 20
693.755005
 11
314.973114
 21
704.755005
  0
LINE
  8
LC-006-012-----0
 62
     2
  6
DASHED
 10
314.973114
 20
693.755005
 11
319.973114
 21
693.755005
  0
LINE
  8
LC-006-012-----0
 62
     2
  6
DASHED
 10
313.473114
 20
686.255005
 11
321.473114
 21
686.255005
  0
LINE
  8
LC-006-012-----0
 62
     2
  6
DASHED
 10
198.614502
 20
755.266357
 11
208.614502
 21
755.266357
  0
ENDSEC
  0
EOF
