  0
SECTION
  2
HEADER
  9
$LIMMIN
 10
73.780396
 20
359.028595
  9
$LIMMAX
 10
369.028442
 20
519.927368
  9
$EXTMIN
 10
73.780396
 20
359.028595
  9
$EXTMAX
 10
369.028442
 20
519.927368
  0
ENDSEC
  0
SECTION
  2
TABLES
  0
TABLE
  2
LTYPE
 70
     3
  0
LTYPE
  2
CONTINUOUS
 70
    64
  3
Ausgezogene Linie
 72
    65
 73
     0
 40
0.0
  0
LTYPE
  2
DASHED
 70
    64
  3
__ __ __ __ __ __ __ __ __ __ __ __ __ __ __
 72
    65
 73
     2
 40
0.75
 49
0.5
 49
-0.25
  0
LTYPE
  2
DASHDOT
 70
    64
  3
__ . __ . __ . __ . __ . __ . __ . __ . __ . __
 72
    65
 73
     4
 40
1.0
 49
0.5
 49
-0.25
 49
0.0
 49
-0.25
  0
ENDTAB
  0
TABLE
  2
LAYER
 70
     5
  0
LAYER
  2
LC-INFO-1-1-MM-A0-0
 70
    64
 62
     7
  6
CONTINUOUS
  0
LAYER
  2
LC-003-002-----0
 70
    64
 62
     7
  6
CONTINUOUS
  0
LAYER
  2
LC-004-006-----0
 70
    64
 62
     7
  6
CONTINUOUS
  0
LAYER
  2
LC-006-012-----0
 70
    64
 62
     7
  6
CONTINUOUS
  0
LAYER
  2
LC-008-003-----0
 70
    64
 62
     7
  6
CONTINUOUS
  0
ENDTAB
  0
TABLE
  2
STYLE
 70
     1
  0
STYLE
  2
TXT8
 70
    64
 40
0.0
 41
1.0
 50
0.0
 71
     0
 42
3.500000
  3
TXT8
  4

  0
ENDTAB
  0
ENDSEC
  0
SECTION
  2
BLOCKS
  0
ENDSEC
  0
SECTION
  2
ENTITIES
  0
LINE
  8
LC-008-003-----0
 62
     2
  6
CONTINUOUS
 10
349.657104
 20
423.196228
 11
353.138153
 21
426.677277
  0
LINE
  8
LC-008-003-----0
 62
     2
  6
CONTINUOUS
 10
346.523193
 20
422.890747
 11
353.443634
 21
429.811188
  0
LINE
  8
LC-008-003-----0
 62
     2
  6
CONTINUOUS
 10
344.456207
 20
423.652161
 11
352.682220
 21
431.878174
  0
LINE
  8
LC-008-003-----0
 62
     2
  6
CONTINUOUS
 10
342.928833
 20
424.953217
 11
351.381165
 21
433.405548
  0
LINE
  8
LC-008-003-----0
 62
     2
  6
CONTINUOUS
 10
341.893158
 20
426.745972
 11
349.588409
 21
434.441223
  0
LINE
  8
LC-008-003-----0
 62
     2
  6
CONTINUOUS
 10
341.543060
 20
429.224304
 11
347.110077
 21
434.791321
  0
LINE
  8
LC-008-003-----0
 62
     2
  6
CONTINUOUS
 10
307.031799
 20
422.997314
 11
311.337067
 21
427.302582
  0
LINE
  8
LC-008-003-----0
 62
     2
  6
CONTINUOUS
 10
304.168213
 20
422.962158
 11
311.372223
 21
430.166168
  0
LINE
  8
LC-008-003-----0
 62
     2
  6
CONTINUOUS
 10
302.194855
 20
423.817230
 11
310.517151
 21
432.139526
  0
LINE
  8
LC-008-003-----0
 62
     2
  6
CONTINUOUS
 10
300.739899
 20
425.190704
 11
309.143677
 21
433.594482
  0
LINE
  8
LC-008-003-----0
 62
     2
  6
CONTINUOUS
 10
299.786377
 20
427.065613
 11
307.268768
 21
434.548004
  0
LINE
  8
LC-008-003-----0
 62
     2
  6
CONTINUOUS
 10
299.596008
 20
429.703644
 11
304.630737
 21
434.738373
  0
LINE
  8
LC-006-012-----0
 62
     2
  6
DASHED
 10
229.914505
 20
506.223907
 11
229.914505
 21
500.023895
  0
LINE
  8
LC-003-002-----0
 62
     1
  6
CONTINUOUS
 10
80.614502
 20
513.023926
 11
80.614502
 21
481.023865
  0
LINE
  8
LC-003-002-----0
 62
     1
  6
CONTINUOUS
 10
80.614502
 20
481.023895
 11
94.614502
 21
481.023895
  0
LINE
  8
LC-003-002-----0
 62
     1
  6
CONTINUOUS
 10
80.614502
 20
513.023926
 11
94.614502
 21
513.023926
  0
LINE
  8
LC-003-002-----0
 62
     1
  6
CONTINUOUS
 10
94.614502
 20
513.023926
 11
94.614502
 21
481.023865
  0
LINE
  8
LC-004-006-----0
 62
     2
  6
DASHDOT
 10
87.614502
 20
517.430786
 11
87.614502
 21
476.680481
  0
LINE
  8
LC-006-012-----0
 62
     2
  6
DASHED
 10
90.914497
 20
506.223907
 11
90.914497
 21
500.023895
  0
LINE
  8
LC-006-012-----0
 62
     2
  6
DASHED
 10
84.314499
 20
506.223907
 11
84.314499
 21
500.023895
  0
LINE
  8
LC-006-012-----0
 62
     2
  6
DASHED
 10
81.614502
 20
513.023926
 11
81.614502
 21
506.223877
  0
LINE
  8
LC-006-012-----0
 62
     2
  6
DASHED
 10
93.114502
 20
513.023926
 11
93.114502
 21
506.223877
  0
LINE
  8
LC-006-012-----0
 62
     2
  6
DASHED
 10
81.614502
 20
506.223907
 11
93.114502
 21
506.223907
  0
LINE
  8
LC-004-006-----0
 62
     2
  6
DASHDOT
 10
73.780396
 20
499.023895
 11
240.083328
 21
499.023895
  0
LINE
  8
LC-003-002-----0
 62
     1
  6
CONTINUOUS
 10
80.614502
 20
500.023895
 11
94.614502
 21
500.023895
  0
LINE
  8
LC-003-002-----0
 62
     1
  6
CONTINUOUS
 10
80.614502
 20
498.023895
 11
94.614502
 21
498.023895
  0
LINE
  8
LC-006-012-----0
 62
     2
  6
DASHED
 10
84.314499
 20
498.023895
 11
84.314499
 21
481.023895
  0
LINE
  8
LC-006-012-----0
 62
     2
  6
DASHED
 10
90.914497
 20
498.023895
 11
90.914497
 21
481.023895
  0
LINE
  8
LC-003-002-----0
 62
     1
  6
CONTINUOUS
 10
114.614502
 20
515.023926
 11
199.614502
 21
515.023926
  0
LINE
  8
LC-003-002-----0
 62
     1
  6
CONTINUOUS
 10
114.614502
 20
483.023895
 11
199.614502
 21
483.023895
  0
LINE
  8
LC-003-002-----0
 62
     1
  6
CONTINUOUS
 10
114.614502
 20
515.023926
 11
114.614502
 21
483.023865
  0
LINE
  8
LC-003-002-----0
 62
     1
  6
CONTINUOUS
 10
199.614502
 20
515.023926
 11
199.614502
 21
483.023865
  0
LINE
  8
LC-003-002-----0
 62
     1
  6
CONTINUOUS
 10
233.614502
 20
513.023926
 11
233.614502
 21
481.023865
  0
LINE
  8
LC-003-002-----0
 62
     1
  6
CONTINUOUS
 10
233.614502
 20
481.023895
 11
219.614502
 21
481.023895
  0
LINE
  8
LC-003-002-----0
 62
     1
  6
CONTINUOUS
 10
233.614502
 20
513.023926
 11
219.614502
 21
513.023926
  0
LINE
  8
LC-003-002-----0
 62
     1
  6
CONTINUOUS
 10
219.614502
 20
513.023926
 11
219.614502
 21
481.023865
  0
LINE
  8
LC-004-006-----0
 62
     2
  6
DASHDOT
 10
226.614502
 20
517.430786
 11
226.614502
 21
476.680481
  0
LINE
  8
LC-006-012-----0
 62
     2
  6
DASHED
 10
223.314499
 20
506.223907
 11
223.314499
 21
500.023895
  0
LINE
  8
LC-006-012-----0
 62
     2
  6
DASHED
 10
220.614502
 20
513.023926
 11
220.614502
 21
506.223877
  0
LINE
  8
LC-006-012-----0
 62
     2
  6
DASHED
 10
232.114502
 20
513.023926
 11
232.114502
 21
506.223877
  0
LINE
  8
LC-006-012-----0
 62
     2
  6
DASHED
 10
220.614502
 20
506.223907
 11
232.114502
 21
506.223907
  0
LINE
  8
LC-006-012-----0
 62
     2
  6
DASHED
 10
223.314499
 20
498.023895
 11
223.314499
 21
481.023895
  0
LINE
  8
LC-003-002-----0
 62
     1
  6
CONTINUOUS
 10
233.614502
 20
500.023895
 11
219.614502
 21
500.023895
  0
LINE
  8
LC-003-002-----0
 62
     1
  6
CONTINUOUS
 10
233.614502
 20
498.023895
 11
219.614502
 21
498.023895
  0
LINE
  8
LC-006-012-----0
 62
     2
  6
DASHED
 10
229.914505
 20
498.023895
 11
229.914505
 21
481.023895
  0
CIRCLE
  8
LC-003-002-----0
 62
     1
  6
CONTINUOUS
 10
87.614502
 20
437.305939
 40
3.300000
  0
LINE
  8
LC-006-012-----0
 62
     2
  6
DASHED
 10
80.614502
 20
505.023895
 11
94.614502
 21
505.023895
  0
LINE
  8
LC-006-012-----0
 62
     2
  6
DASHED
 10
80.614502
 20
493.023895
 11
94.614502
 21
493.023895
  0
LINE
  8
LC-003-002-----0
 62
     1
  6
CONTINUOUS
 10
94.614502
 20
505.023895
 11
114.614502
 21
505.023895
  0
LINE
  8
LC-006-012-----0
 62
     2
  6
DASHED
 10
114.614502
 20
505.023895
 11
199.614502
 21
505.023895
  0
LINE
  8
LC-003-002-----0
 62
     1
  6
CONTINUOUS
 10
94.614502
 20
493.023895
 11
114.614502
 21
493.023895
  0
LINE
  8
LC-006-012-----0
 62
     2
  6
DASHED
 10
114.614502
 20
493.023895
 11
199.614502
 21
493.023895
  0
LINE
  8
LC-003-002-----0
 62
     1
  6
CONTINUOUS
 10
199.614502
 20
505.023895
 11
219.614502
 21
505.023895
  0
LINE
  8
LC-006-012-----0
 62
     2
  6
DASHED
 10
219.614502
 20
505.023895
 11
233.614502
 21
505.023895
  0
LINE
  8
LC-003-002-----0
 62
     1
  6
CONTINUOUS
 10
199.614502
 20
493.023895
 11
219.614502
 21
493.023895
  0
LINE
  8
LC-006-012-----0
 62
     2
  6
DASHED
 10
219.614502
 20
493.023895
 11
233.614502
 21
493.023895
  0
LINE
  8
LC-006-012-----0
 62
     2
  6
DASHED
 10
114.614502
 20
510.023895
 11
146.614502
 21
510.023895
  0
LINE
  8
LC-006-012-----0
 62
     2
  6
DASHED
 10
114.614502
 20
488.023895
 11
146.614502
 21
488.023895
  0
LINE
  8
LC-006-012-----0
 62
     2
  6
DASHED
 10
146.614502
 20
510.023895
 11
146.614502
 21
488.023895
  0
LINE
  8
LC-006-012-----0
 62
     2
  6
DASHED
 10
167.614502
 20
510.023895
 11
167.614502
 21
488.023895
  0
LINE
  8
LC-004-006-----0
 62
     2
  6
DASHDOT
 10
193.614502
 20
519.927368
 11
193.614502
 21
479.576080
  0
LINE
  8
LC-006-012-----0
 62
     2
  6
DASHED
 10
196.614502
 20
515.023926
 11
196.614502
 21
502.023865
  0
LINE
  8
LC-006-012-----0
 62
     2
  6
DASHED
 10
190.614502
 20
515.023926
 11
190.614502
 21
502.023865
  0
LINE
  8
LC-006-012-----0
 62
     2
  6
DASHED
 10
196.264496
 20
515.023926
 11
196.264496
 21
488.723877
  0
LINE
  8
LC-006-012-----0
 62
     2
  6
DASHED
 10
190.964493
 20
515.023926
 11
190.964493
 21
488.723877
  0
LINE
  8
LC-006-012-----0
 62
     2
  6
DASHED
 10
190.614502
 20
502.023895
 11
196.614502
 21
502.023895
  0
LINE
  8
LC-006-012-----0
 62
     2
  6
DASHED
 10
188.614502
 20
488.723907
 11
198.614502
 21
488.723907
  0
LINE
  8
LC-006-012-----0
 62
     2
  6
DASHED
 10
198.614502
 20
488.723907
 11
198.614502
 21
483.023895
  0
LINE
  8
LC-006-012-----0
 62
     2
  6
DASHED
 10
188.614502
 20
488.723907
 11
188.614502
 21
483.023895
  0
LINE
  8
LC-004-006-----0
 62
     2
  6
DASHDOT
 10
120.614502
 20
519.927368
 11
120.614502
 21
479.576080
  0
LINE
  8
LC-006-012-----0
 62
     2
  6
DASHED
 10
117.614502
 20
515.023926
 11
117.614502
 21
502.023865
  0
LINE
  8
LC-006-012-----0
 62
     2
  6
DASHED
 10
123.614502
 20
515.023926
 11
123.614502
 21
502.023865
  0
LINE
  8
LC-006-012-----0
 62
     2
  6
DASHED
 10
117.964500
 20
515.023926
 11
117.964500
 21
488.723877
  0
LINE
  8
LC-006-012-----0
 62
     2
  6
DASHED
 10
123.264496
 20
515.023926
 11
123.264496
 21
488.723877
  0
LINE
  8
LC-006-012-----0
 62
     2
  6
DASHED
 10
123.614502
 20
502.023895
 11
117.614502
 21
502.023895
  0
LINE
  8
LC-006-012-----0
 62
     2
  6
DASHED
 10
125.614502
 20
488.723907
 11
115.614502
 21
488.723907
  0
LINE
  8
LC-006-012-----0
 62
     2
  6
DASHED
 10
115.614502
 20
488.723907
 11
115.614502
 21
483.023895
  0
LINE
  8
LC-006-012-----0
 62
     2
  6
DASHED
 10
125.614502
 20
488.723907
 11
125.614502
 21
483.023895
  0
LINE
  8
LC-006-012-----0
 62
     2
  6
DASHED
 10
146.614502
 20
510.023895
 11
167.614502
 21
510.023895
  0
LINE
  8
LC-006-012-----0
 62
     2
  6
DASHED
 10
167.614502
 20
510.023895
 11
199.614502
 21
510.023895
  0
LINE
  8
LC-006-012-----0
 62
     2
  6
DASHED
 10
146.614502
 20
488.023895
 11
167.614502
 21
488.023895
  0
LINE
  8
LC-006-012-----0
 62
     2
  6
DASHED
 10
167.614502
 20
488.023895
 11
199.614502
 21
488.023895
  0
LINE
  8
LC-003-002-----0
 62
     1
  6
CONTINUOUS
 10
80.614502
 20
444.805939
 11
80.614502
 21
359.805939
  0
LINE
  8
LC-003-002-----0
 62
     1
  6
CONTINUOUS
 10
80.614502
 20
359.805939
 11
94.614502
 21
359.805939
  0
LINE
  8
LC-003-002-----0
 62
     1
  6
CONTINUOUS
 10
94.614502
 20
444.805939
 11
94.614502
 21
359.805939
  0
LINE
  8
LC-003-002-----0
 62
     1
  6
CONTINUOUS
 10
80.614502
 20
444.805939
 11
94.614502
 21
444.805939
  0
LINE
  8
LC-003-002-----0
 62
     1
  6
CONTINUOUS
 10
233.614502
 20
444.805939
 11
233.614502
 21
359.805939
  0
LINE
  8
LC-003-002-----0
 62
     1
  6
CONTINUOUS
 10
233.614502
 20
359.805939
 11
219.614502
 21
359.805939
  0
LINE
  8
LC-003-002-----0
 62
     1
  6
CONTINUOUS
 10
219.614502
 20
444.805939
 11
219.614502
 21
359.805939
  0
LINE
  8
LC-003-002-----0
 62
     1
  6
CONTINUOUS
 10
233.614502
 20
444.805939
 11
219.614502
 21
444.805939
  0
LINE
  8
LC-003-002-----0
 62
     1
  6
CONTINUOUS
 10
114.614502
 20
444.805939
 11
114.614502
 21
359.805939
  0
LINE
  8
LC-003-002-----0
 62
     1
  6
CONTINUOUS
 10
199.614502
 20
444.805939
 11
199.614502
 21
359.805939
  0
LINE
  8
LC-003-002-----0
 62
     1
  6
CONTINUOUS
 10
199.614502
 20
359.805939
 11
114.614502
 21
359.805939
  0
LINE
  8
LC-003-002-----0
 62
     1
  6
CONTINUOUS
 10
114.614502
 20
444.805939
 11
199.614502
 21
444.805939
  0
LINE
  8
LC-003-002-----0
 62
     1
  6
CONTINUOUS
 10
284.028442
 20
513.023926
 11
369.028442
 21
513.023926
  0
LINE
  8
LC-004-006-----0
 62
     2
  6
DASHDOT
 10
240.083328
 20
423.305939
 11
73.780396
 21
423.305939
  0
LINE
  8
LC-003-002-----0
 62
     1
  6
CONTINUOUS
 10
94.614502
 20
429.305939
 11
114.614502
 21
429.305939
  0
LINE
  8
LC-003-002-----0
 62
     1
  6
CONTINUOUS
 10
94.614502
 20
417.305939
 11
114.614502
 21
417.305939
  0
LINE
  8
LC-006-012-----0
 62
     2
  6
DASHED
 10
114.614502
 20
429.305939
 11
199.614502
 21
429.305939
  0
LINE
  8
LC-006-012-----0
 62
     2
  6
DASHED
 10
114.614502
 20
417.305939
 11
199.614502
 21
417.305939
  0
LINE
  8
LC-003-002-----0
 62
     1
  6
CONTINUOUS
 10
199.614502
 20
417.305939
 11
219.614502
 21
417.305939
  0
LINE
  8
LC-003-002-----0
 62
     1
  6
CONTINUOUS
 10
199.614502
 20
429.305939
 11
219.614502
 21
429.305939
  0
LINE
  8
LC-006-012-----0
 62
     2
  6
DASHED
 10
219.614502
 20
417.305939
 11
233.614502
 21
417.305939
  0
LINE
  8
LC-006-012-----0
 62
     2
  6
DASHED
 10
219.614502
 20
429.305939
 11
233.614502
 21
429.305939
  0
LINE
  8
LC-006-012-----0
 62
     2
  6
DASHED
 10
80.614502
 20
417.305939
 11
94.614502
 21
417.305939
  0
LINE
  8
LC-006-012-----0
 62
     2
  6
DASHED
 10
80.614502
 20
429.305939
 11
94.614502
 21
429.305939
  0
LINE
  8
LC-006-012-----0
 62
     2
  6
DASHED
 10
114.614502
 20
434.305939
 11
146.614502
 21
434.305939
  0
LINE
  8
LC-006-012-----0
 62
     2
  6
DASHED
 10
114.614502
 20
412.305939
 11
146.614502
 21
412.305939
  0
LINE
  8
LC-003-002-----0
 62
     1
  6
CONTINUOUS
 10
369.028442
 20
513.023926
 11
369.028442
 21
481.023865
  0
LINE
  8
LC-006-012-----0
 62
     2
  6
DASHED
 10
146.614502
 20
434.305939
 11
146.614502
 21
412.305939
  0
LINE
  8
LC-006-012-----0
 62
     2
  6
DASHED
 10
146.614502
 20
412.305939
 11
167.614502
 21
412.305939
  0
LINE
  8
LC-006-012-----0
 62
     2
  6
DASHED
 10
146.614502
 20
434.305939
 11
167.614502
 21
434.305939
  0
LINE
  8
LC-006-012-----0
 62
     2
  6
DASHED
 10
167.614502
 20
434.305939
 11
167.614502
 21
412.305939
  0
LINE
  8
LC-006-012-----0
 62
     2
  6
DASHED
 10
167.614502
 20
434.305939
 11
199.614502
 21
434.305939
  0
LINE
  8
LC-006-012-----0
 62
     2
  6
DASHED
 10
167.614502
 20
412.305939
 11
199.614502
 21
412.305939
  0
LINE
  8
LC-004-006-----0
 62
     2
  6
DASHDOT
 10
240.083328
 20
381.305939
 11
73.780396
 21
381.305939
  0
LINE
  8
LC-003-002-----0
 62
     1
  6
CONTINUOUS
 10
94.614502
 20
375.305939
 11
114.614502
 21
375.305939
  0
LINE
  8
LC-003-002-----0
 62
     1
  6
CONTINUOUS
 10
94.614502
 20
387.305939
 11
114.614502
 21
387.305939
  0
LINE
  8
LC-006-012-----0
 62
     2
  6
DASHED
 10
114.614502
 20
375.305939
 11
199.614502
 21
375.305939
  0
LINE
  8
LC-006-012-----0
 62
     2
  6
DASHED
 10
114.614502
 20
387.305939
 11
199.614502
 21
387.305939
  0
LINE
  8
LC-003-002-----0
 62
     1
  6
CONTINUOUS
 10
199.614502
 20
387.305939
 11
219.614502
 21
387.305939
  0
LINE
  8
LC-003-002-----0
 62
     1
  6
CONTINUOUS
 10
199.614502
 20
375.305939
 11
219.614502
 21
375.305939
  0
LINE
  8
LC-006-012-----0
 62
     2
  6
DASHED
 10
219.614502
 20
387.305939
 11
233.614502
 21
387.305939
  0
LINE
  8
LC-006-012-----0
 62
     2
  6
DASHED
 10
219.614502
 20
375.305939
 11
233.614502
 21
375.305939
  0
LINE
  8
LC-006-012-----0
 62
     2
  6
DASHED
 10
80.614502
 20
387.305939
 11
94.614502
 21
387.305939
  0
LINE
  8
LC-006-012-----0
 62
     2
  6
DASHED
 10
80.614502
 20
375.305939
 11
94.614502
 21
375.305939
  0
LINE
  8
LC-006-012-----0
 62
     2
  6
DASHED
 10
114.614502
 20
370.305939
 11
146.614502
 21
370.305939
  0
LINE
  8
LC-006-012-----0
 62
     2
  6
DASHED
 10
114.614502
 20
392.305939
 11
146.614502
 21
392.305939
  0
LINE
  8
LC-006-012-----0
 62
     2
  6
DASHED
 10
146.614502
 20
370.305939
 11
146.614502
 21
392.305939
  0
LINE
  8
LC-006-012-----0
 62
     2
  6
DASHED
 10
146.614502
 20
392.305939
 11
167.614502
 21
392.305939
  0
LINE
  8
LC-006-012-----0
 62
     2
  6
DASHED
 10
146.614502
 20
370.305939
 11
167.614502
 21
370.305939
  0
LINE
  8
LC-006-012-----0
 62
     2
  6
DASHED
 10
167.614502
 20
370.305939
 11
167.614502
 21
392.305939
  0
LINE
  8
LC-006-012-----0
 62
     2
  6
DASHED
 10
167.614502
 20
370.305939
 11
199.614502
 21
370.305939
  0
LINE
  8
LC-006-012-----0
 62
     2
  6
DASHED
 10
167.614502
 20
392.305939
 11
199.614502
 21
392.305939
  0
LINE
  8
LC-003-002-----0
 62
     1
  6
CONTINUOUS
 10
284.028442
 20
481.023895
 11
369.028442
 21
481.023895
  0
LINE
  8
LC-004-006-----0
 62
     2
  6
DASHDOT
 10
87.614502
 20
444.037872
 11
87.614502
 21
429.305939
  0
LINE
  8
LC-004-006-----0
 62
     2
  6
DASHDOT
 10
94.132729
 20
437.305939
 11
80.960838
 21
437.305939
  0
CIRCLE
  8
LC-003-002-----0
 62
     1
  6
CONTINUOUS
 10
87.614502
 20
437.305939
 40
5.500000
  0
CIRCLE
  8
LC-003-002-----0
 62
     1
  6
CONTINUOUS
 10
226.614502
 20
437.305939
 40
3.300000
  0
LINE
  8
LC-004-006-----0
 62
     2
  6
DASHDOT
 10
87.614502
 20
360.573975
 11
87.614502
 21
375.305939
  0
LINE
  8
LC-004-006-----0
 62
     2
  6
DASHDOT
 10
94.132729
 20
367.305939
 11
80.960838
 21
367.305939
  0
CIRCLE
  8
LC-003-002-----0
 62
     1
  6
CONTINUOUS
 10
226.614502
 20
437.305939
 40
5.500000
  0
CIRCLE
  8
LC-003-002-----0
 62
     1
  6
CONTINUOUS
 10
87.614502
 20
367.305939
 40
3.300000
  0
LINE
  8
LC-004-006-----0
 62
     2
  6
DASHDOT
 10
226.614502
 20
444.037872
 11
226.614502
 21
429.305939
  0
LINE
  8
LC-004-006-----0
 62
     2
  6
DASHDOT
 10
220.096268
 20
437.305939
 11
233.268158
 21
437.305939
  0
CIRCLE
  8
LC-003-002-----0
 62
     1
  6
CONTINUOUS
 10
87.614502
 20
367.305939
 40
5.500000
  0
CIRCLE
  8
LC-003-002-----0
 62
     1
  6
CONTINUOUS
 10
226.614502
 20
367.305939
 40
3.300000
  0
LINE
  8
LC-004-006-----0
 62
     2
  6
DASHDOT
 10
226.614502
 20
360.573975
 11
226.614502
 21
375.305939
  0
LINE
  8
LC-004-006-----0
 62
     2
  6
DASHDOT
 10
220.096268
 20
367.305939
 11
233.268158
 21
367.305939
  0
CIRCLE
  8
LC-003-002-----0
 62
     1
  6
CONTINUOUS
 10
226.614502
 20
367.305939
 40
5.500000
  0
LINE
  8
LC-004-006-----0
 62
     2
  6
DASHDOT
 10
120.614502
 20
445.583252
 11
120.614502
 21
432.060883
  0
LINE
  8
LC-004-006-----0
 62
     2
  6
DASHDOT
 10
114.177361
 20
438.805939
 11
127.258972
 21
438.805939
  0
CIRCLE
  8
LC-003-002-----0
 62
     1
  6
CONTINUOUS
 10
120.614502
 20
438.805939
 40
2.650000
  0
ARC
  8
LC-008-003-----0
 62
     2
  6
CONTINUOUS
 10
120.614502
 20
438.805939
 40
3.000000
 50
79.607064
 51
11.450846
  0
CIRCLE
  8
LC-006-012-----0
 62
     2
  6
DASHED
 10
120.614502
 20
438.805939
 40
5.000000
  0
LINE
  8
LC-004-006-----0
 62
     2
  6
DASHDOT
 10
120.614502
 20
359.028595
 11
120.614502
 21
372.550995
  0
LINE
  8
LC-004-006-----0
 62
     2
  6
DASHDOT
 10
114.177361
 20
365.805939
 11
127.258972
 21
365.805939
  0
CIRCLE
  8
LC-003-002-----0
 62
     1
  6
CONTINUOUS
 10
120.614502
 20
365.805939
 40
2.650000
  0
ARC
  8
LC-008-003-----0
 62
     2
  6
CONTINUOUS
 10
120.614502
 20
365.805939
 40
3.000000
 50
348.549154
 51
280.392936
  0
CIRCLE
  8
LC-006-012-----0
 62
     2
  6
DASHED
 10
120.614502
 20
365.805939
 40
5.000000
  0
LINE
  8
LC-004-006-----0
 62
     2
  6
DASHDOT
 10
193.614502
 20
445.583252
 11
193.614502
 21
432.060883
  0
LINE
  8
LC-004-006-----0
 62
     2
  6
DASHDOT
 10
200.051636
 20
438.805939
 11
186.970016
 21
438.805939
  0
CIRCLE
  8
LC-003-002-----0
 62
     1
  6
CONTINUOUS
 10
193.614502
 20
438.805939
 40
2.650000
  0
ARC
  8
LC-008-003-----0
 62
     2
  6
CONTINUOUS
 10
193.614502
 20
438.805939
 40
3.000000
 50
168.549152
 51
100.392934
  0
CIRCLE
  8
LC-006-012-----0
 62
     2
  6
DASHED
 10
193.614502
 20
438.805939
 40
5.000000
  0
LINE
  8
LC-004-006-----0
 62
     2
  6
DASHDOT
 10
193.614502
 20
359.028595
 11
193.614502
 21
372.550995
  0
LINE
  8
LC-004-006-----0
 62
     2
  6
DASHDOT
 10
200.051636
 20
365.805939
 11
186.970016
 21
365.805939
  0
CIRCLE
  8
LC-003-002-----0
 62
     1
  6
CONTINUOUS
 10
193.614502
 20
365.805939
 40
2.650000
  0
ARC
  8
LC-008-003-----0
 62
     2
  6
CONTINUOUS
 10
193.614502
 20
365.805939
 40
3.000000
 50
259.607066
 51
191.450848
  0
CIRCLE
  8
LC-006-012-----0
 62
     2
  6
DASHED
 10
193.614502
 20
365.805939
 40
5.000000
  0
LINE
  8
LC-003-002-----0
 62
     1
  6
CONTINUOUS
 10
284.028442
 20
513.023926
 11
284.028442
 21
500.023865
  0
LINE
  8
LC-004-006-----0
 62
     2
  6
DASHDOT
 10
305.528442
 20
507.661926
 11
305.528442
 21
490.599304
  0
LINE
  8
LC-004-006-----0
 62
     2
  6
DASHDOT
 10
291.528442
 20
517.430786
 11
291.528442
 21
476.680481
  0
LINE
  8
LC-006-012-----0
 62
     2
  6
DASHED
 10
294.828461
 20
506.223907
 11
294.828461
 21
500.023895
  0
LINE
  8
LC-006-012-----0
 62
     2
  6
DASHED
 10
288.228455
 20
506.223907
 11
288.228455
 21
500.023895
  0
LINE
  8
LC-006-012-----0
 62
     2
  6
DASHED
 10
285.528442
 20
513.023926
 11
285.528442
 21
506.223877
  0
LINE
  8
LC-006-012-----0
 62
     2
  6
DASHED
 10
297.028442
 20
513.023926
 11
297.028442
 21
506.223877
  0
LINE
  8
LC-003-002-----0
 62
     1
  6
CONTINUOUS
 10
284.028442
 20
412.805939
 11
369.028442
 21
412.805939
  0
LINE
  8
LC-006-012-----0
 62
     2
  6
DASHED
 10
285.528442
 20
506.223907
 11
297.028442
 21
506.223907
  0
LINE
  8
LC-006-012-----0
 62
     2
  6
DASHED
 10
288.228455
 20
498.023895
 11
288.228455
 21
481.023895
  0
LINE
  8
LC-006-012-----0
 62
     2
  6
DASHED
 10
294.828461
 20
498.023895
 11
294.828461
 21
481.023895
  0
LINE
  8
LC-003-002-----0
 62
     1
  6
CONTINUOUS
 10
369.028442
 20
412.805939
 11
369.028442
 21
410.805939
  0
LINE
  8
LC-004-006-----0
 62
     2
  6
DASHDOT
 10
297.150360
 20
499.023895
 11
314.444916
 21
499.023895
  0
CIRCLE
  8
LC-003-002-----0
 62
     1
  6
CONTINUOUS
 10
305.528442
 20
499.023895
 40
6.000000
  0
LINE
  8
LC-003-002-----0
 62
     1
  6
CONTINUOUS
 10
299.612366
 20
498.023895
 11
284.028442
 21
498.023895
  0
LINE
  8
LC-003-002-----0
 62
     1
  6
CONTINUOUS
 10
299.612366
 20
500.023895
 11
284.028442
 21
500.023895
  0
LINE
  8
LC-003-002-----0
 62
     1
  6
CONTINUOUS
 10
284.028442
 20
498.023895
 11
284.028442
 21
481.023895
  0
LINE
  8
LC-004-006-----0
 62
     2
  6
DASHDOT
 10
347.528442
 20
507.661926
 11
347.528442
 21
490.599304
  0
LINE
  8
LC-004-006-----0
 62
     2
  6
DASHDOT
 10
361.528442
 20
517.430786
 11
361.528442
 21
476.680481
  0
LINE
  8
LC-006-012-----0
 62
     2
  6
DASHED
 10
364.828461
 20
506.223907
 11
364.828461
 21
500.023895
  0
LINE
  8
LC-006-012-----0
 62
     2
  6
DASHED
 10
358.228455
 20
506.223907
 11
358.228455
 21
500.023895
  0
LINE
  8
LC-006-012-----0
 62
     2
  6
DASHED
 10
355.528442
 20
513.023926
 11
355.528442
 21
506.223877
  0
LINE
  8
LC-006-012-----0
 62
     2
  6
DASHED
 10
367.028442
 20
513.023926
 11
367.028442
 21
506.223877
  0
LINE
  8
LC-006-012-----0
 62
     2
  6
DASHED
 10
355.528442
 20
506.223907
 11
367.028442
 21
506.223907
  0
LINE
  8
LC-006-012-----0
 62
     2
  6
DASHED
 10
358.228455
 20
498.023895
 11
358.228455
 21
481.023895
  0
LINE
  8
LC-004-006-----0
 62
     2
  6
DASHDOT
 10
355.906555
 20
499.023895
 11
338.612000
 21
499.023895
  0
CIRCLE
  8
LC-003-002-----0
 62
     1
  6
CONTINUOUS
 10
347.528442
 20
499.023895
 40
6.000000
  0
LINE
  8
LC-003-002-----0
 62
     1
  6
CONTINUOUS
 10
284.028442
 20
410.805939
 11
369.028442
 21
410.805939
  0
LINE
  8
LC-003-002-----0
 62
     1
  6
CONTINUOUS
 10
284.028442
 20
412.805939
 11
284.028442
 21
410.805939
  0
LINE
  8
LC-003-002-----0
 62
     1
  6
CONTINUOUS
 10
353.444550
 20
498.023895
 11
369.028442
 21
498.023895
  0
LINE
  8
LC-003-002-----0
 62
     1
  6
CONTINUOUS
 10
353.444550
 20
500.023895
 11
369.028442
 21
500.023895
  0
LINE
  8
LC-003-002-----0
 62
     1
  6
CONTINUOUS
 10
284.028442
 20
513.023926
 11
284.028442
 21
515.023926
  0
LINE
  8
LC-003-002-----0
 62
     1
  6
CONTINUOUS
 10
369.028442
 20
513.023926
 11
369.028442
 21
515.023926
  0
LINE
  8
LC-003-002-----0
 62
     1
  6
CONTINUOUS
 10
284.028442
 20
515.023926
 11
369.028442
 21
515.023926
  0
LINE
  8
LC-004-006-----0
 62
     2
  6
DASHDOT
 10
305.528442
 20
441.529114
 11
305.528442
 21
415.521027
  0
LINE
  8
LC-004-006-----0
 62
     2
  6
DASHDOT
 10
363.028442
 20
449.709381
 11
363.028442
 21
409.358093
  0
LINE
  8
LC-006-012-----0
 62
     2
  6
DASHED
 10
360.028442
 20
444.805939
 11
360.028442
 21
431.805939
  0
LINE
  8
LC-006-012-----0
 62
     2
  6
DASHED
 10
366.028442
 20
444.805939
 11
366.028442
 21
431.805939
  0
LINE
  8
LC-006-012-----0
 62
     2
  6
DASHED
 10
360.378448
 20
444.805939
 11
360.378448
 21
418.505920
  0
LINE
  8
LC-006-012-----0
 62
     2
  6
DASHED
 10
365.678467
 20
444.805939
 11
365.678467
 21
418.505920
  0
LINE
  8
LC-006-012-----0
 62
     2
  6
DASHED
 10
366.028442
 20
431.805939
 11
360.028442
 21
431.805939
  0
LINE
  8
LC-004-006-----0
 62
     2
  6
DASHDOT
 10
292.387360
 20
428.805939
 11
319.143585
 21
428.805939
  0
CIRCLE
  8
LC-003-002-----0
 62
     1
  6
CONTINUOUS
 10
305.528442
 20
428.805939
 40
6.000000
  0
LINE
  8
LC-006-012-----0
 62
     2
  6
DASHED
 10
368.028442
 20
418.505920
 11
358.028442
 21
418.505920
  0
LINE
  8
LC-006-012-----0
 62
     2
  6
DASHED
 10
358.028442
 20
418.505920
 11
358.028442
 21
412.805939
  0
LINE
  8
LC-004-006-----0
 62
     2
  6
DASHDOT
 10
290.028442
 20
449.709381
 11
290.028442
 21
409.358093
  0
LINE
  8
LC-004-006-----0
 62
     2
  6
DASHDOT
 10
347.528442
 20
441.529114
 11
347.528442
 21
415.521027
  0
LINE
  8
LC-006-012-----0
 62
     2
  6
DASHED
 10
293.028442
 20
444.805939
 11
293.028442
 21
431.805939
  0
LINE
  8
LC-006-012-----0
 62
     2
  6
DASHED
 10
287.028442
 20
444.805939
 11
287.028442
 21
431.805939
  0
LINE
  8
LC-006-012-----0
 62
     2
  6
DASHED
 10
292.678467
 20
444.805939
 11
292.678467
 21
418.505920
  0
LINE
  8
LC-006-012-----0
 62
     2
  6
DASHED
 10
287.378448
 20
444.805939
 11
287.378448
 21
418.505920
  0
LINE
  8
LC-006-012-----0
 62
     2
  6
DASHED
 10
287.028442
 20
431.805939
 11
293.028442
 21
431.805939
  0
LINE
  8
LC-006-012-----0
 62
     2
  6
DASHED
 10
285.028442
 20
418.505920
 11
295.028442
 21
418.505920
  0
LINE
  8
LC-006-012-----0
 62
     2
  6
DASHED
 10
295.028442
 20
418.505920
 11
295.028442
 21
414.005920
  0
LINE
  8
LC-006-012-----0
 62
     2
  6
DASHED
 10
285.028442
 20
418.505920
 11
285.028442
 21
414.005920
  0
LINE
  8
LC-004-006-----0
 62
     2
  6
DASHDOT
 10
360.797028
 20
428.805939
 11
334.335083
 21
428.805939
  0
CIRCLE
  8
LC-003-002-----0
 62
     1
  6
CONTINUOUS
 10
347.528442
 20
428.805939
 40
6.000000
  0
LINE
  8
LC-006-012-----0
 62
     2
  6
DASHED
 10
368.028442
 20
418.505920
 11
368.028442
 21
412.805939
  0
CIRCLE
  8
LC-003-002-----0
 62
     1
  6
CONTINUOUS
 10
305.528442
 20
428.805939
 40
11.000000
  0
LINE
  8
LC-003-002-----0
 62
     1
  6
CONTINUOUS
 10
284.028442
 20
412.805939
 11
284.028442
 21
444.805939
  0
LINE
  8
LC-003-002-----0
 62
     1
  6
CONTINUOUS
 10
369.028442
 20
412.805939
 11
369.028442
 21
444.805939
  0
LINE
  8
LC-003-002-----0
 62
     1
  6
CONTINUOUS
 10
284.028442
 20
444.805939
 11
369.028442
 21
444.805939
  0
CIRCLE
  8
LC-003-002-----0
 62
     1
  6
CONTINUOUS
 10
305.528442
 20
428.805939
 40
9.000000
  0
CIRCLE
  8
LC-003-002-----0
 62
     1
  6
CONTINUOUS
 10
347.528442
 20
428.805939
 40
11.000000
  0
CIRCLE
  8
LC-003-002-----0
 62
     1
  6
CONTINUOUS
 10
347.528442
 20
428.805939
 40
9.000000
  0
LINE
  8
LC-006-012-----0
 62
     2
  6
DASHED
 10
364.828461
 20
498.023895
 11
364.828461
 21
481.023895
  0
ENDSEC
  0
EOF
