  0
SECTION
  2
HEADER
  9
$LIMMIN
 10
74.292290
 20
64.501923
  9
$LIMMAX
 10
411.985901
 20
236.600113
  9
$EXTMIN
 10
74.292290
 20
64.501923
  9
$EXTMAX
 10
411.985901
 20
236.600113
  0
ENDSEC
  0
SECTION
  2
TABLES
  0
TABLE
  2
LTYPE
 70
     3
  0
LTYPE
  2
CONTINUOUS
 70
    64
  3
Ausgezogene Linie
 72
    65
 73
     0
 40
0.0
  0
LTYPE
  2
DASHED
 70
    64
  3
__ __ __ __ __ __ __ __ __ __ __ __ __ __ __
 72
    65
 73
     2
 40
0.75
 49
0.5
 49
-0.25
  0
LTYPE
  2
DASHDOT
 70
    64
  3
__ . __ . __ . __ . __ . __ . __ . __ . __ . __
 72
    65
 73
     4
 40
1.0
 49
0.5
 49
-0.25
 49
0.0
 49
-0.25
  0
ENDTAB
  0
TABLE
  2
LAYER
 70
     5
  0
LAYER
  2
LC-INFO-1-1-MM-A0-0
 70
    64
 62
     7
  6
CONTINUOUS
  0
LAYER
  2
LC-003-002-----0
 70
    64
 62
     7
  6
CONTINUOUS
  0
LAYER
  2
LC-004-006-----0
 70
    64
 62
     7
  6
CONTINUOUS
  0
LAYER
  2
LC-006-012-----0
 70
    64
 62
     7
  6
CONTINUOUS
  0
LAYER
  2
LC-008-003-----0
 70
    64
 62
     7
  6
CONTINUOUS
  0
ENDTAB
  0
TABLE
  2
STYLE
 70
     1
  0
STYLE
  2
TXT8
 70
    64
 40
0.0
 41
1.0
 50
0.0
 71
     0
 42
3.500000
  3
TXT8
  4

  0
ENDTAB
  0
ENDSEC
  0
SECTION
  2
BLOCKS
  0
ENDSEC
  0
SECTION
  2
ENTITIES
  0
LINE
  8
LC-008-003-----0
 62
     2
  6
CONTINUOUS
 10
393.162720
 20
141.432709
 11
395.808960
 21
144.078949
  0
LINE
  8
LC-008-003-----0
 62
     2
  6
CONTINUOUS
 10
389.159241
 20
140.257660
 11
396.984039
 21
148.082443
  0
LINE
  8
LC-008-003-----0
 62
     2
  6
CONTINUOUS
 10
386.671143
 20
140.597977
 11
396.643707
 21
150.570541
  0
LINE
  8
LC-008-003-----0
 62
     2
  6
CONTINUOUS
 10
384.727844
 20
141.483109
 11
395.758575
 21
152.513840
  0
LINE
  8
LC-008-003-----0
 62
     2
  6
CONTINUOUS
 10
383.174316
 20
142.758011
 11
394.483673
 21
154.067368
  0
LINE
  8
LC-008-003-----0
 62
     2
  6
CONTINUOUS
 10
381.980469
 20
144.392609
 11
392.849060
 21
155.261200
  0
LINE
  8
LC-008-003-----0
 62
     2
  6
CONTINUOUS
 10
381.195587
 20
146.436142
 11
390.805542
 21
156.046082
  0
LINE
  8
LC-008-003-----0
 62
     2
  6
CONTINUOUS
 10
381.030518
 20
149.099503
 11
388.142181
 21
156.211151
  0
LINE
  8
LC-008-003-----0
 62
     2
  6
CONTINUOUS
 10
340.064056
 20
142.074158
 11
341.167511
 21
143.177612
  0
LINE
  8
LC-008-003-----0
 62
     2
  6
CONTINUOUS
 10
335.429565
 20
140.268082
 11
342.973602
 21
147.812119
  0
LINE
  8
LC-008-003-----0
 62
     2
  6
CONTINUOUS
 10
332.872925
 20
140.539871
 11
342.701813
 21
150.368774
  0
LINE
  8
LC-008-003-----0
 62
     2
  6
CONTINUOUS
 10
330.889038
 20
141.384415
 11
341.857269
 21
152.352646
  0
LINE
  8
LC-008-003-----0
 62
     2
  6
CONTINUOUS
 10
329.302155
 20
142.625961
 11
340.615723
 21
153.939529
  0
LINE
  8
LC-008-003-----0
 62
     2
  6
CONTINUOUS
 10
328.074524
 20
144.226761
 11
339.014923
 21
155.167145
  0
LINE
  8
LC-008-003-----0
 62
     2
  6
CONTINUOUS
 10
327.247192
 20
146.227859
 11
337.013824
 21
155.994476
  0
LINE
  8
LC-008-003-----0
 62
     2
  6
CONTINUOUS
 10
327.005432
 20
148.814529
 11
334.427155
 21
156.236237
  0
LINE
  8
LC-003-002-----0
 62
     1
  6
CONTINUOUS
 10
80.614502
 20
231.322891
 11
80.614502
 21
195.322891
  0
LINE
  8
LC-003-002-----0
 62
     1
  6
CONTINUOUS
 10
80.614502
 20
195.322891
 11
98.614502
 21
195.322891
  0
LINE
  8
LC-003-002-----0
 62
     1
  6
CONTINUOUS
 10
80.614502
 20
231.322891
 11
98.614502
 21
231.322891
  0
LINE
  8
LC-003-002-----0
 62
     1
  6
CONTINUOUS
 10
98.614502
 20
231.322891
 11
98.614502
 21
195.322891
  0
LINE
  8
LC-004-006-----0
 62
     2
  6
DASHDOT
 10
89.614502
 20
191.690842
 11
89.614502
 21
235.022003
  0
LINE
  8
LC-006-012-----0
 62
     2
  6
DASHED
 10
94.114502
 20
195.322891
 11
94.114502
 21
214.072891
  0
LINE
  8
LC-006-012-----0
 62
     2
  6
DASHED
 10
85.114502
 20
195.322891
 11
85.114502
 21
214.072891
  0
LINE
  8
LC-006-012-----0
 62
     2
  6
DASHED
 10
97.114502
 20
222.322891
 11
97.114502
 21
231.322891
  0
LINE
  8
LC-006-012-----0
 62
     2
  6
DASHED
 10
82.114502
 20
222.322891
 11
82.114502
 21
231.322891
  0
LINE
  8
LC-006-012-----0
 62
     2
  6
DASHED
 10
82.114502
 20
222.322891
 11
97.114502
 21
222.322891
  0
LINE
  8
LC-003-002-----0
 62
     1
  6
CONTINUOUS
 10
118.614502
 20
233.322891
 11
118.614502
 21
197.322891
  0
LINE
  8
LC-003-002-----0
 62
     1
  6
CONTINUOUS
 10
218.614502
 20
233.322891
 11
218.614502
 21
197.322891
  0
LINE
  8
LC-003-002-----0
 62
     1
  6
CONTINUOUS
 10
118.614502
 20
197.322891
 11
218.614502
 21
197.322891
  0
LINE
  8
LC-003-002-----0
 62
     1
  6
CONTINUOUS
 10
118.614502
 20
233.322891
 11
218.614502
 21
233.322891
  0
LINE
  8
LC-004-006-----0
 62
     2
  6
DASHDOT
 10
74.292290
 20
215.322891
 11
259.516998
 21
215.322891
  0
LINE
  8
LC-003-002-----0
 62
     1
  6
CONTINUOUS
 10
80.614502
 20
216.572891
 11
98.614502
 21
216.572891
  0
LINE
  8
LC-003-002-----0
 62
     1
  6
CONTINUOUS
 10
80.614502
 20
214.072891
 11
98.614502
 21
214.072891
  0
LINE
  8
LC-006-012-----0
 62
     2
  6
DASHED
 10
85.114502
 20
216.572891
 11
85.114502
 21
222.322891
  0
LINE
  8
LC-006-012-----0
 62
     2
  6
DASHED
 10
94.114502
 20
216.572891
 11
94.114502
 21
222.322891
  0
LINE
  8
LC-006-012-----0
 62
     2
  6
DASHED
 10
80.614502
 20
223.322891
 11
98.614502
 21
223.322891
  0
LINE
  8
LC-006-012-----0
 62
     2
  6
DASHED
 10
80.614502
 20
207.322891
 11
98.614502
 21
207.322891
  0
LINE
  8
LC-003-002-----0
 62
     1
  6
CONTINUOUS
 10
98.614502
 20
223.322891
 11
118.614502
 21
223.322891
  0
LINE
  8
LC-006-012-----0
 62
     2
  6
DASHED
 10
118.614502
 20
223.322891
 11
218.614502
 21
223.322891
  0
LINE
  8
LC-003-002-----0
 62
     1
  6
CONTINUOUS
 10
98.614502
 20
207.322891
 11
118.614502
 21
207.322891
  0
LINE
  8
LC-006-012-----0
 62
     2
  6
DASHED
 10
118.614502
 20
207.322891
 11
218.614502
 21
207.322891
  0
LINE
  8
LC-003-002-----0
 62
     1
  6
CONTINUOUS
 10
311.985901
 20
195.322891
 11
411.985901
 21
195.322891
  0
LINE
  8
LC-003-002-----0
 62
     1
  6
CONTINUOUS
 10
256.614502
 20
231.322891
 11
256.614502
 21
195.322891
  0
LINE
  8
LC-003-002-----0
 62
     1
  6
CONTINUOUS
 10
256.614502
 20
195.322891
 11
238.614502
 21
195.322891
  0
LINE
  8
LC-003-002-----0
 62
     1
  6
CONTINUOUS
 10
256.614502
 20
231.322891
 11
238.614502
 21
231.322891
  0
LINE
  8
LC-003-002-----0
 62
     1
  6
CONTINUOUS
 10
238.614502
 20
231.322891
 11
238.614502
 21
195.322891
  0
LINE
  8
LC-004-006-----0
 62
     2
  6
DASHDOT
 10
247.614502
 20
191.690842
 11
247.614502
 21
235.022003
  0
LINE
  8
LC-006-012-----0
 62
     2
  6
DASHED
 10
243.114502
 20
195.322891
 11
243.114502
 21
214.072891
  0
LINE
  8
LC-006-012-----0
 62
     2
  6
DASHED
 10
252.114502
 20
195.322891
 11
252.114502
 21
214.072891
  0
LINE
  8
LC-006-012-----0
 62
     2
  6
DASHED
 10
240.114502
 20
222.322891
 11
240.114502
 21
231.322891
  0
LINE
  8
LC-006-012-----0
 62
     2
  6
DASHED
 10
255.114502
 20
222.322891
 11
255.114502
 21
231.322891
  0
LINE
  8
LC-006-012-----0
 62
     2
  6
DASHED
 10
255.114502
 20
222.322891
 11
240.114502
 21
222.322891
  0
LINE
  8
LC-003-002-----0
 62
     1
  6
CONTINUOUS
 10
256.614502
 20
216.572891
 11
238.614502
 21
216.572891
  0
LINE
  8
LC-003-002-----0
 62
     1
  6
CONTINUOUS
 10
256.614502
 20
214.072891
 11
238.614502
 21
214.072891
  0
LINE
  8
LC-006-012-----0
 62
     2
  6
DASHED
 10
252.114502
 20
216.572891
 11
252.114502
 21
222.322891
  0
LINE
  8
LC-006-012-----0
 62
     2
  6
DASHED
 10
243.114502
 20
216.572891
 11
243.114502
 21
222.322891
  0
LINE
  8
LC-006-012-----0
 62
     2
  6
DASHED
 10
256.614502
 20
223.322891
 11
238.614502
 21
223.322891
  0
LINE
  8
LC-006-012-----0
 62
     2
  6
DASHED
 10
256.614502
 20
207.322891
 11
238.614502
 21
207.322891
  0
LINE
  8
LC-003-002-----0
 62
     1
  6
CONTINUOUS
 10
218.614502
 20
223.322891
 11
238.614502
 21
223.322891
  0
LINE
  8
LC-003-002-----0
 62
     1
  6
CONTINUOUS
 10
218.614502
 20
207.322891
 11
238.614502
 21
207.322891
  0
LINE
  8
LC-006-012-----0
 62
     2
  6
DASHED
 10
118.614502
 20
228.322891
 11
154.614502
 21
228.322891
  0
LINE
  8
LC-006-012-----0
 62
     2
  6
DASHED
 10
118.614502
 20
202.322891
 11
154.614502
 21
202.322891
  0
LINE
  8
LC-006-012-----0
 62
     2
  6
DASHED
 10
154.614502
 20
228.322891
 11
154.614502
 21
202.322891
  0
LINE
  8
LC-006-012-----0
 62
     2
  6
DASHED
 10
182.614502
 20
228.322891
 11
182.614502
 21
202.322891
  0
LINE
  8
LC-006-012-----0
 62
     2
  6
DASHED
 10
154.614502
 20
202.322891
 11
182.614502
 21
202.322891
  0
LINE
  8
LC-006-012-----0
 62
     2
  6
DASHED
 10
182.614502
 20
202.322891
 11
218.614502
 21
202.322891
  0
LINE
  8
LC-006-012-----0
 62
     2
  6
DASHED
 10
154.614502
 20
228.322891
 11
182.614502
 21
228.322891
  0
LINE
  8
LC-006-012-----0
 62
     2
  6
DASHED
 10
182.614502
 20
228.322891
 11
218.614502
 21
228.322891
  0
LINE
  8
LC-003-002-----0
 62
     1
  6
CONTINUOUS
 10
80.614502
 20
166.255768
 11
80.614502
 21
66.255783
  0
LINE
  8
LC-003-002-----0
 62
     1
  6
CONTINUOUS
 10
80.614502
 20
66.255775
 11
98.614502
 21
66.255775
  0
LINE
  8
LC-003-002-----0
 62
     1
  6
CONTINUOUS
 10
98.614502
 20
166.255768
 11
98.614502
 21
66.255783
  0
LINE
  8
LC-003-002-----0
 62
     1
  6
CONTINUOUS
 10
118.614502
 20
166.255768
 11
118.614502
 21
66.255783
  0
LINE
  8
LC-003-002-----0
 62
     1
  6
CONTINUOUS
 10
218.614502
 20
166.255768
 11
218.614502
 21
66.255783
  0
LINE
  8
LC-003-002-----0
 62
     1
  6
CONTINUOUS
 10
118.614502
 20
66.255775
 11
218.614502
 21
66.255775
  0
LINE
  8
LC-003-002-----0
 62
     1
  6
CONTINUOUS
 10
118.614502
 20
166.255768
 11
218.614502
 21
166.255768
  0
LINE
  8
LC-003-002-----0
 62
     1
  6
CONTINUOUS
 10
80.614502
 20
166.255768
 11
98.614502
 21
166.255768
  0
LINE
  8
LC-004-006-----0
 62
     2
  6
DASHDOT
 10
212.614502
 20
236.600113
 11
212.614502
 21
194.666901
  0
LINE
  8
LC-006-012-----0
 62
     2
  6
DASHED
 10
215.614502
 20
233.322891
 11
215.614502
 21
220.322891
  0
LINE
  8
LC-006-012-----0
 62
     2
  6
DASHED
 10
209.614502
 20
233.322891
 11
209.614502
 21
220.322891
  0
LINE
  8
LC-006-012-----0
 62
     2
  6
DASHED
 10
215.264496
 20
233.322891
 11
215.264496
 21
203.022888
  0
LINE
  8
LC-006-012-----0
 62
     2
  6
DASHED
 10
209.964493
 20
233.322891
 11
209.964493
 21
203.022888
  0
LINE
  8
LC-006-012-----0
 62
     2
  6
DASHED
 10
209.614502
 20
220.322891
 11
215.614502
 21
220.322891
  0
LINE
  8
LC-006-012-----0
 62
     2
  6
DASHED
 10
207.614502
 20
203.022888
 11
217.614502
 21
203.022888
  0
LINE
  8
LC-006-012-----0
 62
     2
  6
DASHED
 10
217.614502
 20
203.022888
 11
217.614502
 21
197.322891
  0
LINE
  8
LC-006-012-----0
 62
     2
  6
DASHED
 10
207.614502
 20
203.022888
 11
207.614502
 21
197.322891
  0
LINE
  8
LC-004-006-----0
 62
     2
  6
DASHDOT
 10
124.614502
 20
236.600113
 11
124.614502
 21
194.666901
  0
LINE
  8
LC-006-012-----0
 62
     2
  6
DASHED
 10
121.614502
 20
233.322891
 11
121.614502
 21
220.322891
  0
LINE
  8
LC-006-012-----0
 62
     2
  6
DASHED
 10
127.614502
 20
233.322891
 11
127.614502
 21
220.322891
  0
LINE
  8
LC-006-012-----0
 62
     2
  6
DASHED
 10
121.964500
 20
233.322891
 11
121.964500
 21
203.022888
  0
LINE
  8
LC-006-012-----0
 62
     2
  6
DASHED
 10
127.264496
 20
233.322891
 11
127.264496
 21
203.022888
  0
LINE
  8
LC-006-012-----0
 62
     2
  6
DASHED
 10
127.614502
 20
220.322891
 11
121.614502
 21
220.322891
  0
LINE
  8
LC-006-012-----0
 62
     2
  6
DASHED
 10
129.614502
 20
203.022888
 11
119.614502
 21
203.022888
  0
LINE
  8
LC-006-012-----0
 62
     2
  6
DASHED
 10
119.614502
 20
203.022888
 11
119.614502
 21
197.322891
  0
LINE
  8
LC-006-012-----0
 62
     2
  6
DASHED
 10
129.614502
 20
203.022888
 11
129.614502
 21
197.322891
  0
LINE
  8
LC-003-002-----0
 62
     1
  6
CONTINUOUS
 10
311.985901
 20
233.322891
 11
411.985901
 21
233.322891
  0
LINE
  8
LC-004-006-----0
 62
     2
  6
DASHDOT
 10
100.347221
 20
157.255768
 11
78.531860
 21
157.255768
  0
LINE
  8
LC-004-006-----0
 62
     2
  6
DASHDOT
 10
89.614502
 20
168.009628
 11
89.614502
 21
147.057617
  0
CIRCLE
  8
LC-003-002-----0
 62
     1
  6
CONTINUOUS
 10
89.614502
 20
157.255768
 40
4.500000
  0
CIRCLE
  8
LC-003-002-----0
 62
     1
  6
CONTINUOUS
 10
89.614502
 20
157.255768
 40
7.500000
  0
LINE
  8
LC-004-006-----0
 62
     2
  6
DASHDOT
 10
100.347221
 20
75.255775
 11
78.531860
 21
75.255775
  0
LINE
  8
LC-004-006-----0
 62
     2
  6
DASHDOT
 10
89.614502
 20
64.501923
 11
89.614502
 21
85.453941
  0
CIRCLE
  8
LC-003-002-----0
 62
     1
  6
CONTINUOUS
 10
89.614502
 20
75.255775
 40
4.500000
  0
CIRCLE
  8
LC-003-002-----0
 62
     1
  6
CONTINUOUS
 10
89.614502
 20
75.255775
 40
7.500000
  0
LINE
  8
LC-003-002-----0
 62
     1
  6
CONTINUOUS
 10
256.614502
 20
166.255768
 11
256.614502
 21
66.255783
  0
LINE
  8
LC-003-002-----0
 62
     1
  6
CONTINUOUS
 10
256.614502
 20
66.255775
 11
238.614502
 21
66.255775
  0
LINE
  8
LC-003-002-----0
 62
     1
  6
CONTINUOUS
 10
238.614502
 20
166.255768
 11
238.614502
 21
66.255783
  0
LINE
  8
LC-003-002-----0
 62
     1
  6
CONTINUOUS
 10
256.614502
 20
166.255768
 11
238.614502
 21
166.255768
  0
LINE
  8
LC-004-006-----0
 62
     2
  6
DASHDOT
 10
236.881775
 20
157.255768
 11
258.697144
 21
157.255768
  0
LINE
  8
LC-004-006-----0
 62
     2
  6
DASHDOT
 10
247.614502
 20
168.009628
 11
247.614502
 21
147.057617
  0
CIRCLE
  8
LC-003-002-----0
 62
     1
  6
CONTINUOUS
 10
247.614502
 20
157.255768
 40
4.500000
  0
CIRCLE
  8
LC-003-002-----0
 62
     1
  6
CONTINUOUS
 10
247.614502
 20
157.255768
 40
7.500000
  0
LINE
  8
LC-004-006-----0
 62
     2
  6
DASHDOT
 10
236.881775
 20
75.255775
 11
258.697144
 21
75.255775
  0
LINE
  8
LC-004-006-----0
 62
     2
  6
DASHDOT
 10
247.614502
 20
64.501923
 11
247.614502
 21
85.453941
  0
CIRCLE
  8
LC-003-002-----0
 62
     1
  6
CONTINUOUS
 10
247.614502
 20
75.255775
 40
4.500000
  0
CIRCLE
  8
LC-003-002-----0
 62
     1
  6
CONTINUOUS
 10
247.614502
 20
75.255775
 40
7.500000
  0
LINE
  8
LC-006-012-----0
 62
     2
  6
DASHED
 10
118.614502
 20
135.255768
 11
218.614502
 21
135.255768
  0
LINE
  8
LC-004-006-----0
 62
     2
  6
DASHDOT
 10
74.292290
 20
143.255768
 11
259.516998
 21
143.255768
  0
LINE
  8
LC-003-002-----0
 62
     1
  6
CONTINUOUS
 10
98.614502
 20
151.255768
 11
118.614502
 21
151.255768
  0
LINE
  8
LC-003-002-----0
 62
     1
  6
CONTINUOUS
 10
98.614502
 20
135.255768
 11
118.614502
 21
135.255768
  0
LINE
  8
LC-003-002-----0
 62
     1
  6
CONTINUOUS
 10
311.985901
 20
231.322891
 11
411.985901
 21
231.322891
  0
LINE
  8
LC-006-012-----0
 62
     2
  6
DASHED
 10
80.614502
 20
135.255768
 11
98.614502
 21
135.255768
  0
LINE
  8
LC-006-012-----0
 62
     2
  6
DASHED
 10
80.614502
 20
151.255768
 11
98.614502
 21
151.255768
  0
LINE
  8
LC-006-012-----0
 62
     2
  6
DASHED
 10
118.614502
 20
151.255768
 11
218.614502
 21
151.255768
  0
LINE
  8
LC-006-012-----0
 62
     2
  6
DASHED
 10
118.614502
 20
156.255768
 11
154.614502
 21
156.255768
  0
LINE
  8
LC-006-012-----0
 62
     2
  6
DASHED
 10
154.614502
 20
156.255768
 11
154.614502
 21
130.255768
  0
LINE
  8
LC-006-012-----0
 62
     2
  6
DASHED
 10
154.614502
 20
156.255768
 11
182.614502
 21
156.255768
  0
LINE
  8
LC-003-002-----0
 62
     1
  6
CONTINUOUS
 10
311.985901
 20
231.322891
 11
311.985901
 21
216.572891
  0
LINE
  8
LC-006-012-----0
 62
     2
  6
DASHED
 10
118.614502
 20
130.255768
 11
154.614502
 21
130.255768
  0
LINE
  8
LC-003-002-----0
 62
     1
  6
CONTINUOUS
 10
311.985901
 20
214.072891
 11
311.985901
 21
195.322891
  0
LINE
  8
LC-006-012-----0
 62
     2
  6
DASHED
 10
182.614502
 20
156.255768
 11
182.614502
 21
130.255768
  0
LINE
  8
LC-006-012-----0
 62
     2
  6
DASHED
 10
154.614502
 20
130.255768
 11
182.614502
 21
130.255768
  0
LINE
  8
LC-006-012-----0
 62
     2
  6
DASHED
 10
182.614502
 20
130.255768
 11
218.614502
 21
130.255768
  0
LINE
  8
LC-004-006-----0
 62
     2
  6
DASHDOT
 10
323.947937
 20
215.322891
 11
346.361084
 21
215.322891
  0
LINE
  8
LC-006-012-----0
 62
     2
  6
DASHED
 10
182.614502
 20
156.255768
 11
218.614502
 21
156.255768
  0
LINE
  8
LC-003-002-----0
 62
     1
  6
CONTINUOUS
 10
218.614502
 20
151.255768
 11
238.614502
 21
151.255768
  0
LINE
  8
LC-003-002-----0
 62
     1
  6
CONTINUOUS
 10
218.614502
 20
135.255768
 11
238.614502
 21
135.255768
  0
LINE
  8
LC-006-012-----0
 62
     2
  6
DASHED
 10
256.614502
 20
135.255768
 11
238.614502
 21
135.255768
  0
LINE
  8
LC-006-012-----0
 62
     2
  6
DASHED
 10
256.614502
 20
151.255768
 11
238.614502
 21
151.255768
  0
LINE
  8
LC-006-012-----0
 62
     2
  6
DASHED
 10
118.614502
 20
97.255775
 11
218.614502
 21
97.255775
  0
LINE
  8
LC-004-006-----0
 62
     2
  6
DASHDOT
 10
74.292290
 20
89.255775
 11
259.516998
 21
89.255775
  0
LINE
  8
LC-006-012-----0
 62
     2
  6
DASHED
 10
118.614502
 20
81.255775
 11
218.614502
 21
81.255775
  0
LINE
  8
LC-006-012-----0
 62
     2
  6
DASHED
 10
118.614502
 20
76.255775
 11
154.614502
 21
76.255775
  0
LINE
  8
LC-006-012-----0
 62
     2
  6
DASHED
 10
154.614502
 20
76.255775
 11
154.614502
 21
102.255775
  0
LINE
  8
LC-006-012-----0
 62
     2
  6
DASHED
 10
154.614502
 20
76.255775
 11
182.614502
 21
76.255775
  0
LINE
  8
LC-006-012-----0
 62
     2
  6
DASHED
 10
118.614502
 20
102.255775
 11
154.614502
 21
102.255775
  0
LINE
  8
LC-006-012-----0
 62
     2
  6
DASHED
 10
182.614502
 20
76.255775
 11
182.614502
 21
102.255775
  0
LINE
  8
LC-006-012-----0
 62
     2
  6
DASHED
 10
154.614502
 20
102.255775
 11
182.614502
 21
102.255775
  0
LINE
  8
LC-006-012-----0
 62
     2
  6
DASHED
 10
182.614502
 20
102.255775
 11
218.614502
 21
102.255775
  0
LINE
  8
LC-006-012-----0
 62
     2
  6
DASHED
 10
182.614502
 20
76.255775
 11
218.614502
 21
76.255775
  0
LINE
  8
LC-004-006-----0
 62
     2
  6
DASHDOT
 10
334.985901
 20
226.482620
 11
334.985901
 21
204.112564
  0
LINE
  8
LC-003-002-----0
 62
     1
  6
CONTINUOUS
 10
329.985901
 20
195.322891
 11
311.985901
 21
195.322891
  0
LINE
  8
LC-003-002-----0
 62
     1
  6
CONTINUOUS
 10
329.985901
 20
231.322891
 11
311.985901
 21
231.322891
  0
CIRCLE
  8
LC-003-002-----0
 62
     1
  6
CONTINUOUS
 10
334.985901
 20
215.322891
 40
8.000000
  0
LINE
  8
LC-003-002-----0
 62
     1
  6
CONTINUOUS
 10
98.614502
 20
81.255775
 11
118.614502
 21
81.255775
  0
LINE
  8
LC-003-002-----0
 62
     1
  6
CONTINUOUS
 10
98.614502
 20
97.255775
 11
118.614502
 21
97.255775
  0
LINE
  8
LC-006-012-----0
 62
     2
  6
DASHED
 10
80.614502
 20
97.255775
 11
98.614502
 21
97.255775
  0
LINE
  8
LC-006-012-----0
 62
     2
  6
DASHED
 10
80.614502
 20
81.255775
 11
98.614502
 21
81.255775
  0
LINE
  8
LC-003-002-----0
 62
     1
  6
CONTINUOUS
 10
218.614502
 20
81.255775
 11
238.614502
 21
81.255775
  0
LINE
  8
LC-003-002-----0
 62
     1
  6
CONTINUOUS
 10
218.614502
 20
97.255775
 11
238.614502
 21
97.255775
  0
LINE
  8
LC-006-012-----0
 62
     2
  6
DASHED
 10
256.614502
 20
97.255775
 11
238.614502
 21
97.255775
  0
LINE
  8
LC-006-012-----0
 62
     2
  6
DASHED
 10
256.614502
 20
81.255775
 11
238.614502
 21
81.255775
  0
LINE
  8
LC-004-006-----0
 62
     2
  6
DASHDOT
 10
124.614502
 20
166.994202
 11
124.614502
 21
153.906052
  0
LINE
  8
LC-004-006-----0
 62
     2
  6
DASHDOT
 10
117.464165
 20
160.255768
 11
131.383987
 21
160.255768
  0
CIRCLE
  8
LC-003-002-----0
 62
     1
  6
CONTINUOUS
 10
124.614502
 20
160.255768
 40
2.650000
  0
ARC
  8
LC-008-003-----0
 62
     2
  6
CONTINUOUS
 10
124.614502
 20
160.255768
 40
3.000000
 50
80.243426
 51
10.681525
  0
CIRCLE
  8
LC-006-012-----0
 62
     2
  6
DASHED
 10
124.614502
 20
160.255768
 40
5.000000
  0
LINE
  8
LC-004-006-----0
 62
     2
  6
DASHDOT
 10
212.614502
 20
166.994202
 11
212.614502
 21
153.906052
  0
LINE
  8
LC-004-006-----0
 62
     2
  6
DASHDOT
 10
219.764832
 20
160.255768
 11
205.845016
 21
160.255768
  0
CIRCLE
  8
LC-003-002-----0
 62
     1
  6
CONTINUOUS
 10
212.614502
 20
160.255768
 40
2.650000
  0
ARC
  8
LC-008-003-----0
 62
     2
  6
CONTINUOUS
 10
212.614502
 20
160.255768
 40
3.000000
 50
169.318477
 51
99.756573
  0
CIRCLE
  8
LC-006-012-----0
 62
     2
  6
DASHED
 10
212.614502
 20
160.255768
 40
5.000000
  0
LINE
  8
LC-004-006-----0
 62
     2
  6
DASHDOT
 10
124.614502
 20
65.517349
 11
124.614502
 21
78.605499
  0
LINE
  8
LC-004-006-----0
 62
     2
  6
DASHDOT
 10
117.464165
 20
72.255775
 11
131.383987
 21
72.255775
  0
CIRCLE
  8
LC-003-002-----0
 62
     1
  6
CONTINUOUS
 10
124.614502
 20
72.255775
 40
2.650000
  0
ARC
  8
LC-008-003-----0
 62
     2
  6
CONTINUOUS
 10
124.614502
 20
72.255775
 40
3.000000
 50
349.318475
 51
279.756574
  0
CIRCLE
  8
LC-006-012-----0
 62
     2
  6
DASHED
 10
124.614502
 20
72.255775
 40
5.000000
  0
LINE
  8
LC-004-006-----0
 62
     2
  6
DASHDOT
 10
212.614502
 20
65.517349
 11
212.614502
 21
78.605499
  0
LINE
  8
LC-004-006-----0
 62
     2
  6
DASHDOT
 10
219.764832
 20
72.255775
 11
205.845016
 21
72.255775
  0
CIRCLE
  8
LC-003-002-----0
 62
     1
  6
CONTINUOUS
 10
212.614502
 20
72.255775
 40
2.650000
  0
ARC
  8
LC-008-003-----0
 62
     2
  6
CONTINUOUS
 10
212.614502
 20
72.255775
 40
3.000000
 50
260.243427
 51
190.681523
  0
CIRCLE
  8
LC-006-012-----0
 62
     2
  6
DASHED
 10
212.614502
 20
72.255775
 40
5.000000
  0
LINE
  8
LC-004-006-----0
 62
     2
  6
DASHDOT
 10
320.985901
 20
191.690842
 11
320.985901
 21
235.022003
  0
LINE
  8
LC-006-012-----0
 62
     2
  6
DASHED
 10
316.485901
 20
195.322891
 11
316.485901
 21
214.072891
  0
LINE
  8
LC-006-012-----0
 62
     2
  6
DASHED
 10
325.485901
 20
195.322891
 11
325.485901
 21
214.072891
  0
LINE
  8
LC-006-012-----0
 62
     2
  6
DASHED
 10
313.485901
 20
222.322891
 11
313.485901
 21
231.322891
  0
LINE
  8
LC-006-012-----0
 62
     2
  6
DASHED
 10
328.485901
 20
222.322891
 11
328.485901
 21
231.322891
  0
LINE
  8
LC-006-012-----0
 62
     2
  6
DASHED
 10
328.485901
 20
222.322891
 11
313.485901
 21
222.322891
  0
LINE
  8
LC-003-002-----0
 62
     1
  6
CONTINUOUS
 10
327.084167
 20
216.572891
 11
311.985901
 21
216.572891
  0
LINE
  8
LC-003-002-----0
 62
     1
  6
CONTINUOUS
 10
327.084167
 20
214.072891
 11
311.985901
 21
214.072891
  0
LINE
  8
LC-006-012-----0
 62
     2
  6
DASHED
 10
325.485901
 20
216.572891
 11
325.485901
 21
222.322891
  0
LINE
  8
LC-006-012-----0
 62
     2
  6
DASHED
 10
316.485901
 20
216.572891
 11
316.485901
 21
222.322891
  0
LINE
  8
LC-003-002-----0
 62
     1
  6
CONTINUOUS
 10
411.985901
 20
231.322891
 11
411.985901
 21
216.572891
  0
LINE
  8
LC-003-002-----0
 62
     1
  6
CONTINUOUS
 10
411.985901
 20
214.072891
 11
411.985901
 21
195.322891
  0
LINE
  8
LC-004-006-----0
 62
     2
  6
DASHDOT
 10
400.023865
 20
215.322891
 11
377.610748
 21
215.322891
  0
LINE
  8
LC-004-006-----0
 62
     2
  6
DASHDOT
 10
388.985901
 20
226.482620
 11
388.985901
 21
204.112564
  0
LINE
  8
LC-003-002-----0
 62
     1
  6
CONTINUOUS
 10
393.985901
 20
195.322891
 11
411.985901
 21
195.322891
  0
LINE
  8
LC-003-002-----0
 62
     1
  6
CONTINUOUS
 10
393.985901
 20
231.322891
 11
411.985901
 21
231.322891
  0
CIRCLE
  8
LC-003-002-----0
 62
     1
  6
CONTINUOUS
 10
388.985901
 20
215.322891
 40
8.000000
  0
LINE
  8
LC-004-006-----0
 62
     2
  6
DASHDOT
 10
402.985901
 20
191.690842
 11
402.985901
 21
235.022003
  0
LINE
  8
LC-006-012-----0
 62
     2
  6
DASHED
 10
407.485901
 20
195.322891
 11
407.485901
 21
214.072891
  0
LINE
  8
LC-006-012-----0
 62
     2
  6
DASHED
 10
398.485901
 20
195.322891
 11
398.485901
 21
214.072891
  0
LINE
  8
LC-006-012-----0
 62
     2
  6
DASHED
 10
410.485901
 20
222.322891
 11
410.485901
 21
231.322891
  0
LINE
  8
LC-006-012-----0
 62
     2
  6
DASHED
 10
395.485901
 20
222.322891
 11
395.485901
 21
231.322891
  0
LINE
  8
LC-006-012-----0
 62
     2
  6
DASHED
 10
395.485901
 20
222.322891
 11
410.485901
 21
222.322891
  0
LINE
  8
LC-003-002-----0
 62
     1
  6
CONTINUOUS
 10
396.887634
 20
216.572891
 11
411.985901
 21
216.572891
  0
LINE
  8
LC-003-002-----0
 62
     1
  6
CONTINUOUS
 10
396.887634
 20
214.072891
 11
411.985901
 21
214.072891
  0
LINE
  8
LC-006-012-----0
 62
     2
  6
DASHED
 10
398.485901
 20
216.572891
 11
398.485901
 21
222.322891
  0
LINE
  8
LC-006-012-----0
 62
     2
  6
DASHED
 10
407.485901
 20
216.572891
 11
407.485901
 21
222.322891
  0
CIRCLE
  8
LC-003-002-----0
 62
     1
  6
CONTINUOUS
 10
334.985901
 20
148.255768
 40
8.000000
  0
LINE
  8
LC-003-002-----0
 62
     1
  6
CONTINUOUS
 10
311.985901
 20
231.322891
 11
311.985901
 21
233.322891
  0
LINE
  8
LC-003-002-----0
 62
     1
  6
CONTINUOUS
 10
411.985901
 20
231.322891
 11
411.985901
 21
233.322891
  0
LINE
  8
LC-003-002-----0
 62
     1
  6
CONTINUOUS
 10
311.985901
 20
128.255768
 11
411.985901
 21
128.255768
  0
LINE
  8
LC-003-002-----0
 62
     1
  6
CONTINUOUS
 10
311.985901
 20
126.255775
 11
411.985901
 21
126.255775
  0
LINE
  8
LC-003-002-----0
 62
     1
  6
CONTINUOUS
 10
311.985901
 20
164.255768
 11
411.985901
 21
164.255768
  0
LINE
  8
LC-003-002-----0
 62
     1
  6
CONTINUOUS
 10
411.985901
 20
164.255768
 11
411.985901
 21
128.255768
  0
LINE
  8
LC-003-002-----0
 62
     1
  6
CONTINUOUS
 10
311.985901
 20
164.255768
 11
311.985901
 21
128.255768
  0
LINE
  8
LC-004-006-----0
 62
     2
  6
DASHDOT
 10
319.607361
 20
148.255768
 11
350.120483
 21
148.255768
  0
LINE
  8
LC-004-006-----0
 62
     2
  6
DASHDOT
 10
334.985901
 20
162.817078
 11
334.985901
 21
132.360428
  0
CIRCLE
  8
LC-003-002-----0
 62
     1
  6
CONTINUOUS
 10
334.985901
 20
148.255768
 40
8.000000
  0
LINE
  8
LC-003-002-----0
 62
     1
  6
CONTINUOUS
 10
329.985901
 20
164.255768
 11
311.985901
 21
164.255768
  0
CIRCLE
  8
LC-003-002-----0
 62
     1
  6
CONTINUOUS
 10
334.985901
 20
148.255768
 40
8.000000
  0
LINE
  8
LC-004-006-----0
 62
     2
  6
DASHDOT
 10
405.985901
 20
167.532990
 11
405.985901
 21
125.599800
  0
LINE
  8
LC-006-012-----0
 62
     2
  6
DASHED
 10
408.985901
 20
164.255768
 11
408.985901
 21
151.255768
  0
LINE
  8
LC-006-012-----0
 62
     2
  6
DASHED
 10
402.985901
 20
164.255768
 11
402.985901
 21
151.255768
  0
LINE
  8
LC-006-012-----0
 62
     2
  6
DASHED
 10
408.635895
 20
164.255768
 11
408.635895
 21
133.955780
  0
LINE
  8
LC-006-012-----0
 62
     2
  6
DASHED
 10
403.335907
 20
164.255768
 11
403.335907
 21
133.955780
  0
LINE
  8
LC-006-012-----0
 62
     2
  6
DASHED
 10
402.985901
 20
151.255768
 11
408.985901
 21
151.255768
  0
LINE
  8
LC-006-012-----0
 62
     2
  6
DASHED
 10
400.985901
 20
133.955780
 11
410.985901
 21
133.955780
  0
LINE
  8
LC-006-012-----0
 62
     2
  6
DASHED
 10
410.985901
 20
133.955780
 11
410.985901
 21
128.255768
  0
LINE
  8
LC-006-012-----0
 62
     2
  6
DASHED
 10
400.985901
 20
133.955780
 11
400.985901
 21
128.255768
  0
CIRCLE
  8
LC-003-002-----0
 62
     1
  6
CONTINUOUS
 10
334.985901
 20
148.255768
 40
8.000000
  0
LINE
  8
LC-004-006-----0
 62
     2
  6
DASHDOT
 10
317.985901
 20
167.532990
 11
317.985901
 21
125.599800
  0
LINE
  8
LC-006-012-----0
 62
     2
  6
DASHED
 10
314.985901
 20
164.255768
 11
314.985901
 21
151.255768
  0
CIRCLE
  8
LC-003-002-----0
 62
     1
  6
CONTINUOUS
 10
388.985901
 20
148.255768
 40
8.000000
  0
LINE
  8
LC-004-006-----0
 62
     2
  6
DASHDOT
 10
404.364441
 20
148.255768
 11
373.851318
 21
148.255768
  0
CIRCLE
  8
LC-003-002-----0
 62
     1
  6
CONTINUOUS
 10
334.985901
 20
148.255768
 40
13.000000
  0
LINE
  8
LC-003-002-----0
 62
     1
  6
CONTINUOUS
 10
393.985901
 20
164.255768
 11
411.985901
 21
164.255768
  0
LINE
  8
LC-004-006-----0
 62
     2
  6
DASHDOT
 10
388.985901
 20
162.817078
 11
388.985901
 21
132.360428
  0
LINE
  8
LC-006-012-----0
 62
     2
  6
DASHED
 10
320.985901
 20
164.255768
 11
320.985901
 21
151.255768
  0
LINE
  8
LC-006-012-----0
 62
     2
  6
DASHED
 10
315.335907
 20
164.255768
 11
315.335907
 21
133.955780
  0
LINE
  8
LC-006-012-----0
 62
     2
  6
DASHED
 10
320.635895
 20
164.255768
 11
320.635895
 21
133.955780
  0
LINE
  8
LC-006-012-----0
 62
     2
  6
DASHED
 10
320.985901
 20
151.255768
 11
314.985901
 21
151.255768
  0
LINE
  8
LC-006-012-----0
 62
     2
  6
DASHED
 10
322.985901
 20
133.955780
 11
312.985901
 21
133.955780
  0
LINE
  8
LC-006-012-----0
 62
     2
  6
DASHED
 10
312.985901
 20
133.955780
 11
312.985901
 21
128.255768
  0
LINE
  8
LC-006-012-----0
 62
     2
  6
DASHED
 10
322.985901
 20
133.955780
 11
322.985901
 21
128.255768
  0
LINE
  8
LC-003-002-----0
 62
     1
  6
CONTINUOUS
 10
311.985901
 20
128.255768
 11
311.985901
 21
126.255783
  0
CIRCLE
  8
LC-003-002-----0
 62
     1
  6
CONTINUOUS
 10
334.985901
 20
148.255768
 40
11.000000
  0
LINE
  8
LC-003-002-----0
 62
     1
  6
CONTINUOUS
 10
411.985901
 20
128.255768
 11
411.985901
 21
126.255783
  0
CIRCLE
  8
LC-003-002-----0
 62
     1
  6
CONTINUOUS
 10
388.985901
 20
148.255768
 40
8.000000
  0
CIRCLE
  8
LC-003-002-----0
 62
     1
  6
CONTINUOUS
 10
388.985901
 20
148.255768
 40
8.000000
  0
CIRCLE
  8
LC-003-002-----0
 62
     1
  6
CONTINUOUS
 10
388.985901
 20
148.255768
 40
8.000000
  0
CIRCLE
  8
LC-003-002-----0
 62
     1
  6
CONTINUOUS
 10
388.985901
 20
148.255768
 40
13.000000
  0
CIRCLE
  8
LC-003-002-----0
 62
     1
  6
CONTINUOUS
 10
388.985901
 20
148.255768
 40
11.000000
  0
ENDSEC
  0
EOF
