  0
SECTION
  2
HEADER
  9
$LIMMIN
 10
541.177673
 20
537.423645
  9
$LIMMAX
 10
948.926086
 20
759.295166
  9
$EXTMIN
 10
541.177673
 20
537.423645
  9
$EXTMAX
 10
948.926086
 20
759.295166
  0
ENDSEC
  0
SECTION
  2
TABLES
  0
TABLE
  2
LTYPE
 70
     3
  0
LTYPE
  2
CONTINUOUS
 70
    64
  3
Ausgezogene Linie
 72
    65
 73
     0
 40
0.0
  0
LTYPE
  2
DASHED
 70
    64
  3
__ __ __ __ __ __ __ __ __ __ __ __ __ __ __
 72
    65
 73
     2
 40
0.75
 49
0.5
 49
-0.25
  0
LTYPE
  2
DASHDOT
 70
    64
  3
__ . __ . __ . __ . __ . __ . __ . __ . __ . __
 72
    65
 73
     4
 40
1.0
 49
0.5
 49
-0.25
 49
0.0
 49
-0.25
  0
ENDTAB
  0
TABLE
  2
LAYER
 70
     5
  0
LAYER
  2
LC-INFO-1-1-MM-A0-0
 70
    64
 62
     7
  6
CONTINUOUS
  0
LAYER
  2
LC-003-002-----0
 70
    64
 62
     7
  6
CONTINUOUS
  0
LAYER
  2
LC-004-006-----0
 70
    64
 62
     7
  6
CONTINUOUS
  0
LAYER
  2
LC-006-012-----0
 70
    64
 62
     7
  6
CONTINUOUS
  0
LAYER
  2
LC-008-003-----0
 70
    64
 62
     7
  6
CONTINUOUS
  0
ENDTAB
  0
TABLE
  2
STYLE
 70
     1
  0
STYLE
  2
TXT8
 70
    64
 40
0.0
 41
1.0
 50
0.0
 71
     0
 42
3.500000
  3
TXT8
  4

  0
ENDTAB
  0
ENDSEC
  0
SECTION
  2
BLOCKS
  0
ENDSEC
  0
SECTION
  2
ENTITIES
  0
LINE
  8
LC-008-003-----0
 62
     2
  6
CONTINUOUS
 10
922.519043
 20
636.847900
 11
929.584045
 21
643.912964
  0
LINE
  8
LC-008-003-----0
 62
     2
  6
CONTINUOUS
 10
919.364380
 20
636.521667
 11
929.910278
 21
647.067566
  0
LINE
  8
LC-008-003-----0
 62
     2
  6
CONTINUOUS
 10
916.967773
 20
636.953491
 11
929.478516
 21
649.464172
  0
LINE
  8
LC-008-003-----0
 62
     2
  6
CONTINUOUS
 10
914.993103
 20
637.807251
 11
928.624695
 21
651.438843
  0
LINE
  8
LC-008-003-----0
 62
     2
  6
CONTINUOUS
 10
913.339172
 20
638.981750
 11
927.450195
 21
653.092773
  0
LINE
  8
LC-008-003-----0
 62
     2
  6
CONTINUOUS
 10
911.972900
 20
640.443909
 11
925.988037
 21
654.459045
  0
LINE
  8
LC-008-003-----0
 62
     2
  6
CONTINUOUS
 10
910.900574
 20
642.200012
 11
924.231934
 21
655.531372
  0
LINE
  8
LC-008-003-----0
 62
     2
  6
CONTINUOUS
 10
910.172363
 20
644.300232
 11
922.131714
 21
656.259583
  0
LINE
  8
LC-008-003-----0
 62
     2
  6
CONTINUOUS
 10
909.933472
 20
646.889709
 11
919.542236
 21
656.498474
  0
LINE
  8
LC-008-003-----0
 62
     2
  6
CONTINUOUS
 10
910.792297
 20
650.577026
 11
915.854919
 21
655.639648
  0
LINE
  8
LC-008-003-----0
 62
     2
  6
CONTINUOUS
 10
852.655273
 20
637.694824
 11
856.737183
 21
641.776672
  0
LINE
  8
LC-008-003-----0
 62
     2
  6
CONTINUOUS
 10
848.665283
 20
636.533203
 11
857.898743
 21
645.766724
  0
LINE
  8
LC-008-003-----0
 62
     2
  6
CONTINUOUS
 10
845.997253
 20
636.693665
 11
857.738281
 21
648.434692
  0
LINE
  8
LC-008-003-----0
 62
     2
  6
CONTINUOUS
 10
843.849670
 20
637.374451
 11
857.057495
 21
650.582336
  0
LINE
  8
LC-008-003-----0
 62
     2
  6
CONTINUOUS
 10
842.056458
 20
638.409729
 11
856.022217
 21
652.375488
  0
LINE
  8
LC-008-003-----0
 62
     2
  6
CONTINUOUS
 10
840.560486
 20
639.742188
 11
854.689819
 21
653.871460
  0
LINE
  8
LC-008-003-----0
 62
     2
  6
CONTINUOUS
 10
839.351013
 20
641.361145
 11
853.070801
 21
655.080933
  0
LINE
  8
LC-008-003-----0
 62
     2
  6
CONTINUOUS
 10
838.455811
 20
643.294373
 11
851.137634
 21
655.976135
  0
LINE
  8
LC-008-003-----0
 62
     2
  6
CONTINUOUS
 10
837.964417
 20
645.631348
 11
848.800598
 21
656.467590
  0
LINE
  8
LC-008-003-----0
 62
     2
  6
CONTINUOUS
 10
838.159790
 20
648.655151
 11
845.776794
 21
656.272156
  0
LINE
  8
LC-006-012-----0
 62
     2
  6
DASHED
 10
586.354248
 20
630.505859
 11
716.354248
 21
630.505859
  0
LINE
  8
LC-006-012-----0
 62
     2
  6
DASHED
 10
586.354248
 20
650.505859
 11
716.354248
 21
650.505859
  0
LINE
  8
LC-003-002-----0
 62
     1
  6
CONTINUOUS
 10
546.354248
 20
754.057495
 11
546.354248
 21
708.057495
  0
LINE
  8
LC-003-002-----0
 62
     1
  6
CONTINUOUS
 10
546.354248
 20
708.057495
 11
566.354248
 21
708.057495
  0
LINE
  8
LC-003-002-----0
 62
     1
  6
CONTINUOUS
 10
546.354248
 20
754.057495
 11
566.354248
 21
754.057495
  0
LINE
  8
LC-003-002-----0
 62
     1
  6
CONTINUOUS
 10
566.354248
 20
754.057495
 11
566.354248
 21
708.057495
  0
LINE
  8
LC-004-006-----0
 62
     2
  6
DASHDOT
 10
556.354248
 20
759.295166
 11
556.354248
 21
702.607605
  0
LINE
  8
LC-006-012-----0
 62
     2
  6
DASHED
 10
561.854248
 20
743.057495
 11
561.854248
 21
734.557495
  0
LINE
  8
LC-006-012-----0
 62
     2
  6
DASHED
 10
550.854248
 20
743.057495
 11
550.854248
 21
734.557495
  0
LINE
  8
LC-006-012-----0
 62
     2
  6
DASHED
 10
565.354248
 20
754.057495
 11
565.354248
 21
743.057495
  0
LINE
  8
LC-006-012-----0
 62
     2
  6
DASHED
 10
547.354248
 20
754.057495
 11
547.354248
 21
743.057495
  0
LINE
  8
LC-006-012-----0
 62
     2
  6
DASHED
 10
547.354248
 20
743.057495
 11
565.354248
 21
743.057495
  0
LINE
  8
LC-004-006-----0
 62
     2
  6
DASHDOT
 10
541.177673
 20
733.057495
 11
761.865540
 21
733.057495
  0
LINE
  8
LC-003-002-----0
 62
     1
  6
CONTINUOUS
 10
546.354248
 20
734.557495
 11
566.354248
 21
734.557495
  0
LINE
  8
LC-003-002-----0
 62
     1
  6
CONTINUOUS
 10
546.354248
 20
731.557495
 11
566.354248
 21
731.557495
  0
LINE
  8
LC-006-012-----0
 62
     2
  6
DASHED
 10
550.854248
 20
731.557495
 11
550.854248
 21
708.057495
  0
LINE
  8
LC-006-012-----0
 62
     2
  6
DASHED
 10
561.854248
 20
731.557495
 11
561.854248
 21
708.057495
  0
LINE
  8
LC-006-012-----0
 62
     2
  6
DASHED
 10
546.354248
 20
743.057495
 11
566.354248
 21
743.057495
  0
LINE
  8
LC-006-012-----0
 62
     2
  6
DASHED
 10
546.354248
 20
723.057495
 11
566.354248
 21
723.057495
  0
LINE
  8
LC-003-002-----0
 62
     1
  6
CONTINUOUS
 10
586.354248
 20
756.057495
 11
586.354248
 21
710.057495
  0
LINE
  8
LC-003-002-----0
 62
     1
  6
CONTINUOUS
 10
716.354248
 20
756.057495
 11
716.354248
 21
710.057495
  0
LINE
  8
LC-003-002-----0
 62
     1
  6
CONTINUOUS
 10
586.354248
 20
710.057495
 11
716.354248
 21
710.057495
  0
LINE
  8
LC-003-002-----0
 62
     1
  6
CONTINUOUS
 10
586.354248
 20
756.057495
 11
716.354248
 21
756.057495
  0
LINE
  8
LC-003-002-----0
 62
     1
  6
CONTINUOUS
 10
756.354248
 20
754.057495
 11
756.354248
 21
708.057495
  0
LINE
  8
LC-003-002-----0
 62
     1
  6
CONTINUOUS
 10
756.354248
 20
708.057495
 11
736.354248
 21
708.057495
  0
LINE
  8
LC-003-002-----0
 62
     1
  6
CONTINUOUS
 10
756.354248
 20
754.057495
 11
736.354248
 21
754.057495
  0
LINE
  8
LC-003-002-----0
 62
     1
  6
CONTINUOUS
 10
736.354248
 20
754.057495
 11
736.354248
 21
708.057495
  0
LINE
  8
LC-004-006-----0
 62
     2
  6
DASHDOT
 10
746.354248
 20
759.295166
 11
746.354248
 21
702.607605
  0
LINE
  8
LC-006-012-----0
 62
     2
  6
DASHED
 10
740.854248
 20
743.057495
 11
740.854248
 21
734.557495
  0
LINE
  8
LC-006-012-----0
 62
     2
  6
DASHED
 10
751.854248
 20
743.057495
 11
751.854248
 21
734.557495
  0
LINE
  8
LC-006-012-----0
 62
     2
  6
DASHED
 10
737.354248
 20
754.057495
 11
737.354248
 21
743.057495
  0
LINE
  8
LC-006-012-----0
 62
     2
  6
DASHED
 10
755.354248
 20
754.057495
 11
755.354248
 21
743.057495
  0
LINE
  8
LC-006-012-----0
 62
     2
  6
DASHED
 10
755.354248
 20
743.057495
 11
737.354248
 21
743.057495
  0
LINE
  8
LC-003-002-----0
 62
     1
  6
CONTINUOUS
 10
566.354248
 20
723.057495
 11
586.354248
 21
723.057495
  0
LINE
  8
LC-003-002-----0
 62
     1
  6
CONTINUOUS
 10
756.354248
 20
734.557495
 11
736.354248
 21
734.557495
  0
LINE
  8
LC-003-002-----0
 62
     1
  6
CONTINUOUS
 10
756.354248
 20
731.557495
 11
736.354248
 21
731.557495
  0
LINE
  8
LC-006-012-----0
 62
     2
  6
DASHED
 10
751.854248
 20
731.557495
 11
751.854248
 21
708.057495
  0
LINE
  8
LC-006-012-----0
 62
     2
  6
DASHED
 10
740.854248
 20
731.557495
 11
740.854248
 21
708.057495
  0
LINE
  8
LC-006-012-----0
 62
     2
  6
DASHED
 10
756.354248
 20
743.057495
 11
736.354248
 21
743.057495
  0
LINE
  8
LC-006-012-----0
 62
     2
  6
DASHED
 10
756.354248
 20
723.057495
 11
736.354248
 21
723.057495
  0
LINE
  8
LC-004-006-----0
 62
     2
  6
DASHDOT
 10
708.854248
 20
707.037170
 11
708.854248
 21
759.295166
  0
LINE
  8
LC-003-002-----0
 62
     1
  6
CONTINUOUS
 10
566.354248
 20
743.057495
 11
586.354248
 21
743.057495
  0
LINE
  8
LC-006-012-----0
 62
     2
  6
DASHED
 10
586.354248
 20
743.057495
 11
716.354248
 21
743.057495
  0
LINE
  8
LC-003-002-----0
 62
     1
  6
CONTINUOUS
 10
716.354248
 20
743.057495
 11
736.354248
 21
743.057495
  0
LINE
  8
LC-006-012-----0
 62
     2
  6
DASHED
 10
586.354248
 20
723.057495
 11
716.354248
 21
723.057495
  0
LINE
  8
LC-003-002-----0
 62
     1
  6
CONTINUOUS
 10
716.354248
 20
723.057495
 11
736.354248
 21
723.057495
  0
LINE
  8
LC-006-012-----0
 62
     2
  6
DASHED
 10
712.054199
 20
716.857483
 11
712.054199
 21
756.057495
  0
LINE
  8
LC-006-012-----0
 62
     2
  6
DASHED
 10
705.654236
 20
716.857483
 11
705.654236
 21
756.057495
  0
LINE
  8
LC-006-012-----0
 62
     2
  6
DASHED
 10
712.854248
 20
738.057495
 11
712.854248
 21
756.057495
  0
LINE
  8
LC-006-012-----0
 62
     2
  6
DASHED
 10
704.854248
 20
738.057495
 11
704.854248
 21
756.057495
  0
LINE
  8
LC-006-012-----0
 62
     2
  6
DASHED
 10
714.354248
 20
710.057495
 11
714.354248
 21
716.857483
  0
LINE
  8
LC-006-012-----0
 62
     2
  6
DASHED
 10
703.354248
 20
710.057495
 11
703.354248
 21
716.857483
  0
LINE
  8
LC-006-012-----0
 62
     2
  6
DASHED
 10
703.354248
 20
716.857483
 11
714.354248
 21
716.857483
  0
LINE
  8
LC-006-012-----0
 62
     2
  6
DASHED
 10
704.854248
 20
738.057495
 11
712.854248
 21
738.057495
  0
LINE
  8
LC-004-006-----0
 62
     2
  6
DASHDOT
 10
593.854248
 20
707.037170
 11
593.854248
 21
759.295166
  0
LINE
  8
LC-006-012-----0
 62
     2
  6
DASHED
 10
590.654236
 20
716.857483
 11
590.654236
 21
756.057495
  0
LINE
  8
LC-006-012-----0
 62
     2
  6
DASHED
 10
597.054199
 20
716.857483
 11
597.054199
 21
756.057495
  0
LINE
  8
LC-006-012-----0
 62
     2
  6
DASHED
 10
589.854248
 20
738.057495
 11
589.854248
 21
756.057495
  0
LINE
  8
LC-006-012-----0
 62
     2
  6
DASHED
 10
597.854248
 20
738.057495
 11
597.854248
 21
756.057495
  0
LINE
  8
LC-006-012-----0
 62
     2
  6
DASHED
 10
588.354248
 20
710.057495
 11
588.354248
 21
716.857483
  0
LINE
  8
LC-006-012-----0
 62
     2
  6
DASHED
 10
599.354248
 20
710.057495
 11
599.354248
 21
716.857483
  0
LINE
  8
LC-006-012-----0
 62
     2
  6
DASHED
 10
599.354248
 20
716.857483
 11
588.354248
 21
716.857483
  0
LINE
  8
LC-006-012-----0
 62
     2
  6
DASHED
 10
597.854248
 20
738.057495
 11
589.854248
 21
738.057495
  0
LINE
  8
LC-006-012-----0
 62
     2
  6
DASHED
 10
631.354248
 20
749.057495
 11
631.354248
 21
717.057495
  0
LINE
  8
LC-006-012-----0
 62
     2
  6
DASHED
 10
586.354248
 20
749.057495
 11
631.354248
 21
749.057495
  0
LINE
  8
LC-006-012-----0
 62
     2
  6
DASHED
 10
586.354248
 20
717.057495
 11
631.354248
 21
717.057495
  0
LINE
  8
LC-006-012-----0
 62
     2
  6
DASHED
 10
671.354248
 20
749.057495
 11
671.354248
 21
717.057495
  0
LINE
  8
LC-006-012-----0
 62
     2
  6
DASHED
 10
631.354248
 20
749.057495
 11
671.354248
 21
749.057495
  0
LINE
  8
LC-006-012-----0
 62
     2
  6
DASHED
 10
671.354248
 20
749.057495
 11
716.354248
 21
749.057495
  0
LINE
  8
LC-006-012-----0
 62
     2
  6
DASHED
 10
631.354248
 20
717.057495
 11
671.354248
 21
717.057495
  0
LINE
  8
LC-006-012-----0
 62
     2
  6
DASHED
 10
671.354248
 20
717.057495
 11
716.354248
 21
717.057495
  0
LINE
  8
LC-003-002-----0
 62
     1
  6
CONTINUOUS
 10
546.354248
 20
669.505859
 11
546.354248
 21
539.505859
  0
LINE
  8
LC-003-002-----0
 62
     1
  6
CONTINUOUS
 10
546.354248
 20
539.505859
 11
566.354248
 21
539.505859
  0
LINE
  8
LC-003-002-----0
 62
     1
  6
CONTINUOUS
 10
566.354248
 20
669.505859
 11
566.354248
 21
539.505859
  0
LINE
  8
LC-003-002-----0
 62
     1
  6
CONTINUOUS
 10
586.354248
 20
669.505859
 11
586.354248
 21
539.505859
  0
LINE
  8
LC-003-002-----0
 62
     1
  6
CONTINUOUS
 10
716.354248
 20
669.505859
 11
716.354248
 21
539.505859
  0
LINE
  8
LC-003-002-----0
 62
     1
  6
CONTINUOUS
 10
546.354248
 20
669.505859
 11
566.354248
 21
669.505859
  0
LINE
  8
LC-003-002-----0
 62
     1
  6
CONTINUOUS
 10
586.354248
 20
669.505859
 11
716.354248
 21
669.505859
  0
LINE
  8
LC-003-002-----0
 62
     1
  6
CONTINUOUS
 10
586.354248
 20
539.505859
 11
716.354248
 21
539.505859
  0
LINE
  8
LC-004-006-----0
 62
     2
  6
DASHDOT
 10
556.354248
 20
671.588074
 11
556.354248
 21
646.107605
  0
LINE
  8
LC-004-006-----0
 62
     2
  6
DASHDOT
 10
541.177673
 20
640.505859
 11
761.865540
 21
640.505859
  0
LINE
  8
LC-003-002-----0
 62
     1
  6
CONTINUOUS
 10
566.354248
 20
630.505859
 11
586.354248
 21
630.505859
  0
LINE
  8
LC-003-002-----0
 62
     1
  6
CONTINUOUS
 10
566.354248
 20
650.505859
 11
586.354248
 21
650.505859
  0
LINE
  8
LC-006-012-----0
 62
     2
  6
DASHED
 10
631.354248
 20
656.505859
 11
631.354248
 21
624.505859
  0
LINE
  8
LC-006-012-----0
 62
     2
  6
DASHED
 10
671.354248
 20
656.505859
 11
671.354248
 21
624.505859
  0
LINE
  8
LC-006-012-----0
 62
     2
  6
DASHED
 10
631.354248
 20
624.505859
 11
671.354248
 21
624.505859
  0
LINE
  8
LC-006-012-----0
 62
     2
  6
DASHED
 10
631.354248
 20
656.505859
 11
671.354248
 21
656.505859
  0
LINE
  8
LC-006-012-----0
 62
     2
  6
DASHED
 10
586.354248
 20
656.505859
 11
631.354248
 21
656.505859
  0
LINE
  8
LC-006-012-----0
 62
     2
  6
DASHED
 10
586.354248
 20
624.505859
 11
631.354248
 21
624.505859
  0
LINE
  8
LC-006-012-----0
 62
     2
  6
DASHED
 10
671.354248
 20
624.505859
 11
716.354248
 21
624.505859
  0
LINE
  8
LC-006-012-----0
 62
     2
  6
DASHED
 10
671.354248
 20
656.505859
 11
716.354248
 21
656.505859
  0
LINE
  8
LC-003-002-----0
 62
     1
  6
CONTINUOUS
 10
716.354248
 20
650.505859
 11
736.354248
 21
650.505859
  0
LINE
  8
LC-003-002-----0
 62
     1
  6
CONTINUOUS
 10
716.354248
 20
630.505859
 11
736.354248
 21
630.505859
  0
LINE
  8
LC-006-012-----0
 62
     2
  6
DASHED
 10
546.354248
 20
630.505859
 11
566.354248
 21
630.505859
  0
LINE
  8
LC-006-012-----0
 62
     2
  6
DASHED
 10
546.354248
 20
650.505859
 11
566.354248
 21
650.505859
  0
LINE
  8
LC-004-006-----0
 62
     2
  6
DASHDOT
 10
568.852722
 20
658.505859
 11
544.709717
 21
658.505859
  0
CIRCLE
  8
LC-003-002-----0
 62
     1
  6
CONTINUOUS
 10
556.354248
 20
658.505859
 40
5.500000
  0
CIRCLE
  8
LC-003-002-----0
 62
     1
  6
CONTINUOUS
 10
556.354248
 20
658.505859
 40
9.000000
  0
LINE
  8
LC-004-006-----0
 62
     2
  6
DASHDOT
 10
556.354248
 20
537.423645
 11
556.354248
 21
562.904114
  0
LINE
  8
LC-004-006-----0
 62
     2
  6
DASHDOT
 10
568.852722
 20
550.505859
 11
544.709717
 21
550.505859
  0
CIRCLE
  8
LC-003-002-----0
 62
     1
  6
CONTINUOUS
 10
556.354248
 20
550.505859
 40
5.500000
  0
CIRCLE
  8
LC-003-002-----0
 62
     1
  6
CONTINUOUS
 10
556.354248
 20
550.505859
 40
9.000000
  0
LINE
  8
LC-006-012-----0
 62
     2
  6
DASHED
 10
631.354248
 20
552.505859
 11
631.354248
 21
584.505859
  0
LINE
  8
LC-006-012-----0
 62
     2
  6
DASHED
 10
671.354248
 20
552.505859
 11
671.354248
 21
584.505859
  0
LINE
  8
LC-006-012-----0
 62
     2
  6
DASHED
 10
631.354248
 20
584.505859
 11
671.354248
 21
584.505859
  0
LINE
  8
LC-006-012-----0
 62
     2
  6
DASHED
 10
631.354248
 20
552.505859
 11
671.354248
 21
552.505859
  0
LINE
  8
LC-006-012-----0
 62
     2
  6
DASHED
 10
586.354248
 20
552.505859
 11
631.354248
 21
552.505859
  0
LINE
  8
LC-006-012-----0
 62
     2
  6
DASHED
 10
586.354248
 20
584.505859
 11
631.354248
 21
584.505859
  0
LINE
  8
LC-006-012-----0
 62
     2
  6
DASHED
 10
671.354248
 20
584.505859
 11
716.354248
 21
584.505859
  0
LINE
  8
LC-006-012-----0
 62
     2
  6
DASHED
 10
671.354248
 20
552.505859
 11
716.354248
 21
552.505859
  0
LINE
  8
LC-003-002-----0
 62
     1
  6
CONTINUOUS
 10
716.354248
 20
558.505859
 11
736.354248
 21
558.505859
  0
LINE
  8
LC-003-002-----0
 62
     1
  6
CONTINUOUS
 10
716.354248
 20
578.505859
 11
736.354248
 21
578.505859
  0
LINE
  8
LC-004-006-----0
 62
     2
  6
DASHDOT
 10
541.177673
 20
568.505859
 11
761.865540
 21
568.505859
  0
LINE
  8
LC-003-002-----0
 62
     1
  6
CONTINUOUS
 10
566.354248
 20
578.505859
 11
586.354248
 21
578.505859
  0
LINE
  8
LC-003-002-----0
 62
     1
  6
CONTINUOUS
 10
566.354248
 20
558.505859
 11
586.354248
 21
558.505859
  0
LINE
  8
LC-006-012-----0
 62
     2
  6
DASHED
 10
546.354248
 20
578.505859
 11
566.354248
 21
578.505859
  0
LINE
  8
LC-006-012-----0
 62
     2
  6
DASHED
 10
546.354248
 20
558.505859
 11
566.354248
 21
558.505859
  0
LINE
  8
LC-003-002-----0
 62
     1
  6
CONTINUOUS
 10
756.354248
 20
669.505859
 11
756.354248
 21
539.505859
  0
LINE
  8
LC-003-002-----0
 62
     1
  6
CONTINUOUS
 10
756.354248
 20
539.505859
 11
736.354248
 21
539.505859
  0
LINE
  8
LC-003-002-----0
 62
     1
  6
CONTINUOUS
 10
736.354248
 20
669.505859
 11
736.354248
 21
539.505859
  0
LINE
  8
LC-003-002-----0
 62
     1
  6
CONTINUOUS
 10
756.354248
 20
669.505859
 11
736.354248
 21
669.505859
  0
LINE
  8
LC-004-006-----0
 62
     2
  6
DASHDOT
 10
746.354248
 20
671.588074
 11
746.354248
 21
646.107605
  0
LINE
  8
LC-006-012-----0
 62
     2
  6
DASHED
 10
756.354248
 20
630.505859
 11
736.354248
 21
630.505859
  0
LINE
  8
LC-006-012-----0
 62
     2
  6
DASHED
 10
756.354248
 20
650.505859
 11
736.354248
 21
650.505859
  0
LINE
  8
LC-004-006-----0
 62
     2
  6
DASHDOT
 10
733.855774
 20
658.505859
 11
757.998718
 21
658.505859
  0
CIRCLE
  8
LC-003-002-----0
 62
     1
  6
CONTINUOUS
 10
746.354248
 20
658.505859
 40
5.500000
  0
CIRCLE
  8
LC-003-002-----0
 62
     1
  6
CONTINUOUS
 10
746.354248
 20
658.505859
 40
9.000000
  0
LINE
  8
LC-004-006-----0
 62
     2
  6
DASHDOT
 10
746.354248
 20
537.423645
 11
746.354248
 21
562.904114
  0
LINE
  8
LC-004-006-----0
 62
     2
  6
DASHDOT
 10
733.855774
 20
550.505859
 11
757.998718
 21
550.505859
  0
CIRCLE
  8
LC-003-002-----0
 62
     1
  6
CONTINUOUS
 10
746.354248
 20
550.505859
 40
5.500000
  0
CIRCLE
  8
LC-003-002-----0
 62
     1
  6
CONTINUOUS
 10
746.354248
 20
550.505859
 40
9.000000
  0
LINE
  8
LC-006-012-----0
 62
     2
  6
DASHED
 10
756.354248
 20
578.505859
 11
736.354248
 21
578.505859
  0
LINE
  8
LC-006-012-----0
 62
     2
  6
DASHED
 10
756.354248
 20
558.505859
 11
736.354248
 21
558.505859
  0
LINE
  8
LC-004-006-----0
 62
     2
  6
DASHDOT
 10
593.854248
 20
671.064880
 11
593.854248
 21
653.947876
  0
LINE
  8
LC-004-006-----0
 62
     2
  6
DASHDOT
 10
585.469971
 20
662.005859
 11
601.703857
 21
662.005859
  0
CIRCLE
  8
LC-003-002-----0
 62
     1
  6
CONTINUOUS
 10
593.854248
 20
662.005859
 40
3.200000
  0
ARC
  8
LC-008-003-----0
 62
     2
  6
CONTINUOUS
 10
593.854248
 20
662.005859
 40
4.000000
 50
79.245248
 51
11.368597
  0
CIRCLE
  8
LC-006-012-----0
 62
     2
  6
DASHED
 10
593.854248
 20
662.005859
 40
5.500000
  0
LINE
  8
LC-004-006-----0
 62
     2
  6
DASHDOT
 10
708.854248
 20
671.064880
 11
708.854248
 21
653.947876
  0
LINE
  8
LC-004-006-----0
 62
     2
  6
DASHDOT
 10
717.238464
 20
662.005859
 11
701.004578
 21
662.005859
  0
CIRCLE
  8
LC-003-002-----0
 62
     1
  6
CONTINUOUS
 10
708.854248
 20
662.005859
 40
3.200000
  0
ARC
  8
LC-008-003-----0
 62
     2
  6
CONTINUOUS
 10
708.854248
 20
662.005859
 40
4.000000
 50
168.631401
 51
100.754750
  0
CIRCLE
  8
LC-006-012-----0
 62
     2
  6
DASHED
 10
708.854248
 20
662.005859
 40
5.500000
  0
LINE
  8
LC-004-006-----0
 62
     2
  6
DASHDOT
 10
593.854248
 20
537.946838
 11
593.854248
 21
555.063904
  0
LINE
  8
LC-004-006-----0
 62
     2
  6
DASHDOT
 10
585.469971
 20
547.005859
 11
601.703857
 21
547.005859
  0
CIRCLE
  8
LC-003-002-----0
 62
     1
  6
CONTINUOUS
 10
593.854248
 20
547.005859
 40
3.200000
  0
ARC
  8
LC-008-003-----0
 62
     2
  6
CONTINUOUS
 10
593.854248
 20
547.005859
 40
4.000000
 50
348.631403
 51
280.754752
  0
CIRCLE
  8
LC-006-012-----0
 62
     2
  6
DASHED
 10
593.854248
 20
547.005859
 40
5.500000
  0
LINE
  8
LC-004-006-----0
 62
     2
  6
DASHDOT
 10
708.854248
 20
537.946838
 11
708.854248
 21
555.063904
  0
LINE
  8
LC-004-006-----0
 62
     2
  6
DASHDOT
 10
717.238464
 20
547.005859
 11
701.004578
 21
547.005859
  0
CIRCLE
  8
LC-003-002-----0
 62
     1
  6
CONTINUOUS
 10
708.854248
 20
547.005859
 40
3.200000
  0
ARC
  8
LC-008-003-----0
 62
     2
  6
CONTINUOUS
 10
708.854248
 20
547.005859
 40
4.000000
 50
259.245250
 51
191.368599
  0
CIRCLE
  8
LC-006-012-----0
 62
     2
  6
DASHED
 10
708.854248
 20
547.005859
 40
5.500000
  0
LINE
  8
LC-003-002-----0
 62
     1
  6
CONTINUOUS
 10
818.926086
 20
708.057495
 11
948.926086
 21
708.057495
  0
LINE
  8
LC-003-002-----0
 62
     1
  6
CONTINUOUS
 10
948.926086
 20
708.057495
 11
948.926086
 21
731.557495
  0
LINE
  8
LC-003-002-----0
 62
     1
  6
CONTINUOUS
 10
818.926086
 20
708.057495
 11
818.926086
 21
731.557495
  0
LINE
  8
LC-003-002-----0
 62
     1
  6
CONTINUOUS
 10
818.926086
 20
754.057495
 11
948.926086
 21
754.057495
  0
LINE
  8
LC-003-002-----0
 62
     1
  6
CONTINUOUS
 10
818.926086
 20
734.557495
 11
818.926086
 21
754.057495
  0
LINE
  8
LC-004-006-----0
 62
     2
  6
DASHDOT
 10
847.926086
 20
719.064270
 11
847.926086
 21
746.508240
  0
LINE
  8
LC-003-002-----0
 62
     1
  6
CONTINUOUS
 10
839.926086
 20
708.057495
 11
819.926086
 21
708.057495
  0
LINE
  8
LC-003-002-----0
 62
     1
  6
CONTINUOUS
 10
839.926086
 20
754.057495
 11
819.926086
 21
754.057495
  0
LINE
  8
LC-004-006-----0
 62
     2
  6
DASHDOT
 10
833.994690
 20
733.057495
 11
861.608826
 21
733.057495
  0
LINE
  8
LC-004-006-----0
 62
     2
  6
DASHDOT
 10
829.926086
 20
759.295166
 11
829.926086
 21
702.607605
  0
LINE
  8
LC-006-012-----0
 62
     2
  6
DASHED
 10
824.426086
 20
743.057495
 11
824.426086
 21
734.557495
  0
LINE
  8
LC-006-012-----0
 62
     2
  6
DASHED
 10
835.426086
 20
743.057495
 11
835.426086
 21
734.557495
  0
LINE
  8
LC-006-012-----0
 62
     2
  6
DASHED
 10
820.926086
 20
754.057495
 11
820.926086
 21
743.057495
  0
LINE
  8
LC-006-012-----0
 62
     2
  6
DASHED
 10
838.926086
 20
754.057495
 11
838.926086
 21
743.057495
  0
LINE
  8
LC-006-012-----0
 62
     2
  6
DASHED
 10
838.926086
 20
743.057495
 11
820.926086
 21
743.057495
  0
LINE
  8
LC-003-002-----0
 62
     1
  6
CONTINUOUS
 10
838.039246
 20
734.557495
 11
818.926086
 21
734.557495
  0
LINE
  8
LC-003-002-----0
 62
     1
  6
CONTINUOUS
 10
838.039246
 20
731.557495
 11
818.926086
 21
731.557495
  0
LINE
  8
LC-006-012-----0
 62
     2
  6
DASHED
 10
835.426086
 20
731.557495
 11
835.426086
 21
708.057495
  0
LINE
  8
LC-006-012-----0
 62
     2
  6
DASHED
 10
824.426086
 20
731.557495
 11
824.426086
 21
708.057495
  0
CIRCLE
  8
LC-003-002-----0
 62
     1
  6
CONTINUOUS
 10
847.926086
 20
733.057495
 40
10.000000
  0
CIRCLE
  8
LC-003-002-----0
 62
     1
  6
CONTINUOUS
 10
847.926086
 20
646.505859
 40
10.000000
  0
LINE
  8
LC-003-002-----0
 62
     1
  6
CONTINUOUS
 10
818.926086
 20
756.057495
 11
948.926086
 21
756.057495
  0
LINE
  8
LC-003-002-----0
 62
     1
  6
CONTINUOUS
 10
818.926086
 20
754.057495
 11
818.926086
 21
756.057495
  0
LINE
  8
LC-003-002-----0
 62
     1
  6
CONTINUOUS
 10
948.926086
 20
754.057495
 11
948.926086
 21
756.057495
  0
LINE
  8
LC-004-006-----0
 62
     2
  6
DASHDOT
 10
919.926086
 20
719.064270
 11
919.926086
 21
746.508240
  0
LINE
  8
LC-004-006-----0
 62
     2
  6
DASHDOT
 10
933.857483
 20
733.057495
 11
906.243347
 21
733.057495
  0
LINE
  8
LC-004-006-----0
 62
     2
  6
DASHDOT
 10
937.926086
 20
759.295166
 11
937.926086
 21
702.607605
  0
LINE
  8
LC-006-012-----0
 62
     2
  6
DASHED
 10
943.426086
 20
743.057495
 11
943.426086
 21
734.557495
  0
LINE
  8
LC-006-012-----0
 62
     2
  6
DASHED
 10
932.426086
 20
743.057495
 11
932.426086
 21
734.557495
  0
LINE
  8
LC-006-012-----0
 62
     2
  6
DASHED
 10
946.926086
 20
754.057495
 11
946.926086
 21
743.057495
  0
LINE
  8
LC-006-012-----0
 62
     2
  6
DASHED
 10
928.926086
 20
754.057495
 11
928.926086
 21
743.057495
  0
LINE
  8
LC-006-012-----0
 62
     2
  6
DASHED
 10
928.926086
 20
743.057495
 11
946.926086
 21
743.057495
  0
LINE
  8
LC-003-002-----0
 62
     1
  6
CONTINUOUS
 10
929.812927
 20
734.557495
 11
948.926086
 21
734.557495
  0
LINE
  8
LC-003-002-----0
 62
     1
  6
CONTINUOUS
 10
929.812927
 20
731.557495
 11
948.926086
 21
731.557495
  0
LINE
  8
LC-006-012-----0
 62
     2
  6
DASHED
 10
932.426086
 20
731.557495
 11
932.426086
 21
708.057495
  0
LINE
  8
LC-006-012-----0
 62
     2
  6
DASHED
 10
943.426086
 20
731.557495
 11
943.426086
 21
708.057495
  0
CIRCLE
  8
LC-003-002-----0
 62
     1
  6
CONTINUOUS
 10
919.926086
 20
733.057495
 40
10.000000
  0
CIRCLE
  8
LC-003-002-----0
 62
     1
  6
CONTINUOUS
 10
847.926086
 20
646.505859
 40
16.000000
  0
LINE
  8
LC-003-002-----0
 62
     1
  6
CONTINUOUS
 10
948.926086
 20
734.557495
 11
948.926086
 21
754.057495
  0
LINE
  8
LC-003-002-----0
 62
     1
  6
CONTINUOUS
 10
818.926086
 20
621.505859
 11
948.926086
 21
621.505859
  0
LINE
  8
LC-003-002-----0
 62
     1
  6
CONTINUOUS
 10
948.926086
 20
621.505859
 11
948.926086
 21
667.505859
  0
LINE
  8
LC-003-002-----0
 62
     1
  6
CONTINUOUS
 10
818.926086
 20
621.505859
 11
818.926086
 21
667.505859
  0
LINE
  8
LC-003-002-----0
 62
     1
  6
CONTINUOUS
 10
818.926086
 20
667.505859
 11
948.926086
 21
667.505859
  0
LINE
  8
LC-004-006-----0
 62
     2
  6
DASHDOT
 10
941.426086
 20
618.485535
 11
941.426086
 21
670.743591
  0
LINE
  8
LC-004-006-----0
 62
     2
  6
DASHDOT
 10
847.926086
 20
627.803772
 11
847.926086
 21
665.082336
  0
CIRCLE
  8
LC-003-002-----0
 62
     1
  6
CONTINUOUS
 10
847.926086
 20
646.505859
 40
14.000000
  0
LINE
  8
LC-003-002-----0
 62
     1
  6
CONTINUOUS
 10
839.926086
 20
667.505859
 11
819.926086
 21
667.505859
  0
LINE
  8
LC-004-006-----0
 62
     2
  6
DASHDOT
 10
829.515320
 20
646.505859
 11
867.191040
 21
646.505859
  0
LINE
  8
LC-006-012-----0
 62
     2
  6
DASHED
 10
944.626099
 20
628.305847
 11
944.626099
 21
667.505859
  0
LINE
  8
LC-006-012-----0
 62
     2
  6
DASHED
 10
938.226074
 20
628.305847
 11
938.226074
 21
667.505859
  0
LINE
  8
LC-006-012-----0
 62
     2
  6
DASHED
 10
945.426086
 20
649.505859
 11
945.426086
 21
667.505859
  0
LINE
  8
LC-006-012-----0
 62
     2
  6
DASHED
 10
937.426086
 20
649.505859
 11
937.426086
 21
667.505859
  0
LINE
  8
LC-006-012-----0
 62
     2
  6
DASHED
 10
946.926086
 20
621.505859
 11
946.926086
 21
628.305847
  0
LINE
  8
LC-006-012-----0
 62
     2
  6
DASHED
 10
935.926086
 20
621.505859
 11
935.926086
 21
628.305847
  0
LINE
  8
LC-006-012-----0
 62
     2
  6
DASHED
 10
935.926086
 20
628.305847
 11
946.926086
 21
628.305847
  0
LINE
  8
LC-006-012-----0
 62
     2
  6
DASHED
 10
937.426086
 20
649.505859
 11
945.426086
 21
649.505859
  0
LINE
  8
LC-004-006-----0
 62
     2
  6
DASHDOT
 10
826.426086
 20
618.485535
 11
826.426086
 21
670.743591
  0
CIRCLE
  8
LC-003-002-----0
 62
     1
  6
CONTINUOUS
 10
847.926086
 20
646.505859
 40
10.000000
  0
LINE
  8
LC-003-002-----0
 62
     1
  6
CONTINUOUS
 10
818.926086
 20
619.505859
 11
948.926086
 21
619.505859
  0
LINE
  8
LC-003-002-----0
 62
     1
  6
CONTINUOUS
 10
818.926086
 20
621.505859
 11
818.926086
 21
619.505859
  0
LINE
  8
LC-003-002-----0
 62
     1
  6
CONTINUOUS
 10
948.926086
 20
621.505859
 11
948.926086
 21
619.505859
  0
CIRCLE
  8
LC-003-002-----0
 62
     1
  6
CONTINUOUS
 10
919.926086
 20
646.505859
 40
10.000000
  0
LINE
  8
LC-006-012-----0
 62
     2
  6
DASHED
 10
823.226074
 20
628.305847
 11
823.226074
 21
667.505859
  0
LINE
  8
LC-006-012-----0
 62
     2
  6
DASHED
 10
829.626099
 20
628.305847
 11
829.626099
 21
667.505859
  0
LINE
  8
LC-006-012-----0
 62
     2
  6
DASHED
 10
822.426086
 20
649.505859
 11
822.426086
 21
667.505859
  0
LINE
  8
LC-006-012-----0
 62
     2
  6
DASHED
 10
830.426086
 20
649.505859
 11
830.426086
 21
667.505859
  0
LINE
  8
LC-006-012-----0
 62
     2
  6
DASHED
 10
820.926086
 20
621.505859
 11
820.926086
 21
628.305847
  0
LINE
  8
LC-006-012-----0
 62
     2
  6
DASHED
 10
831.926086
 20
621.505859
 11
831.926086
 21
628.305847
  0
LINE
  8
LC-006-012-----0
 62
     2
  6
DASHED
 10
831.926086
 20
628.305847
 11
820.926086
 21
628.305847
  0
LINE
  8
LC-006-012-----0
 62
     2
  6
DASHED
 10
830.426086
 20
649.505859
 11
822.426086
 21
649.505859
  0
CIRCLE
  8
LC-003-002-----0
 62
     1
  6
CONTINUOUS
 10
919.926086
 20
646.505859
 40
16.000000
  0
LINE
  8
LC-004-006-----0
 62
     2
  6
DASHDOT
 10
919.926086
 20
627.803772
 11
919.926086
 21
665.082336
  0
CIRCLE
  8
LC-003-002-----0
 62
     1
  6
CONTINUOUS
 10
919.926086
 20
646.505859
 40
14.000000
  0
LINE
  8
LC-004-006-----0
 62
     2
  6
DASHDOT
 10
938.336853
 20
646.505859
 11
900.661133
 21
646.505859
  0
CIRCLE
  8
LC-003-002-----0
 62
     1
  6
CONTINUOUS
 10
919.926086
 20
646.505859
 40
10.000000
  0
LINE
  8
LC-006-012-----0
 62
     2
  6
DASHED
 10
586.354248
 20
558.505859
 11
716.354248
 21
558.505859
  0
LINE
  8
LC-006-012-----0
 62
     2
  6
DASHED
 10
586.354248
 20
578.505859
 11
716.354248
 21
578.505859
  0
ENDSEC
  0
EOF
