  0
SECTION
  2
HEADER
  9
$LIMMIN
 10
539.638489
 20
113.400032
  9
$LIMMAX
 10
1050.757690
 20
393.380707
  9
$EXTMIN
 10
539.638489
 20
113.400032
  9
$EXTMAX
 10
1050.757690
 20
393.380707
  0
ENDSEC
  0
SECTION
  2
TABLES
  0
TABLE
  2
LTYPE
 70
     3
  0
LTYPE
  2
CONTINUOUS
 70
    64
  3
Ausgezogene Linie
 72
    65
 73
     0
 40
0.0
  0
LTYPE
  2
DASHED
 70
    64
  3
__ __ __ __ __ __ __ __ __ __ __ __ __ __ __
 72
    65
 73
     2
 40
0.75
 49
0.5
 49
-0.25
  0
LTYPE
  2
DASHDOT
 70
    64
  3
__ . __ . __ . __ . __ . __ . __ . __ . __ . __
 72
    65
 73
     4
 40
1.0
 49
0.5
 49
-0.25
 49
0.0
 49
-0.25
  0
ENDTAB
  0
TABLE
  2
LAYER
 70
     5
  0
LAYER
  2
LC-INFO-1-1-MM-A0-0
 70
    64
 62
     7
  6
CONTINUOUS
  0
LAYER
  2
LC-003-002-----0
 70
    64
 62
     7
  6
CONTINUOUS
  0
LAYER
  2
LC-004-006-----0
 70
    64
 62
     7
  6
CONTINUOUS
  0
LAYER
  2
LC-006-012-----0
 70
    64
 62
     7
  6
CONTINUOUS
  0
LAYER
  2
LC-008-003-----0
 70
    64
 62
     7
  6
CONTINUOUS
  0
ENDTAB
  0
TABLE
  2
STYLE
 70
     1
  0
STYLE
  2
TXT8
 70
    64
 40
0.0
 41
1.0
 50
0.0
 71
     0
 42
3.500000
  3
TXT8
  4

  0
ENDTAB
  0
ENDSEC
  0
SECTION
  2
BLOCKS
  0
ENDSEC
  0
SECTION
  2
ENTITIES
  0
LINE
  8
LC-008-003-----0
 62
     2
  6
CONTINUOUS
 10
1015.932617
 20
235.286728
 11
1027.202393
 21
246.556458
  0
LINE
  8
LC-008-003-----0
 62
     2
  6
CONTINUOUS
 10
1011.953247
 20
235.550034
 11
1026.939087
 21
250.535782
  0
LINE
  8
LC-008-003-----0
 62
     2
  6
CONTINUOUS
 10
1008.867004
 20
236.706406
 11
1025.782715
 21
253.622055
  0
LINE
  8
LC-008-003-----0
 62
     2
  6
CONTINUOUS
 10
1006.375916
 20
238.457962
 11
1024.031128
 21
256.113129
  0
LINE
  8
LC-008-003-----0
 62
     2
  6
CONTINUOUS
 10
1004.403625
 20
240.728287
 11
1021.760803
 21
258.085449
  0
LINE
  8
LC-008-003-----0
 62
     2
  6
CONTINUOUS
 10
1002.979065
 20
243.546387
 11
1018.942688
 21
259.510010
  0
LINE
  8
LC-008-003-----0
 62
     2
  6
CONTINUOUS
 10
1002.274414
 20
247.084396
 11
1015.404663
 21
260.214630
  0
LINE
  8
LC-008-003-----0
 62
     2
  6
CONTINUOUS
 10
1003.045044
 20
252.097656
 11
1010.391418
 21
259.444000
  0
LINE
  8
LC-008-003-----0
 62
     2
  6
CONTINUOUS
 10
932.340393
 20
236.547302
 11
937.941772
 21
242.148682
  0
LINE
  8
LC-008-003-----0
 62
     2
  6
CONTINUOUS
 10
926.781860
 20
235.231400
 11
939.257690
 21
247.707230
  0
LINE
  8
LC-008-003-----0
 62
     2
  6
CONTINUOUS
 10
923.089478
 20
235.781723
 11
938.707336
 21
251.399551
  0
LINE
  8
LC-008-003-----0
 62
     2
  6
CONTINUOUS
 10
920.172058
 20
237.106903
 11
937.382141
 21
254.317017
  0
LINE
  8
LC-008-003-----0
 62
     2
  6
CONTINUOUS
 10
917.817566
 20
238.995026
 11
935.494019
 21
256.671539
  0
LINE
  8
LC-008-003-----0
 62
     2
  6
CONTINUOUS
 10
915.979797
 20
241.399933
 11
933.089111
 21
258.509277
  0
LINE
  8
LC-008-003-----0
 62
     2
  6
CONTINUOUS
 10
914.715759
 20
244.378510
 11
930.110535
 21
259.773315
  0
LINE
  8
LC-008-003-----0
 62
     2
  6
CONTINUOUS
 10
914.265381
 20
248.170822
 11
926.318237
 21
260.223663
  0
LINE
  8
LC-008-003-----0
 62
     2
  6
CONTINUOUS
 10
916.076355
 20
254.224426
 11
920.264648
 21
258.412689
  0
LINE
  8
LC-003-002-----0
 62
     1
  6
CONTINUOUS
 10
546.354248
 20
385.894531
 11
546.354248
 21
329.894531
  0
LINE
  8
LC-003-002-----0
 62
     1
  6
CONTINUOUS
 10
546.354248
 20
329.894531
 11
571.354248
 21
329.894531
  0
LINE
  8
LC-003-002-----0
 62
     1
  6
CONTINUOUS
 10
571.354248
 20
385.894531
 11
571.354248
 21
329.894531
  0
LINE
  8
LC-003-002-----0
 62
     1
  6
CONTINUOUS
 10
591.354248
 20
387.894531
 11
591.354248
 21
331.894531
  0
LINE
  8
LC-003-002-----0
 62
     1
  6
CONTINUOUS
 10
751.354248
 20
387.894531
 11
751.354248
 21
331.894531
  0
LINE
  8
LC-003-002-----0
 62
     1
  6
CONTINUOUS
 10
591.354248
 20
331.894531
 11
751.354248
 21
331.894531
  0
LINE
  8
LC-003-002-----0
 62
     1
  6
CONTINUOUS
 10
591.354248
 20
387.894531
 11
751.354248
 21
387.894531
  0
LINE
  8
LC-003-002-----0
 62
     1
  6
CONTINUOUS
 10
546.354248
 20
385.894531
 11
571.354248
 21
385.894531
  0
LINE
  8
LC-004-006-----0
 62
     2
  6
DASHDOT
 10
558.854248
 20
323.133545
 11
558.854248
 21
391.380707
  0
LINE
  8
LC-006-012-----0
 62
     2
  6
DASHED
 10
565.604248
 20
329.894531
 11
565.604248
 21
358.394531
  0
LINE
  8
LC-006-012-----0
 62
     2
  6
DASHED
 10
552.104248
 20
329.894531
 11
552.104248
 21
358.394531
  0
LINE
  8
LC-006-012-----0
 62
     2
  6
DASHED
 10
568.854248
 20
372.894531
 11
568.854248
 21
385.894531
  0
LINE
  8
LC-006-012-----0
 62
     2
  6
DASHED
 10
548.854248
 20
372.894531
 11
548.854248
 21
385.894531
  0
LINE
  8
LC-006-012-----0
 62
     2
  6
DASHED
 10
548.854248
 20
372.894531
 11
568.854248
 21
372.894531
  0
LINE
  8
LC-004-006-----0
 62
     2
  6
DASHDOT
 10
539.638489
 20
359.894531
 11
803.062500
 21
359.894531
  0
LINE
  8
LC-003-002-----0
 62
     1
  6
CONTINUOUS
 10
546.354248
 20
361.394531
 11
571.354248
 21
361.394531
  0
LINE
  8
LC-003-002-----0
 62
     1
  6
CONTINUOUS
 10
546.354248
 20
358.394531
 11
571.354248
 21
358.394531
  0
LINE
  8
LC-006-012-----0
 62
     2
  6
DASHED
 10
552.104248
 20
361.394531
 11
552.104248
 21
372.894531
  0
LINE
  8
LC-006-012-----0
 62
     2
  6
DASHED
 10
565.604248
 20
361.394531
 11
565.604248
 21
372.894531
  0
LINE
  8
LC-006-012-----0
 62
     2
  6
DASHED
 10
546.354248
 20
372.394531
 11
571.354248
 21
372.394531
  0
LINE
  8
LC-006-012-----0
 62
     2
  6
DASHED
 10
546.354248
 20
347.394531
 11
571.354248
 21
347.394531
  0
LINE
  8
LC-003-002-----0
 62
     1
  6
CONTINUOUS
 10
890.757690
 20
329.894531
 11
890.757690
 21
358.394531
  0
LINE
  8
LC-003-002-----0
 62
     1
  6
CONTINUOUS
 10
796.354248
 20
385.894531
 11
796.354248
 21
329.894531
  0
LINE
  8
LC-003-002-----0
 62
     1
  6
CONTINUOUS
 10
796.354248
 20
329.894531
 11
771.354248
 21
329.894531
  0
LINE
  8
LC-003-002-----0
 62
     1
  6
CONTINUOUS
 10
771.354248
 20
385.894531
 11
771.354248
 21
329.894531
  0
LINE
  8
LC-003-002-----0
 62
     1
  6
CONTINUOUS
 10
796.354248
 20
385.894531
 11
771.354248
 21
385.894531
  0
LINE
  8
LC-004-006-----0
 62
     2
  6
DASHDOT
 10
783.854248
 20
323.133545
 11
783.854248
 21
391.380707
  0
LINE
  8
LC-006-012-----0
 62
     2
  6
DASHED
 10
777.104248
 20
329.894531
 11
777.104248
 21
358.394531
  0
LINE
  8
LC-006-012-----0
 62
     2
  6
DASHED
 10
790.604248
 20
329.894531
 11
790.604248
 21
358.394531
  0
LINE
  8
LC-006-012-----0
 62
     2
  6
DASHED
 10
773.854248
 20
372.894531
 11
773.854248
 21
385.894531
  0
LINE
  8
LC-006-012-----0
 62
     2
  6
DASHED
 10
793.854248
 20
372.894531
 11
793.854248
 21
385.894531
  0
LINE
  8
LC-006-012-----0
 62
     2
  6
DASHED
 10
793.854248
 20
372.894531
 11
773.854248
 21
372.894531
  0
LINE
  8
LC-003-002-----0
 62
     1
  6
CONTINUOUS
 10
571.354248
 20
347.394531
 11
591.354248
 21
347.394531
  0
LINE
  8
LC-003-002-----0
 62
     1
  6
CONTINUOUS
 10
796.354248
 20
361.394531
 11
771.354248
 21
361.394531
  0
LINE
  8
LC-003-002-----0
 62
     1
  6
CONTINUOUS
 10
796.354248
 20
358.394531
 11
771.354248
 21
358.394531
  0
LINE
  8
LC-006-012-----0
 62
     2
  6
DASHED
 10
790.604248
 20
361.394531
 11
790.604248
 21
372.894531
  0
LINE
  8
LC-006-012-----0
 62
     2
  6
DASHED
 10
777.104248
 20
361.394531
 11
777.104248
 21
372.894531
  0
LINE
  8
LC-006-012-----0
 62
     2
  6
DASHED
 10
796.354248
 20
372.394531
 11
771.354248
 21
372.394531
  0
LINE
  8
LC-006-012-----0
 62
     2
  6
DASHED
 10
796.354248
 20
347.394531
 11
771.354248
 21
347.394531
  0
LINE
  8
LC-003-002-----0
 62
     1
  6
CONTINUOUS
 10
571.354248
 20
372.394531
 11
591.354248
 21
372.394531
  0
LINE
  8
LC-006-012-----0
 62
     2
  6
DASHED
 10
591.354248
 20
372.394531
 11
751.354248
 21
372.394531
  0
LINE
  8
LC-003-002-----0
 62
     1
  6
CONTINUOUS
 10
751.354248
 20
372.394531
 11
771.354248
 21
372.394531
  0
LINE
  8
LC-006-012-----0
 62
     2
  6
DASHED
 10
591.354248
 20
347.394531
 11
751.354248
 21
347.394531
  0
LINE
  8
LC-003-002-----0
 62
     1
  6
CONTINUOUS
 10
751.354248
 20
347.394531
 11
771.354248
 21
347.394531
  0
LINE
  8
LC-004-006-----0
 62
     2
  6
DASHDOT
 10
741.354248
 20
325.133545
 11
741.354248
 21
393.380707
  0
LINE
  8
LC-006-012-----0
 62
     2
  6
DASHED
 10
747.354248
 20
365.894531
 11
747.354248
 21
387.894531
  0
LINE
  8
LC-006-012-----0
 62
     2
  6
DASHED
 10
735.354248
 20
365.894531
 11
735.354248
 21
387.894531
  0
LINE
  8
LC-006-012-----0
 62
     2
  6
DASHED
 10
745.554199
 20
340.894531
 11
745.554199
 21
387.894531
  0
LINE
  8
LC-006-012-----0
 62
     2
  6
DASHED
 10
737.154236
 20
340.894531
 11
737.154236
 21
387.894531
  0
LINE
  8
LC-006-012-----0
 62
     2
  6
DASHED
 10
735.354248
 20
365.894531
 11
747.354248
 21
365.894531
  0
LINE
  8
LC-006-012-----0
 62
     2
  6
DASHED
 10
748.854248
 20
331.894531
 11
748.854248
 21
340.894531
  0
LINE
  8
LC-006-012-----0
 62
     2
  6
DASHED
 10
733.854248
 20
331.894531
 11
733.854248
 21
340.894531
  0
LINE
  8
LC-006-012-----0
 62
     2
  6
DASHED
 10
733.854248
 20
340.894531
 11
748.854248
 21
340.894531
  0
LINE
  8
LC-004-006-----0
 62
     2
  6
DASHDOT
 10
601.354248
 20
325.133545
 11
601.354248
 21
393.380707
  0
LINE
  8
LC-006-012-----0
 62
     2
  6
DASHED
 10
595.354248
 20
365.894531
 11
595.354248
 21
387.894531
  0
LINE
  8
LC-006-012-----0
 62
     2
  6
DASHED
 10
607.354248
 20
365.894531
 11
607.354248
 21
387.894531
  0
LINE
  8
LC-006-012-----0
 62
     2
  6
DASHED
 10
597.154236
 20
340.894531
 11
597.154236
 21
387.894531
  0
LINE
  8
LC-006-012-----0
 62
     2
  6
DASHED
 10
605.554199
 20
340.894531
 11
605.554199
 21
387.894531
  0
LINE
  8
LC-006-012-----0
 62
     2
  6
DASHED
 10
607.354248
 20
365.894531
 11
595.354248
 21
365.894531
  0
LINE
  8
LC-006-012-----0
 62
     2
  6
DASHED
 10
593.854248
 20
331.894531
 11
593.854248
 21
340.894531
  0
LINE
  8
LC-006-012-----0
 62
     2
  6
DASHED
 10
608.854248
 20
331.894531
 11
608.854248
 21
340.894531
  0
LINE
  8
LC-006-012-----0
 62
     2
  6
DASHED
 10
608.854248
 20
340.894531
 11
593.854248
 21
340.894531
  0
LINE
  8
LC-006-012-----0
 62
     2
  6
DASHED
 10
591.354248
 20
379.894531
 11
649.354248
 21
379.894531
  0
LINE
  8
LC-006-012-----0
 62
     2
  6
DASHED
 10
591.354248
 20
339.894531
 11
649.354248
 21
339.894531
  0
LINE
  8
LC-006-012-----0
 62
     2
  6
DASHED
 10
649.354248
 20
379.894531
 11
649.354248
 21
339.894531
  0
LINE
  8
LC-006-012-----0
 62
     2
  6
DASHED
 10
693.354248
 20
379.894531
 11
693.354248
 21
339.894531
  0
LINE
  8
LC-006-012-----0
 62
     2
  6
DASHED
 10
649.354248
 20
379.894531
 11
693.354248
 21
379.894531
  0
LINE
  8
LC-006-012-----0
 62
     2
  6
DASHED
 10
693.354248
 20
379.894531
 11
751.354248
 21
379.894531
  0
LINE
  8
LC-006-012-----0
 62
     2
  6
DASHED
 10
649.354248
 20
339.894531
 11
693.354248
 21
339.894531
  0
LINE
  8
LC-006-012-----0
 62
     2
  6
DASHED
 10
693.354248
 20
339.894531
 11
751.354248
 21
339.894531
  0
LINE
  8
LC-003-002-----0
 62
     1
  6
CONTINUOUS
 10
546.354248
 20
275.731384
 11
546.354248
 21
115.731384
  0
LINE
  8
LC-003-002-----0
 62
     1
  6
CONTINUOUS
 10
546.354248
 20
115.731384
 11
571.354248
 21
115.731384
  0
LINE
  8
LC-003-002-----0
 62
     1
  6
CONTINUOUS
 10
571.354248
 20
275.731384
 11
571.354248
 21
115.731384
  0
LINE
  8
LC-003-002-----0
 62
     1
  6
CONTINUOUS
 10
591.354248
 20
275.731384
 11
591.354248
 21
115.731384
  0
LINE
  8
LC-003-002-----0
 62
     1
  6
CONTINUOUS
 10
751.354248
 20
275.731384
 11
751.354248
 21
115.731384
  0
LINE
  8
LC-003-002-----0
 62
     1
  6
CONTINUOUS
 10
546.354248
 20
275.731384
 11
571.354248
 21
275.731384
  0
LINE
  8
LC-003-002-----0
 62
     1
  6
CONTINUOUS
 10
591.354248
 20
115.731384
 11
751.354248
 21
115.731384
  0
LINE
  8
LC-003-002-----0
 62
     1
  6
CONTINUOUS
 10
591.354248
 20
275.731384
 11
751.354248
 21
275.731384
  0
LINE
  8
LC-004-006-----0
 62
     2
  6
DASHDOT
 10
910.477661
 20
359.894531
 11
944.243042
 21
359.894531
  0
LINE
  8
LC-004-006-----0
 62
     2
  6
DASHDOT
 10
574.480225
 20
261.731384
 11
543.244263
 21
261.731384
  0
LINE
  8
LC-004-006-----0
 62
     2
  6
DASHDOT
 10
558.854248
 20
278.062744
 11
558.854248
 21
245.952194
  0
CIRCLE
  8
LC-003-002-----0
 62
     1
  6
CONTINUOUS
 10
558.854248
 20
261.731384
 40
6.750000
  0
CIRCLE
  8
LC-003-002-----0
 62
     1
  6
CONTINUOUS
 10
558.854248
 20
261.731384
 40
10.000000
  0
LINE
  8
LC-004-006-----0
 62
     2
  6
DASHDOT
 10
574.480225
 20
129.731384
 11
543.244263
 21
129.731384
  0
LINE
  8
LC-004-006-----0
 62
     2
  6
DASHDOT
 10
558.854248
 20
113.400032
 11
558.854248
 21
145.510544
  0
CIRCLE
  8
LC-003-002-----0
 62
     1
  6
CONTINUOUS
 10
558.854248
 20
129.731384
 40
6.750000
  0
CIRCLE
  8
LC-003-002-----0
 62
     1
  6
CONTINUOUS
 10
558.854248
 20
129.731384
 40
10.000000
  0
LINE
  8
LC-003-002-----0
 62
     1
  6
CONTINUOUS
 10
796.354248
 20
275.731384
 11
796.354248
 21
115.731384
  0
LINE
  8
LC-003-002-----0
 62
     1
  6
CONTINUOUS
 10
796.354248
 20
115.731384
 11
771.354248
 21
115.731384
  0
LINE
  8
LC-003-002-----0
 62
     1
  6
CONTINUOUS
 10
771.354248
 20
275.731384
 11
771.354248
 21
115.731384
  0
LINE
  8
LC-003-002-----0
 62
     1
  6
CONTINUOUS
 10
796.354248
 20
275.731384
 11
771.354248
 21
275.731384
  0
LINE
  8
LC-004-006-----0
 62
     2
  6
DASHDOT
 10
768.228210
 20
261.731384
 11
799.464172
 21
261.731384
  0
LINE
  8
LC-004-006-----0
 62
     2
  6
DASHDOT
 10
783.854248
 20
278.062744
 11
783.854248
 21
245.952194
  0
CIRCLE
  8
LC-003-002-----0
 62
     1
  6
CONTINUOUS
 10
783.854248
 20
261.731384
 40
6.750000
  0
CIRCLE
  8
LC-003-002-----0
 62
     1
  6
CONTINUOUS
 10
783.854248
 20
261.731384
 40
10.000000
  0
LINE
  8
LC-004-006-----0
 62
     2
  6
DASHDOT
 10
768.228210
 20
129.731384
 11
799.464172
 21
129.731384
  0
LINE
  8
LC-004-006-----0
 62
     2
  6
DASHDOT
 10
783.854248
 20
113.400032
 11
783.854248
 21
145.510544
  0
CIRCLE
  8
LC-003-002-----0
 62
     1
  6
CONTINUOUS
 10
783.854248
 20
129.731384
 40
6.750000
  0
CIRCLE
  8
LC-003-002-----0
 62
     1
  6
CONTINUOUS
 10
783.854248
 20
129.731384
 40
10.000000
  0
LINE
  8
LC-004-006-----0
 62
     2
  6
DASHDOT
 10
539.638489
 20
151.731384
 11
803.062500
 21
151.731384
  0
LINE
  8
LC-004-006-----0
 62
     2
  6
DASHDOT
 10
539.638489
 20
239.731384
 11
803.062500
 21
239.731384
  0
LINE
  8
LC-006-012-----0
 62
     2
  6
DASHED
 10
591.354248
 20
252.231384
 11
751.354248
 21
252.231384
  0
LINE
  8
LC-006-012-----0
 62
     2
  6
DASHED
 10
591.354248
 20
227.231384
 11
751.354248
 21
227.231384
  0
LINE
  8
LC-006-012-----0
 62
     2
  6
DASHED
 10
591.354248
 20
259.731384
 11
649.354248
 21
259.731384
  0
LINE
  8
LC-006-012-----0
 62
     2
  6
DASHED
 10
591.354248
 20
219.731384
 11
649.354248
 21
219.731384
  0
LINE
  8
LC-006-012-----0
 62
     2
  6
DASHED
 10
649.354248
 20
259.731384
 11
649.354248
 21
219.731384
  0
LINE
  8
LC-006-012-----0
 62
     2
  6
DASHED
 10
693.354248
 20
259.731384
 11
693.354248
 21
219.731384
  0
LINE
  8
LC-006-012-----0
 62
     2
  6
DASHED
 10
649.354248
 20
259.731384
 11
693.354248
 21
259.731384
  0
LINE
  8
LC-006-012-----0
 62
     2
  6
DASHED
 10
693.354248
 20
259.731384
 11
751.354248
 21
259.731384
  0
LINE
  8
LC-006-012-----0
 62
     2
  6
DASHED
 10
649.354248
 20
219.731384
 11
693.354248
 21
219.731384
  0
LINE
  8
LC-006-012-----0
 62
     2
  6
DASHED
 10
693.354248
 20
219.731384
 11
751.354248
 21
219.731384
  0
LINE
  8
LC-003-002-----0
 62
     1
  6
CONTINUOUS
 10
890.757690
 20
329.894531
 11
1050.757690
 21
329.894531
  0
LINE
  8
LC-003-002-----0
 62
     1
  6
CONTINUOUS
 10
571.354248
 20
252.231384
 11
591.354248
 21
252.231384
  0
LINE
  8
LC-003-002-----0
 62
     1
  6
CONTINUOUS
 10
571.354248
 20
227.231384
 11
591.354248
 21
227.231384
  0
LINE
  8
LC-003-002-----0
 62
     1
  6
CONTINUOUS
 10
751.354248
 20
227.231384
 11
771.354248
 21
227.231384
  0
LINE
  8
LC-003-002-----0
 62
     1
  6
CONTINUOUS
 10
751.354248
 20
252.231384
 11
771.354248
 21
252.231384
  0
LINE
  8
LC-006-012-----0
 62
     2
  6
DASHED
 10
796.354248
 20
227.231384
 11
771.354248
 21
227.231384
  0
LINE
  8
LC-006-012-----0
 62
     2
  6
DASHED
 10
796.354248
 20
252.231384
 11
771.354248
 21
252.231384
  0
LINE
  8
LC-006-012-----0
 62
     2
  6
DASHED
 10
546.354248
 20
252.231384
 11
571.354248
 21
252.231384
  0
LINE
  8
LC-006-012-----0
 62
     2
  6
DASHED
 10
546.354248
 20
227.231384
 11
571.354248
 21
227.231384
  0
LINE
  8
LC-006-012-----0
 62
     2
  6
DASHED
 10
591.354248
 20
139.231384
 11
751.354248
 21
139.231384
  0
LINE
  8
LC-006-012-----0
 62
     2
  6
DASHED
 10
591.354248
 20
164.231384
 11
751.354248
 21
164.231384
  0
LINE
  8
LC-006-012-----0
 62
     2
  6
DASHED
 10
591.354248
 20
131.731384
 11
649.354248
 21
131.731384
  0
LINE
  8
LC-006-012-----0
 62
     2
  6
DASHED
 10
591.354248
 20
171.731384
 11
649.354248
 21
171.731384
  0
LINE
  8
LC-006-012-----0
 62
     2
  6
DASHED
 10
649.354248
 20
131.731384
 11
649.354248
 21
171.731384
  0
LINE
  8
LC-006-012-----0
 62
     2
  6
DASHED
 10
693.354248
 20
131.731384
 11
693.354248
 21
171.731384
  0
LINE
  8
LC-006-012-----0
 62
     2
  6
DASHED
 10
649.354248
 20
131.731384
 11
693.354248
 21
131.731384
  0
LINE
  8
LC-006-012-----0
 62
     2
  6
DASHED
 10
693.354248
 20
131.731384
 11
751.354248
 21
131.731384
  0
LINE
  8
LC-006-012-----0
 62
     2
  6
DASHED
 10
649.354248
 20
171.731384
 11
693.354248
 21
171.731384
  0
LINE
  8
LC-006-012-----0
 62
     2
  6
DASHED
 10
693.354248
 20
171.731384
 11
751.354248
 21
171.731384
  0
LINE
  8
LC-003-002-----0
 62
     1
  6
CONTINUOUS
 10
1050.757690
 20
329.894531
 11
1050.757690
 21
358.394531
  0
LINE
  8
LC-003-002-----0
 62
     1
  6
CONTINUOUS
 10
571.354248
 20
164.231384
 11
591.354248
 21
164.231384
  0
LINE
  8
LC-006-012-----0
 62
     2
  6
DASHED
 10
546.354248
 20
164.231384
 11
571.354248
 21
164.231384
  0
LINE
  8
LC-003-002-----0
 62
     1
  6
CONTINUOUS
 10
571.354248
 20
139.231384
 11
591.354248
 21
139.231384
  0
LINE
  8
LC-006-012-----0
 62
     2
  6
DASHED
 10
546.354248
 20
139.231384
 11
571.354248
 21
139.231384
  0
LINE
  8
LC-003-002-----0
 62
     1
  6
CONTINUOUS
 10
751.354248
 20
139.231384
 11
771.354248
 21
139.231384
  0
LINE
  8
LC-003-002-----0
 62
     1
  6
CONTINUOUS
 10
751.354248
 20
164.231384
 11
771.354248
 21
164.231384
  0
LINE
  8
LC-006-012-----0
 62
     2
  6
DASHED
 10
796.354248
 20
164.231384
 11
771.354248
 21
164.231384
  0
LINE
  8
LC-006-012-----0
 62
     2
  6
DASHED
 10
796.354248
 20
139.231384
 11
771.354248
 21
139.231384
  0
LINE
  8
LC-004-006-----0
 62
     2
  6
DASHDOT
 10
601.354248
 20
277.553925
 11
601.354248
 21
254.065262
  0
LINE
  8
LC-004-006-----0
 62
     2
  6
DASHDOT
 10
612.314148
 20
265.731384
 11
589.543152
 21
265.731384
  0
CIRCLE
  8
LC-003-002-----0
 62
     1
  6
CONTINUOUS
 10
601.354248
 20
265.731384
 40
4.200000
  0
ARC
  8
LC-008-003-----0
 62
     2
  6
CONTINUOUS
 10
601.354248
 20
265.731384
 40
6.000000
 50
76.360490
 51
8.809051
  0
CIRCLE
  8
LC-006-012-----0
 62
     2
  6
DASHED
 10
601.354248
 20
265.731384
 40
7.500000
  0
LINE
  8
LC-004-006-----0
 62
     2
  6
DASHDOT
 10
741.354248
 20
277.553925
 11
741.354248
 21
254.065262
  0
LINE
  8
LC-004-006-----0
 62
     2
  6
DASHDOT
 10
730.394348
 20
265.731384
 11
753.165344
 21
265.731384
  0
CIRCLE
  8
LC-003-002-----0
 62
     1
  6
CONTINUOUS
 10
741.354248
 20
265.731384
 40
4.200000
  0
ARC
  8
LC-008-003-----0
 62
     2
  6
CONTINUOUS
 10
741.354248
 20
265.731384
 40
6.000000
 50
78.658945
 51
11.090417
  0
CIRCLE
  8
LC-006-012-----0
 62
     2
  6
DASHED
 10
741.354248
 20
265.731384
 40
7.500000
  0
LINE
  8
LC-004-006-----0
 62
     2
  6
DASHDOT
 10
601.354248
 20
113.908821
 11
601.354248
 21
137.397522
  0
LINE
  8
LC-004-006-----0
 62
     2
  6
DASHDOT
 10
612.314148
 20
125.731384
 11
589.543152
 21
125.731384
  0
CIRCLE
  8
LC-003-002-----0
 62
     1
  6
CONTINUOUS
 10
601.354248
 20
125.731384
 40
4.200000
  0
ARC
  8
LC-008-003-----0
 62
     2
  6
CONTINUOUS
 10
601.354248
 20
125.731384
 40
6.000000
 50
347.549005
 51
283.050631
  0
CIRCLE
  8
LC-006-012-----0
 62
     2
  6
DASHED
 10
601.354248
 20
125.731384
 40
7.500000
  0
LINE
  8
LC-004-006-----0
 62
     2
  6
DASHDOT
 10
741.354248
 20
113.908821
 11
741.354248
 21
137.397522
  0
LINE
  8
LC-004-006-----0
 62
     2
  6
DASHDOT
 10
730.394348
 20
125.731384
 11
753.165344
 21
125.731384
  0
CIRCLE
  8
LC-003-002-----0
 62
     1
  6
CONTINUOUS
 10
741.354248
 20
125.731384
 40
4.200000
  0
ARC
  8
LC-008-003-----0
 62
     2
  6
CONTINUOUS
 10
741.354248
 20
125.731384
 40
6.000000
 50
347.256919
 51
283.086203
  0
CIRCLE
  8
LC-006-012-----0
 62
     2
  6
DASHED
 10
741.354248
 20
125.731384
 40
7.500000
  0
LINE
  8
LC-003-002-----0
 62
     1
  6
CONTINUOUS
 10
890.757690
 20
385.894531
 11
1050.757690
 21
385.894531
  0
LINE
  8
LC-003-002-----0
 62
     1
  6
CONTINUOUS
 10
890.757690
 20
361.394531
 11
890.757690
 21
385.894531
  0
LINE
  8
LC-004-006-----0
 62
     2
  6
DASHDOT
 10
926.757690
 20
342.880920
 11
926.757690
 21
376.478668
  0
CIRCLE
  8
LC-003-002-----0
 62
     1
  6
CONTINUOUS
 10
926.757690
 20
359.894531
 40
12.500000
  0
LINE
  8
LC-003-002-----0
 62
     1
  6
CONTINUOUS
 10
890.757690
 20
387.894531
 11
1050.757690
 21
387.894531
  0
LINE
  8
LC-003-002-----0
 62
     1
  6
CONTINUOUS
 10
917.257690
 20
385.894531
 11
892.257690
 21
385.894531
  0
LINE
  8
LC-004-006-----0
 62
     2
  6
DASHDOT
 10
904.757690
 20
323.133545
 11
904.757690
 21
391.380707
  0
LINE
  8
LC-006-012-----0
 62
     2
  6
DASHED
 10
898.007690
 20
329.894531
 11
898.007690
 21
358.394531
  0
LINE
  8
LC-006-012-----0
 62
     2
  6
DASHED
 10
911.507690
 20
329.894531
 11
911.507690
 21
358.394531
  0
LINE
  8
LC-006-012-----0
 62
     2
  6
DASHED
 10
894.757690
 20
372.894531
 11
894.757690
 21
385.894531
  0
LINE
  8
LC-006-012-----0
 62
     2
  6
DASHED
 10
914.757690
 20
372.894531
 11
914.757690
 21
385.894531
  0
LINE
  8
LC-006-012-----0
 62
     2
  6
DASHED
 10
914.757690
 20
372.894531
 11
894.757690
 21
372.894531
  0
LINE
  8
LC-003-002-----0
 62
     1
  6
CONTINUOUS
 10
914.348022
 20
361.394531
 11
890.757690
 21
361.394531
  0
LINE
  8
LC-003-002-----0
 62
     1
  6
CONTINUOUS
 10
914.348022
 20
358.394531
 11
890.757690
 21
358.394531
  0
LINE
  8
LC-006-012-----0
 62
     2
  6
DASHED
 10
911.507690
 20
361.394531
 11
911.507690
 21
372.894531
  0
LINE
  8
LC-006-012-----0
 62
     2
  6
DASHED
 10
898.007690
 20
361.394531
 11
898.007690
 21
372.894531
  0
LINE
  8
LC-004-006-----0
 62
     2
  6
DASHDOT
 10
1031.037720
 20
359.894531
 11
997.272339
 21
359.894531
  0
LINE
  8
LC-003-002-----0
 62
     1
  6
CONTINUOUS
 10
1050.757690
 20
361.394531
 11
1050.757690
 21
385.894531
  0
LINE
  8
LC-003-002-----0
 62
     1
  6
CONTINUOUS
 10
890.757690
 20
217.731384
 11
890.757690
 21
273.731384
  0
LINE
  8
LC-004-006-----0
 62
     2
  6
DASHDOT
 10
1014.757690
 20
342.880920
 11
1014.757690
 21
376.478668
  0
CIRCLE
  8
LC-003-002-----0
 62
     1
  6
CONTINUOUS
 10
1014.757690
 20
359.894531
 40
12.500000
  0
LINE
  8
LC-003-002-----0
 62
     1
  6
CONTINUOUS
 10
890.757690
 20
385.894531
 11
890.757690
 21
387.894531
  0
LINE
  8
LC-003-002-----0
 62
     1
  6
CONTINUOUS
 10
1024.257690
 20
385.894531
 11
1049.257690
 21
385.894531
  0
LINE
  8
LC-004-006-----0
 62
     2
  6
DASHDOT
 10
1036.757690
 20
323.133545
 11
1036.757690
 21
391.380707
  0
LINE
  8
LC-006-012-----0
 62
     2
  6
DASHED
 10
1043.507690
 20
329.894531
 11
1043.507690
 21
358.394531
  0
LINE
  8
LC-006-012-----0
 62
     2
  6
DASHED
 10
1030.007690
 20
329.894531
 11
1030.007690
 21
358.394531
  0
LINE
  8
LC-006-012-----0
 62
     2
  6
DASHED
 10
1046.757690
 20
372.894531
 11
1046.757690
 21
385.894531
  0
LINE
  8
LC-006-012-----0
 62
     2
  6
DASHED
 10
1026.757690
 20
372.894531
 11
1026.757690
 21
385.894531
  0
LINE
  8
LC-006-012-----0
 62
     2
  6
DASHED
 10
1026.757690
 20
372.894531
 11
1046.757690
 21
372.894531
  0
LINE
  8
LC-003-002-----0
 62
     1
  6
CONTINUOUS
 10
1027.167358
 20
361.394531
 11
1050.757690
 21
361.394531
  0
LINE
  8
LC-003-002-----0
 62
     1
  6
CONTINUOUS
 10
1027.167358
 20
358.394531
 11
1050.757690
 21
358.394531
  0
LINE
  8
LC-006-012-----0
 62
     2
  6
DASHED
 10
1030.007690
 20
361.394531
 11
1030.007690
 21
372.894531
  0
LINE
  8
LC-006-012-----0
 62
     2
  6
DASHED
 10
1043.507690
 20
361.394531
 11
1043.507690
 21
372.894531
  0
LINE
  8
LC-004-006-----0
 62
     2
  6
DASHDOT
 10
903.299255
 20
247.731384
 11
952.538025
 21
247.731384
  0
LINE
  8
LC-003-002-----0
 62
     1
  6
CONTINUOUS
 10
1050.757690
 20
385.894531
 11
1050.757690
 21
387.894531
  0
LINE
  8
LC-003-002-----0
 62
     1
  6
CONTINUOUS
 10
890.757690
 20
217.731384
 11
1050.757690
 21
217.731384
  0
LINE
  8
LC-003-002-----0
 62
     1
  6
CONTINUOUS
 10
1050.757690
 20
217.731384
 11
1050.757690
 21
273.731384
  0
LINE
  8
LC-003-002-----0
 62
     1
  6
CONTINUOUS
 10
890.757690
 20
273.731384
 11
1050.757690
 21
273.731384
  0
LINE
  8
LC-004-006-----0
 62
     2
  6
DASHDOT
 10
1039.257690
 20
210.970383
 11
1039.257690
 21
279.217529
  0
LINE
  8
LC-004-006-----0
 62
     2
  6
DASHDOT
 10
926.757690
 20
223.209320
 11
926.757690
 21
270.413452
  0
CIRCLE
  8
LC-003-002-----0
 62
     1
  6
CONTINUOUS
 10
926.757690
 20
247.731384
 40
12.500000
  0
LINE
  8
LC-003-002-----0
 62
     1
  6
CONTINUOUS
 10
890.757690
 20
215.731384
 11
1050.757690
 21
215.731384
  0
LINE
  8
LC-003-002-----0
 62
     1
  6
CONTINUOUS
 10
917.257690
 20
273.731384
 11
892.257690
 21
273.731384
  0
LINE
  8
LC-006-012-----0
 62
     2
  6
DASHED
 10
1045.257690
 20
251.731384
 11
1045.257690
 21
273.731384
  0
LINE
  8
LC-006-012-----0
 62
     2
  6
DASHED
 10
1033.257690
 20
251.731384
 11
1033.257690
 21
273.731384
  0
LINE
  8
LC-006-012-----0
 62
     2
  6
DASHED
 10
1043.457642
 20
226.731384
 11
1043.457642
 21
273.731384
  0
LINE
  8
LC-006-012-----0
 62
     2
  6
DASHED
 10
1035.057739
 20
226.731384
 11
1035.057739
 21
273.731384
  0
LINE
  8
LC-006-012-----0
 62
     2
  6
DASHED
 10
1033.257690
 20
251.731384
 11
1045.257690
 21
251.731384
  0
LINE
  8
LC-006-012-----0
 62
     2
  6
DASHED
 10
1046.757690
 20
217.731384
 11
1046.757690
 21
226.731384
  0
LINE
  8
LC-006-012-----0
 62
     2
  6
DASHED
 10
1031.757690
 20
217.731384
 11
1031.757690
 21
226.731384
  0
LINE
  8
LC-006-012-----0
 62
     2
  6
DASHED
 10
1031.757690
 20
226.731384
 11
1046.757690
 21
226.731384
  0
LINE
  8
LC-004-006-----0
 62
     2
  6
DASHDOT
 10
902.257690
 20
210.970383
 11
902.257690
 21
279.217529
  0
LINE
  8
LC-006-012-----0
 62
     2
  6
DASHED
 10
896.257690
 20
251.731384
 11
896.257690
 21
273.731384
  0
LINE
  8
LC-004-006-----0
 62
     2
  6
DASHDOT
 10
1038.216064
 20
247.731384
 11
988.977295
 21
247.731384
  0
LINE
  8
LC-004-006-----0
 62
     2
  6
DASHDOT
 10
1014.757690
 20
223.209320
 11
1014.757690
 21
270.413452
  0
LINE
  8
LC-003-002-----0
 62
     1
  6
CONTINUOUS
 10
890.757690
 20
217.731384
 11
890.757690
 21
215.731384
  0
LINE
  8
LC-003-002-----0
 62
     1
  6
CONTINUOUS
 10
1024.257690
 20
273.731384
 11
1049.257690
 21
273.731384
  0
LINE
  8
LC-006-012-----0
 62
     2
  6
DASHED
 10
908.257690
 20
251.731384
 11
908.257690
 21
273.731384
  0
LINE
  8
LC-006-012-----0
 62
     2
  6
DASHED
 10
898.057678
 20
226.731384
 11
898.057678
 21
273.731384
  0
LINE
  8
LC-006-012-----0
 62
     2
  6
DASHED
 10
906.457703
 20
226.731384
 11
906.457703
 21
273.731384
  0
LINE
  8
LC-006-012-----0
 62
     2
  6
DASHED
 10
908.257690
 20
251.731384
 11
896.257690
 21
251.731384
  0
LINE
  8
LC-006-012-----0
 62
     2
  6
DASHED
 10
894.757690
 20
217.731384
 11
894.757690
 21
226.731384
  0
LINE
  8
LC-006-012-----0
 62
     2
  6
DASHED
 10
909.757690
 20
217.731384
 11
909.757690
 21
226.731384
  0
LINE
  8
LC-006-012-----0
 62
     2
  6
DASHED
 10
909.757690
 20
226.731384
 11
894.757690
 21
226.731384
  0
CIRCLE
  8
LC-003-002-----0
 62
     1
  6
CONTINUOUS
 10
926.757690
 20
247.731384
 40
20.000000
  0
CIRCLE
  8
LC-003-002-----0
 62
     1
  6
CONTINUOUS
 10
926.757690
 20
247.731384
 40
17.500000
  0
LINE
  8
LC-003-002-----0
 62
     1
  6
CONTINUOUS
 10
1050.757690
 20
217.731384
 11
1050.757690
 21
215.731384
  0
CIRCLE
  8
LC-003-002-----0
 62
     1
  6
CONTINUOUS
 10
1014.757690
 20
247.731384
 40
12.500000
  0
CIRCLE
  8
LC-003-002-----0
 62
     1
  6
CONTINUOUS
 10
1014.757690
 20
247.731384
 40
20.000000
  0
CIRCLE
  8
LC-003-002-----0
 62
     1
  6
CONTINUOUS
 10
1014.757690
 20
247.731384
 40
17.500000
  0
ENDSEC
  0
EOF
