  0
SECTION
  2
HEADER
  9
$LIMMIN
 10
73.150269
 20
604.022949
  9
$LIMMAX
 10
291.239288
 20
783.113708
  9
$EXTMIN
 10
73.150269
 20
604.022949
  9
$EXTMAX
 10
291.239288
 20
783.113708
  0
ENDSEC
  0
SECTION
  2
TABLES
  0
TABLE
  2
LTYPE
 70
     4
  0
LTYPE
  2
CONTINUOUS
 70
    64
  3
Ausgezogene Linie
 72
    65
 73
     0
 40
0.0
  0
LTYPE
  2
DASHED
 70
    64
  3
__ __ __ __ __ __ __ __ __ __ __ __ __ __ __
 72
    65
 73
     2
 40
0.75
 49
0.5
 49
-0.25
  0
LTYPE
  2
DASHDOT
 70
    64
  3
__ . __ . __ . __ . __ . __ . __ . __ . __ . __
 72
    65
 73
     4
 40
1.0
 49
0.5
 49
-0.25
 49
0.0
 49
-0.25
  0
LTYPE
  2
DIVIDE
 70
    64
  3
__ . . __ . . __ . . __ . . __ . . __ . . __
 72
    65
 73
     6
 40
1.25
 49
0.5
 49
-0.25
 49
0.0
 49
-0.25
 49
0.0
 49
-0.25
  0
ENDTAB
  0
TABLE
  2
LAYER
 70
     5
  0
LAYER
  2
LC-INFO-1-1-MM-A0-0
 70
    64
 62
     7
  6
CONTINUOUS
  0
LAYER
  2
LC-003-002-----0
 70
    64
 62
     7
  6
CONTINUOUS
  0
LAYER
  2
LC-004-006-----0
 70
    64
 62
     7
  6
CONTINUOUS
  0
LAYER
  2
LC-006-012-----0
 70
    64
 62
     7
  6
CONTINUOUS
  0
LAYER
  2
LC-008-003-----0
 70
    64
 62
     7
  6
CONTINUOUS
  0
ENDTAB
  0
TABLE
  2
STYLE
 70
     1
  0
STYLE
  2
TXT8
 70
    64
 40
0.0
 41
1.0
 50
0.0
 71
     0
 42
3.500000
  3
TXT8
  4

  0
ENDTAB
  0
ENDSEC
  0
SECTION
  2
BLOCKS
  0
ENDSEC
  0
SECTION
  2
ENTITIES
  0
LINE
  8
LC-008-003-----0
 62
     2
  6
DASHDOT
 10
289.363220
 20
757.675354
 11
289.363220
 21
757.675354
  0
LINE
  8
LC-008-003-----0
 62
     2
  6
DASHDOT
 10
289.363220
 20
757.675354
 11
289.363220
 21
756.848999
  0
LINE
  8
LC-008-003-----0
 62
     2
  6
DASHDOT
 10
289.363220
 20
756.848999
 11
289.645020
 21
753.796509
  0
LINE
  8
LC-008-003-----0
 62
     2
  6
DASHDOT
 10
289.645020
 20
753.796509
 11
290.087097
 21
751.456421
  0
LINE
  8
LC-008-003-----0
 62
     2
  6
DASHDOT
 10
290.087097
 20
751.456421
 11
290.217957
 21
749.388794
  0
LINE
  8
LC-008-003-----0
 62
     2
  6
DASHDOT
 10
290.217957
 20
749.388794
 11
289.797546
 21
747.294739
  0
LINE
  8
LC-008-003-----0
 62
     2
  6
DASHDOT
 10
289.797546
 20
747.294739
 11
289.797546
 21
747.294739
  0
LINE
  8
LC-008-003-----0
 62
     2
  6
DASHDOT
 10
289.797546
 20
747.294739
 11
289.363220
 21
746.140137
  0
LINE
  8
LC-008-003-----0
 62
     2
  6
DASHDOT
 10
289.363220
 20
746.140137
 11
289.363220
 21
746.140137
  0
LINE
  8
LC-008-003-----0
 62
     2
  6
DASHDOT
 10
289.363220
 20
746.140137
 11
289.363220
 21
745.640137
  0
LINE
  8
LC-008-003-----0
 62
     2
  6
DASHDOT
 10
289.363220
 20
745.640137
 11
289.363220
 21
745.640137
  0
LINE
  8
LC-008-003-----0
 62
     2
  6
DASHDOT
 10
289.363220
 20
745.640137
 11
289.942322
 21
743.023499
  0
LINE
  8
LC-008-003-----0
 62
     2
  6
DASHDOT
 10
289.942322
 20
743.023499
 11
289.942322
 21
743.023499
  0
LINE
  8
LC-008-003-----0
 62
     2
  6
DASHDOT
 10
289.942322
 20
743.023499
 11
289.363220
 21
741.140137
  0
LINE
  8
LC-008-003-----0
 62
     2
  6
DASHDOT
 10
289.363220
 20
757.140137
 11
288.902283
 21
758.573608
  0
LINE
  8
LC-008-003-----0
 62
     2
  6
DASHDOT
 10
288.902283
 20
758.573608
 11
288.478729
 21
761.290710
  0
LINE
  8
LC-008-003-----0
 62
     2
  6
DASHDOT
 10
288.478729
 20
761.290710
 11
289.338501
 21
764.033569
  0
LINE
  8
LC-008-003-----0
 62
     2
  6
DASHDOT
 10
289.338501
 20
764.033569
 11
289.658051
 21
766.747070
  0
LINE
  8
LC-008-003-----0
 62
     2
  6
DASHDOT
 10
289.658051
 20
766.747070
 11
289.658051
 21
766.747070
  0
LINE
  8
LC-008-003-----0
 62
     2
  6
DASHDOT
 10
289.658051
 20
766.747070
 11
288.478729
 21
769.140137
  0
LINE
  8
LC-008-003-----0
 62
     2
  6
CONTINUOUS
 10
132.112457
 20
609.899109
 11
133.545914
 21
610.360046
  0
LINE
  8
LC-008-003-----0
 62
     2
  6
CONTINUOUS
 10
133.545914
 20
610.360046
 11
136.263046
 21
610.783569
  0
LINE
  8
LC-008-003-----0
 62
     2
  6
CONTINUOUS
 10
136.263046
 20
610.783569
 11
139.005905
 21
609.923828
  0
LINE
  8
LC-008-003-----0
 62
     2
  6
CONTINUOUS
 10
139.005905
 20
609.923828
 11
141.719391
 21
609.604248
  0
LINE
  8
LC-008-003-----0
 62
     2
  6
CONTINUOUS
 10
141.719391
 20
609.604248
 11
141.719391
 21
609.604248
  0
LINE
  8
LC-008-003-----0
 62
     2
  6
CONTINUOUS
 10
141.719391
 20
609.604248
 11
144.112457
 21
610.783569
  0
LINE
  8
LC-008-003-----0
 62
     2
  6
CONTINUOUS
 10
90.112465
 20
609.899109
 11
91.545914
 21
610.360046
  0
LINE
  8
LC-008-003-----0
 62
     2
  6
CONTINUOUS
 10
91.545914
 20
610.360046
 11
94.263039
 21
610.783569
  0
LINE
  8
LC-008-003-----0
 62
     2
  6
CONTINUOUS
 10
94.263039
 20
610.783569
 11
97.005913
 21
609.923828
  0
LINE
  8
LC-008-003-----0
 62
     2
  6
CONTINUOUS
 10
97.005913
 20
609.923828
 11
99.719398
 21
609.604248
  0
LINE
  8
LC-008-003-----0
 62
     2
  6
CONTINUOUS
 10
99.719398
 20
609.604248
 11
99.719398
 21
609.604248
  0
LINE
  8
LC-008-003-----0
 62
     2
  6
CONTINUOUS
 10
99.719398
 20
609.604248
 11
102.112465
 21
610.783569
  0
LINE
  8
LC-003-002-----0
 62
     1
  6
CONTINUOUS
 10
74.612465
 20
751.140137
 11
86.437881
 21
751.140137
  0
LINE
  8
LC-003-002-----0
 62
     1
  6
CONTINUOUS
 10
159.612457
 20
751.140137
 11
159.612457
 21
781.140137
  0
LINE
  8
LC-003-002-----0
 62
     1
  6
CONTINUOUS
 10
74.612465
 20
781.140137
 11
159.612457
 21
781.140137
  0
LINE
  8
LC-003-002-----0
 62
     1
  6
CONTINUOUS
 10
74.612465
 20
751.140137
 11
74.612465
 21
781.140137
  0
LINE
  8
LC-003-002-----0
 62
     1
  6
CONTINUOUS
 10
193.122726
 20
751.140137
 11
278.122742
 21
751.140137
  0
LINE
  8
LC-003-002-----0
 62
     1
  6
CONTINUOUS
 10
193.122726
 20
781.140137
 11
278.122742
 21
781.140137
  0
LINE
  8
LC-008-003-----0
 62
     2
  6
DIVIDE
 10
90.112465
 20
706.139587
 11
90.112465
 21
721.139587
  0
LINE
  8
LC-003-002-----0
 62
     1
  6
CONTINUOUS
 10
74.612465
 20
706.139587
 11
74.612465
 21
621.139587
  0
LINE
  8
LC-003-002-----0
 62
     1
  6
CONTINUOUS
 10
74.612465
 20
621.139587
 11
159.612457
 21
621.139587
  0
LINE
  8
LC-003-002-----0
 62
     1
  6
CONTINUOUS
 10
159.612457
 20
706.139587
 11
159.612457
 21
621.139587
  0
LINE
  8
LC-003-002-----0
 62
     1
  6
CONTINUOUS
 10
74.612465
 20
706.139587
 11
159.612457
 21
706.139587
  0
LINE
  8
LC-004-006-----0
 62
     2
  6
DASHDOT
 10
80.612465
 20
707.691895
 11
80.612465
 21
692.851685
  0
LINE
  8
LC-004-006-----0
 62
     2
  6
DASHDOT
 10
138.112457
 20
725.027405
 11
138.112457
 21
607.424316
  0
LINE
  8
LC-004-006-----0
 62
     2
  6
DASHDOT
 10
96.112465
 20
724.573669
 11
96.112465
 21
607.424316
  0
LINE
  8
LC-004-006-----0
 62
     2
  6
DASHDOT
 10
96.112465
 20
739.847961
 11
96.112465
 21
775.557922
  0
LINE
  8
LC-006-012-----0
 62
     2
  6
DASHED
 10
90.112465
 20
706.139587
 11
90.112465
 21
621.139587
  0
LINE
  8
LC-004-006-----0
 62
     2
  6
DASHDOT
 10
138.112457
 20
739.847961
 11
138.112457
 21
775.557922
  0
LINE
  8
LC-004-006-----0
 62
     2
  6
DASHDOT
 10
83.961182
 20
763.140137
 11
108.686546
 21
763.140137
  0
CIRCLE
  8
LC-003-002-----0
 62
     1
  6
CONTINUOUS
 10
138.112457
 20
763.140137
 40
6.000000
  0
CIRCLE
  8
LC-003-002-----0
 62
     1
  6
CONTINUOUS
 10
96.112465
 20
763.140137
 40
6.000000
  0
LINE
  8
LC-003-002-----0
 62
     1
  6
CONTINUOUS
 10
147.787048
 20
751.140137
 11
159.612457
 21
751.140137
  0
ARC
  8
LC-003-002-----0
 62
     1
  6
CONTINUOUS
 10
96.112465
 20
763.140137
 40
11.000000
 50
308.826648
 51
231.173357
  0
LINE
  8
LC-003-002-----0
 62
     1
  6
CONTINUOUS
 10
141.862457
 20
758.456421
 11
145.009094
 21
754.570618
  0
LINE
  8
LC-003-002-----0
 62
     1
  6
CONTINUOUS
 10
134.362457
 20
758.456421
 11
131.215836
 21
754.570618
  0
LINE
  8
LC-003-002-----0
 62
     1
  6
CONTINUOUS
 10
99.862465
 20
758.456421
 11
103.009094
 21
754.570618
  0
LINE
  8
LC-003-002-----0
 62
     1
  6
CONTINUOUS
 10
92.362465
 20
758.456421
 11
89.215836
 21
754.570618
  0
LINE
  8
LC-003-002-----0
 62
     1
  6
CONTINUOUS
 10
105.787048
 20
751.140137
 11
128.437881
 21
751.140137
  0
ARC
  8
LC-003-002-----0
 62
     1
  6
CONTINUOUS
 10
138.112457
 20
763.140137
 40
11.000000
 50
308.826648
 51
231.173357
  0
LINE
  8
LC-006-012-----0
 62
     2
  6
DASHED
 10
150.612457
 20
768.140137
 11
156.612457
 21
768.140137
  0
LINE
  8
LC-004-006-----0
 62
     2
  6
DASHDOT
 10
153.612457
 20
749.530640
 11
153.612457
 21
783.113708
  0
LINE
  8
LC-004-006-----0
 62
     2
  6
DASHDOT
 10
80.612465
 20
749.530640
 11
80.612465
 21
783.113708
  0
LINE
  8
LC-006-012-----0
 62
     2
  6
DASHED
 10
156.612457
 20
768.140137
 11
156.612457
 21
781.140137
  0
LINE
  8
LC-006-012-----0
 62
     2
  6
DASHED
 10
156.262466
 20
756.840149
 11
156.262466
 21
781.140137
  0
LINE
  8
LC-006-012-----0
 62
     2
  6
DASHED
 10
150.962463
 20
756.840149
 11
150.962463
 21
781.140137
  0
LINE
  8
LC-006-012-----0
 62
     2
  6
DASHED
 10
150.612457
 20
768.140137
 11
150.612457
 21
781.140137
  0
LINE
  8
LC-006-012-----0
 62
     2
  6
DASHED
 10
148.612457
 20
756.840149
 11
158.612457
 21
756.840149
  0
LINE
  8
LC-006-012-----0
 62
     2
  6
DASHED
 10
148.612457
 20
751.140137
 11
148.612457
 21
756.840149
  0
LINE
  8
LC-006-012-----0
 62
     2
  6
DASHED
 10
158.612457
 20
751.140137
 11
158.612457
 21
756.840149
  0
LINE
  8
LC-006-012-----0
 62
     2
  6
DASHED
 10
83.612465
 20
768.140137
 11
77.612465
 21
768.140137
  0
LINE
  8
LC-006-012-----0
 62
     2
  6
DASHED
 10
77.612465
 20
768.140137
 11
77.612465
 21
781.140137
  0
LINE
  8
LC-006-012-----0
 62
     2
  6
DASHED
 10
83.262466
 20
756.840149
 11
83.262466
 21
781.140137
  0
LINE
  8
LC-006-012-----0
 62
     2
  6
DASHED
 10
77.962463
 20
756.840149
 11
77.962463
 21
781.140137
  0
LINE
  8
LC-006-012-----0
 62
     2
  6
DASHED
 10
83.612465
 20
768.140137
 11
83.612465
 21
781.140137
  0
LINE
  8
LC-006-012-----0
 62
     2
  6
DASHED
 10
75.612465
 20
756.840149
 11
85.612465
 21
756.840149
  0
LINE
  8
LC-006-012-----0
 62
     2
  6
DASHED
 10
85.612465
 20
751.140137
 11
85.612465
 21
756.840149
  0
LINE
  8
LC-006-012-----0
 62
     2
  6
DASHED
 10
75.612465
 20
751.140137
 11
75.612465
 21
756.840149
  0
LINE
  8
LC-006-012-----0
 62
     2
  6
DASHED
 10
102.112465
 20
706.139587
 11
102.112465
 21
621.139587
  0
LINE
  8
LC-006-012-----0
 62
     2
  6
DASHED
 10
132.112457
 20
706.139587
 11
132.112457
 21
621.139587
  0
LINE
  8
LC-006-012-----0
 62
     2
  6
DASHED
 10
144.112457
 20
706.139587
 11
144.112457
 21
621.139587
  0
LINE
  8
LC-004-006-----0
 62
     2
  6
DASHDOT
 10
125.192612
 20
763.140137
 11
150.400742
 21
763.140137
  0
LINE
  8
LC-004-006-----0
 62
     2
  6
DASHDOT
 10
153.612457
 20
707.691895
 11
153.612457
 21
692.715515
  0
LINE
  8
LC-004-006-----0
 62
     2
  6
DASHDOT
 10
146.581421
 20
627.139587
 11
160.799713
 21
627.139587
  0
LINE
  8
LC-004-006-----0
 62
     2
  6
DASHDOT
 10
73.150269
 20
700.139587
 11
87.368553
 21
700.139587
  0
LINE
  8
LC-004-006-----0
 62
     2
  6
DASHDOT
 10
73.150269
 20
627.139587
 11
87.368553
 21
627.139587
  0
CIRCLE
  8
LC-003-002-----0
 62
     1
  6
CONTINUOUS
 10
80.612465
 20
700.139587
 40
2.400000
  0
ARC
  8
LC-006-012-----0
 62
     2
  6
CONTINUOUS
 10
80.612465
 20
700.139587
 40
3.000000
 50
270.000114
 51
179.999827
  0
CIRCLE
  8
LC-003-002-----0
 62
     1
  6
CONTINUOUS
 10
153.612457
 20
700.139587
 40
2.400000
  0
ARC
  8
LC-006-012-----0
 62
     2
  6
CONTINUOUS
 10
153.612457
 20
700.139587
 40
3.000000
 50
270.000114
 51
179.999827
  0
CIRCLE
  8
LC-006-012-----0
 62
     2
  6
DASHED
 10
153.612457
 20
700.139587
 40
5.000000
  0
CIRCLE
  8
LC-003-002-----0
 62
     1
  6
CONTINUOUS
 10
80.612465
 20
627.139587
 40
2.400000
  0
ARC
  8
LC-006-012-----0
 62
     2
  6
CONTINUOUS
 10
80.612465
 20
627.139587
 40
3.000000
 50
270.000114
 51
179.999827
  0
CIRCLE
  8
LC-006-012-----0
 62
     2
  6
DASHED
 10
80.612465
 20
627.139587
 40
5.000000
  0
CIRCLE
  8
LC-003-002-----0
 62
     1
  6
CONTINUOUS
 10
153.612457
 20
627.139587
 40
2.400000
  0
ARC
  8
LC-006-012-----0
 62
     2
  6
CONTINUOUS
 10
153.612457
 20
627.139587
 40
3.000000
 50
270.000114
 51
179.999827
  0
CIRCLE
  8
LC-006-012-----0
 62
     2
  6
DASHED
 10
80.612465
 20
700.139587
 40
5.000000
  0
CIRCLE
  8
LC-006-012-----0
 62
     2
  6
DASHED
 10
153.612457
 20
627.139587
 40
5.000000
  0
LINE
  8
LC-004-006-----0
 62
     2
  6
DASHDOT
 10
80.612465
 20
634.035278
 11
80.612465
 21
619.331177
  0
LINE
  8
LC-004-006-----0
 62
     2
  6
DASHDOT
 10
146.761414
 20
700.139587
 11
160.799713
 21
700.139587
  0
LINE
  8
LC-004-006-----0
 62
     2
  6
DASHDOT
 10
153.612457
 20
633.762939
 11
153.612457
 21
619.331177
  0
LINE
  8
LC-006-012-----0
 62
     2
  6
DASHED
 10
105.787048
 20
706.139587
 11
105.787048
 21
621.139587
  0
LINE
  8
LC-006-012-----0
 62
     2
  6
DASHED
 10
86.437881
 20
706.139587
 11
86.437881
 21
621.139587
  0
LINE
  8
LC-006-012-----0
 62
     2
  6
DASHED
 10
107.112465
 20
706.139587
 11
107.112465
 21
674.139587
  0
LINE
  8
LC-006-012-----0
 62
     2
  6
DASHED
 10
85.112465
 20
706.139587
 11
85.112465
 21
674.139587
  0
LINE
  8
LC-006-012-----0
 62
     2
  6
DASHED
 10
147.787048
 20
706.139587
 11
147.787048
 21
621.139587
  0
LINE
  8
LC-006-012-----0
 62
     2
  6
DASHED
 10
149.112457
 20
706.139587
 11
149.112457
 21
674.139587
  0
LINE
  8
LC-006-012-----0
 62
     2
  6
DASHED
 10
128.437881
 20
706.139587
 11
128.437881
 21
621.139587
  0
LINE
  8
LC-006-012-----0
 62
     2
  6
DASHED
 10
127.112465
 20
706.139587
 11
127.112465
 21
674.139587
  0
LINE
  8
LC-006-012-----0
 62
     2
  6
DASHED
 10
85.112465
 20
674.139587
 11
107.112465
 21
674.139587
  0
LINE
  8
LC-006-012-----0
 62
     2
  6
DASHED
 10
85.112465
 20
653.139587
 11
107.112465
 21
653.139587
  0
LINE
  8
LC-006-012-----0
 62
     2
  6
DASHED
 10
127.112465
 20
674.139587
 11
149.112457
 21
674.139587
  0
LINE
  8
LC-006-012-----0
 62
     2
  6
DASHED
 10
127.112465
 20
653.139587
 11
149.112457
 21
653.139587
  0
LINE
  8
LC-004-006-----0
 62
     2
  6
DASHDOT
 10
176.027039
 20
763.140137
 11
291.239288
 21
763.140137
  0
LINE
  8
LC-006-012-----0
 62
     2
  6
DASHED
 10
193.122726
 20
769.140137
 11
278.122742
 21
769.140137
  0
LINE
  8
LC-006-012-----0
 62
     2
  6
DASHED
 10
193.122726
 20
774.140137
 11
225.122726
 21
774.140137
  0
LINE
  8
LC-006-012-----0
 62
     2
  6
DASHED
 10
193.122726
 20
754.570618
 11
225.122726
 21
754.570618
  0
LINE
  8
LC-006-012-----0
 62
     2
  6
DASHED
 10
225.122726
 20
754.570618
 11
225.122726
 21
774.140137
  0
LINE
  8
LC-006-012-----0
 62
     2
  6
DASHED
 10
246.122726
 20
754.570618
 11
246.122726
 21
774.140137
  0
LINE
  8
LC-003-002-----0
 62
     1
  6
CONTINUOUS
 10
193.122726
 20
751.140137
 11
204.948135
 21
751.140137
  0
LINE
  8
LC-003-002-----0
 62
     1
  6
CONTINUOUS
 10
193.122726
 20
751.140137
 11
193.122726
 21
781.140137
  0
LINE
  8
LC-004-006-----0
 62
     2
  6
DASHDOT
 10
199.122726
 20
749.530640
 11
199.122726
 21
783.113708
  0
LINE
  8
LC-006-012-----0
 62
     2
  6
DASHED
 10
202.122726
 20
768.140137
 11
196.122726
 21
768.140137
  0
LINE
  8
LC-006-012-----0
 62
     2
  6
DASHED
 10
196.122726
 20
768.140137
 11
196.122726
 21
781.140137
  0
LINE
  8
LC-006-012-----0
 62
     2
  6
DASHED
 10
196.622726
 20
757.940125
 11
196.622726
 21
781.140137
  0
LINE
  8
LC-006-012-----0
 62
     2
  6
DASHED
 10
201.622726
 20
757.940125
 11
201.622726
 21
781.140137
  0
LINE
  8
LC-006-012-----0
 62
     2
  6
DASHED
 10
202.122726
 20
768.140137
 11
202.122726
 21
781.140137
  0
LINE
  8
LC-006-012-----0
 62
     2
  6
DASHED
 10
193.622726
 20
751.140137
 11
193.622726
 21
757.940125
  0
LINE
  8
LC-006-012-----0
 62
     2
  6
DASHED
 10
204.622726
 20
751.140137
 11
204.622726
 21
757.940125
  0
LINE
  8
LC-006-012-----0
 62
     2
  6
DASHED
 10
204.622726
 20
757.940125
 11
193.622726
 21
757.940125
  0
LINE
  8
LC-003-002-----0
 62
     1
  6
CONTINUOUS
 10
278.122742
 20
751.140137
 11
278.122742
 21
781.140137
  0
LINE
  8
LC-003-002-----0
 62
     1
  6
CONTINUOUS
 10
266.297302
 20
751.140137
 11
278.122742
 21
751.140137
  0
LINE
  8
LC-006-012-----0
 62
     2
  6
DASHED
 10
269.122742
 20
768.140137
 11
275.122742
 21
768.140137
  0
LINE
  8
LC-004-006-----0
 62
     2
  6
DASHDOT
 10
272.122742
 20
749.530640
 11
272.122742
 21
783.113708
  0
LINE
  8
LC-006-012-----0
 62
     2
  6
DASHED
 10
275.122742
 20
768.140137
 11
275.122742
 21
781.140137
  0
LINE
  8
LC-006-012-----0
 62
     2
  6
DASHED
 10
274.622742
 20
757.940125
 11
274.622742
 21
781.140137
  0
LINE
  8
LC-006-012-----0
 62
     2
  6
DASHED
 10
269.622742
 20
757.940125
 11
269.622742
 21
781.140137
  0
LINE
  8
LC-006-012-----0
 62
     2
  6
DASHED
 10
269.122742
 20
768.140137
 11
269.122742
 21
781.140137
  0
LINE
  8
LC-006-012-----0
 62
     2
  6
DASHED
 10
277.622742
 20
751.140137
 11
277.622742
 21
757.940125
  0
LINE
  8
LC-006-012-----0
 62
     2
  6
DASHED
 10
266.622742
 20
751.140137
 11
266.622742
 21
757.940125
  0
LINE
  8
LC-006-012-----0
 62
     2
  6
DASHED
 10
266.622742
 20
757.940125
 11
277.622742
 21
757.940125
  0
LINE
  8
LC-008-003-----0
 62
     2
  6
DIVIDE
 10
102.112465
 20
706.139587
 11
102.112465
 21
721.139587
  0
LINE
  8
LC-008-003-----0
 62
     2
  6
DIVIDE
 10
76.112465
 20
721.139587
 11
90.112465
 21
721.139587
  0
LINE
  8
LC-008-003-----0
 62
     2
  6
DIVIDE
 10
132.112457
 20
706.139587
 11
132.112457
 21
721.139587
  0
LINE
  8
LC-008-003-----0
 62
     2
  6
DIVIDE
 10
144.112457
 20
706.139587
 11
144.112457
 21
721.139587
  0
LINE
  8
LC-008-003-----0
 62
     2
  6
DIVIDE
 10
118.112465
 20
721.139587
 11
132.112457
 21
721.139587
  0
LINE
  8
LC-003-002-----0
 62
     1
  6
CONTINUOUS
 10
89.215836
 20
754.570618
 11
86.437881
 21
751.140137
  0
LINE
  8
LC-008-003-----0
 62
     2
  6
DIVIDE
 10
90.112465
 20
621.139587
 11
90.112465
 21
609.899109
  0
LINE
  8
LC-008-003-----0
 62
     2
  6
DIVIDE
 10
102.112465
 20
621.139587
 11
102.112465
 21
610.783569
  0
LINE
  8
LC-008-003-----0
 62
     2
  6
DIVIDE
 10
132.112457
 20
621.139587
 11
132.112457
 21
609.899109
  0
LINE
  8
LC-008-003-----0
 62
     2
  6
DIVIDE
 10
144.112457
 20
621.139587
 11
144.112457
 21
610.783569
  0
LINE
  8
LC-006-012-----0
 62
     2
  6
DASHED
 10
193.122726
 20
757.140137
 11
278.122742
 21
757.140137
  0
LINE
  8
LC-008-003-----0
 62
     2
  6
DIVIDE
 10
193.122726
 20
757.140137
 11
178.122726
 21
757.140137
  0
LINE
  8
LC-008-003-----0
 62
     2
  6
DIVIDE
 10
193.122726
 20
769.140137
 11
178.122726
 21
769.140137
  0
LINE
  8
LC-003-002-----0
 62
     1
  6
CONTINUOUS
 10
103.009094
 20
754.570618
 11
105.787048
 21
751.140137
  0
LINE
  8
LC-008-003-----0
 62
     2
  6
DIVIDE
 10
278.122742
 20
757.140137
 11
289.363220
 21
757.140137
  0
LINE
  8
LC-008-003-----0
 62
     2
  6
DIVIDE
 10
278.122742
 20
769.140137
 11
288.478729
 21
769.140137
  0
LINE
  8
LC-008-003-----0
 62
     2
  6
DIVIDE
 10
76.112465
 20
741.140137
 11
92.112465
 21
741.140137
  0
LINE
  8
LC-008-003-----0
 62
     2
  6
DIVIDE
 10
76.112465
 20
746.140137
 11
80.612465
 21
746.140137
  0
LINE
  8
LC-008-003-----0
 62
     2
  6
DIVIDE
 10
76.112465
 20
741.140137
 11
76.112465
 21
746.140137
  0
LINE
  8
LC-008-003-----0
 62
     2
  6
DIVIDE
 10
116.112465
 20
741.140137
 11
116.112465
 21
746.140137
  0
LINE
  8
LC-008-003-----0
 62
     2
  6
DIVIDE
 10
100.112465
 20
741.140137
 11
100.112465
 21
745.640137
  0
LINE
  8
LC-008-003-----0
 62
     2
  6
DIVIDE
 10
92.112465
 20
741.140137
 11
92.112465
 21
745.640137
  0
LINE
  8
LC-008-003-----0
 62
     2
  6
DIVIDE
 10
92.112465
 20
745.640137
 11
100.112465
 21
745.640137
  0
LINE
  8
LC-008-003-----0
 62
     2
  6
DIVIDE
 10
100.112465
 20
741.140137
 11
116.112465
 21
741.140137
  0
LINE
  8
LC-008-003-----0
 62
     2
  6
DIVIDE
 10
81.612465
 20
746.140137
 11
88.112465
 21
746.140137
  0
LINE
  8
LC-008-003-----0
 62
     2
  6
DIVIDE
 10
104.112465
 20
746.140137
 11
110.612465
 21
746.140137
  0
LINE
  8
LC-008-003-----0
 62
     2
  6
DIVIDE
 10
111.612465
 20
746.140137
 11
116.112465
 21
746.140137
  0
LINE
  8
LC-008-003-----0
 62
     2
  6
DIVIDE
 10
110.612465
 20
746.140137
 11
111.112465
 21
745.640137
  0
LINE
  8
LC-008-003-----0
 62
     2
  6
DIVIDE
 10
111.112465
 20
745.640137
 11
111.612465
 21
746.140137
  0
LINE
  8
LC-008-003-----0
 62
     2
  6
DIVIDE
 10
81.612465
 20
746.140137
 11
81.112465
 21
745.640137
  0
LINE
  8
LC-008-003-----0
 62
     2
  6
DIVIDE
 10
81.112465
 20
745.640137
 11
80.612465
 21
746.140137
  0
LINE
  8
LC-003-002-----0
 62
     1
  6
CONTINUOUS
 10
131.215836
 20
754.570618
 11
128.437881
 21
751.140137
  0
LINE
  8
LC-003-002-----0
 62
     1
  6
CONTINUOUS
 10
145.009094
 20
754.570618
 11
147.787048
 21
751.140137
  0
LINE
  8
LC-008-003-----0
 62
     2
  6
DIVIDE
 10
88.112465
 20
746.140137
 11
93.491432
 21
757.675354
  0
LINE
  8
LC-008-003-----0
 62
     2
  6
DIVIDE
 10
104.112465
 20
746.140137
 11
98.733498
 21
757.675354
  0
LINE
  8
LC-008-003-----0
 62
     2
  6
DIVIDE
 10
98.733498
 20
757.675354
 11
96.112465
 21
756.848999
  0
LINE
  8
LC-008-003-----0
 62
     2
  6
DIVIDE
 10
93.491432
 20
757.675354
 11
96.112465
 21
756.848999
  0
LINE
  8
LC-008-003-----0
 62
     2
  6
DIVIDE
 10
158.112457
 20
741.140137
 11
142.112457
 21
741.140137
  0
LINE
  8
LC-008-003-----0
 62
     2
  6
DIVIDE
 10
158.112457
 20
746.140137
 11
153.612457
 21
746.140137
  0
LINE
  8
LC-008-003-----0
 62
     2
  6
DIVIDE
 10
158.112457
 20
741.140137
 11
158.112457
 21
746.140137
  0
LINE
  8
LC-008-003-----0
 62
     2
  6
DIVIDE
 10
118.112465
 20
741.140137
 11
118.112465
 21
746.140137
  0
LINE
  8
LC-008-003-----0
 62
     2
  6
DIVIDE
 10
134.112457
 20
741.140137
 11
134.112457
 21
745.640137
  0
LINE
  8
LC-008-003-----0
 62
     2
  6
DIVIDE
 10
142.112457
 20
741.140137
 11
142.112457
 21
745.640137
  0
LINE
  8
LC-008-003-----0
 62
     2
  6
DIVIDE
 10
142.112457
 20
745.640137
 11
134.112457
 21
745.640137
  0
LINE
  8
LC-008-003-----0
 62
     2
  6
DIVIDE
 10
134.112457
 20
741.140137
 11
118.112473
 21
741.140137
  0
LINE
  8
LC-008-003-----0
 62
     2
  6
DIVIDE
 10
152.612457
 20
746.140137
 11
146.112457
 21
746.140137
  0
LINE
  8
LC-008-003-----0
 62
     2
  6
DIVIDE
 10
130.112457
 20
746.140137
 11
123.612473
 21
746.140137
  0
LINE
  8
LC-008-003-----0
 62
     2
  6
DIVIDE
 10
122.612465
 20
746.140137
 11
118.112465
 21
746.140137
  0
LINE
  8
LC-008-003-----0
 62
     2
  6
DIVIDE
 10
123.612465
 20
746.140137
 11
123.112465
 21
745.640137
  0
LINE
  8
LC-008-003-----0
 62
     2
  6
DIVIDE
 10
123.112465
 20
745.640137
 11
122.612465
 21
746.140137
  0
LINE
  8
LC-008-003-----0
 62
     2
  6
DIVIDE
 10
152.612457
 20
746.140137
 11
153.112457
 21
745.640137
  0
LINE
  8
LC-008-003-----0
 62
     2
  6
DIVIDE
 10
153.112457
 20
745.640137
 11
153.612457
 21
746.140137
  0
ARC
  8
LC-003-002-----0
 62
     1
  6
CONTINUOUS
 10
96.112465
 20
763.140137
 40
9.000000
 50
308.788126
 51
231.211879
  0
LINE
  8
LC-008-003-----0
 62
     2
  6
DIVIDE
 10
146.112457
 20
746.140137
 11
140.733490
 21
757.675354
  0
LINE
  8
LC-008-003-----0
 62
     2
  6
DIVIDE
 10
130.112457
 20
746.140137
 11
135.491425
 21
757.675354
  0
LINE
  8
LC-008-003-----0
 62
     2
  6
DIVIDE
 10
135.491425
 20
757.675354
 11
138.112457
 21
756.848999
  0
LINE
  8
LC-008-003-----0
 62
     2
  6
DIVIDE
 10
140.733490
 20
757.675354
 11
138.112457
 21
756.848999
  0
LINE
  8
LC-008-003-----0
 62
     2
  6
DIVIDE
 10
178.122726
 20
741.140137
 11
289.363220
 21
741.140137
  0
LINE
  8
LC-008-003-----0
 62
     2
  6
DIVIDE
 10
178.122726
 20
746.140137
 11
289.363220
 21
746.140137
  0
LINE
  8
LC-008-003-----0
 62
     2
  6
DIVIDE
 10
178.122726
 20
757.675354
 11
193.122726
 21
757.675354
  0
LINE
  8
LC-008-003-----0
 62
     2
  6
DIVIDE
 10
278.122742
 20
757.675354
 11
289.363220
 21
757.675354
  0
LINE
  8
LC-008-003-----0
 62
     2
  6
DIVIDE
 10
178.122726
 20
741.140137
 11
178.122726
 21
757.675354
  0
ARC
  8
LC-003-002-----0
 62
     1
  6
CONTINUOUS
 10
138.112457
 20
763.140137
 40
9.000000
 50
308.788126
 51
231.211879
  0
LINE
  8
LC-008-003-----0
 62
     2
  6
DIVIDE
 10
90.112465
 20
721.139587
 11
102.112465
 21
721.139587
  0
LINE
  8
LC-008-003-----0
 62
     2
  6
DIVIDE
 10
116.112465
 20
721.139587
 11
116.112465
 21
706.139587
  0
LINE
  8
LC-008-003-----0
 62
     2
  6
DIVIDE
 10
76.112465
 20
721.139587
 11
76.112465
 21
706.139587
  0
LINE
  8
LC-008-003-----0
 62
     2
  6
DIVIDE
 10
88.112465
 20
721.139587
 11
88.112465
 21
706.139587
  0
LINE
  8
LC-008-003-----0
 62
     2
  6
DIVIDE
 10
104.112465
 20
721.139587
 11
104.112465
 21
706.139587
  0
LINE
  8
LC-008-003-----0
 62
     2
  6
DIVIDE
 10
93.491432
 20
721.139587
 11
93.491432
 21
706.139587
  0
LINE
  8
LC-008-003-----0
 62
     2
  6
DIVIDE
 10
98.733498
 20
721.139587
 11
98.733498
 21
706.139587
  0
LINE
  8
LC-006-012-----0
 62
     2
  6
DASHED
 10
85.112465
 20
674.139587
 11
85.112465
 21
653.139587
  0
LINE
  8
LC-006-012-----0
 62
     2
  6
DASHED
 10
85.112465
 20
653.139587
 11
85.112465
 21
621.139587
  0
LINE
  8
LC-006-012-----0
 62
     2
  6
DASHED
 10
107.112465
 20
674.139587
 11
107.112465
 21
653.139587
  0
LINE
  8
LC-006-012-----0
 62
     2
  6
DASHED
 10
107.112465
 20
653.139587
 11
107.112465
 21
621.139587
  0
LINE
  8
LC-008-003-----0
 62
     2
  6
DIVIDE
 10
102.112465
 20
721.139587
 11
116.112465
 21
721.139587
  0
LINE
  8
LC-008-003-----0
 62
     2
  6
DIVIDE
 10
158.112457
 20
721.139587
 11
158.112457
 21
706.139587
  0
LINE
  8
LC-008-003-----0
 62
     2
  6
DIVIDE
 10
118.112465
 20
721.139587
 11
118.112465
 21
706.139587
  0
LINE
  8
LC-008-003-----0
 62
     2
  6
DIVIDE
 10
130.112457
 20
721.139587
 11
130.112457
 21
706.139587
  0
LINE
  8
LC-008-003-----0
 62
     2
  6
DIVIDE
 10
146.112457
 20
721.139587
 11
146.112457
 21
706.139587
  0
LINE
  8
LC-008-003-----0
 62
     2
  6
DIVIDE
 10
135.491425
 20
721.139587
 11
135.491425
 21
706.139587
  0
LINE
  8
LC-008-003-----0
 62
     2
  6
DIVIDE
 10
140.733490
 20
721.139587
 11
140.733490
 21
706.139587
  0
LINE
  8
LC-006-012-----0
 62
     2
  6
DASHED
 10
127.112465
 20
674.139587
 11
127.112465
 21
653.139587
  0
LINE
  8
LC-006-012-----0
 62
     2
  6
DASHED
 10
127.112465
 20
653.139587
 11
127.112465
 21
621.139587
  0
LINE
  8
LC-006-012-----0
 62
     2
  6
DASHED
 10
149.112457
 20
674.139587
 11
149.112457
 21
653.139587
  0
LINE
  8
LC-006-012-----0
 62
     2
  6
DASHED
 10
149.112457
 20
653.139587
 11
149.112457
 21
621.139587
  0
LINE
  8
LC-006-012-----0
 62
     2
  6
DASHED
 10
225.122726
 20
774.140137
 11
246.122726
 21
774.140137
  0
LINE
  8
LC-008-003-----0
 62
     2
  6
DIVIDE
 10
76.112465
 20
606.546021
 11
81.615089
 21
604.278748
  0
LINE
  8
LC-008-003-----0
 62
     2
  6
DIVIDE
 10
158.112457
 20
604.344910
 11
158.112457
 21
621.139587
  0
LINE
  8
LC-008-003-----0
 62
     2
  6
DIVIDE
 10
118.112465
 20
605.275696
 11
118.112465
 21
621.139587
  0
LINE
  8
LC-008-003-----0
 62
     2
  6
DIVIDE
 10
130.112457
 20
604.835938
 11
130.112457
 21
621.139587
  0
LINE
  8
LC-008-003-----0
 62
     2
  6
DIVIDE
 10
146.112457
 20
605.048950
 11
146.112457
 21
621.139587
  0
LINE
  8
LC-008-003-----0
 62
     2
  6
DIVIDE
 10
135.491425
 20
604.233032
 11
135.491425
 21
621.139587
  0
LINE
  8
LC-008-003-----0
 62
     2
  6
DIVIDE
 10
140.733490
 20
604.600830
 11
140.733490
 21
621.139587
  0
LINE
  8
LC-006-012-----0
 62
     2
  6
DASHED
 10
246.122726
 20
774.140137
 11
278.122742
 21
774.140137
  0
LINE
  8
LC-006-012-----0
 62
     2
  6
DASHED
 10
225.122726
 20
754.570618
 11
246.122726
 21
754.570618
  0
LINE
  8
LC-006-012-----0
 62
     2
  6
DASHED
 10
246.122726
 20
754.570618
 11
278.122742
 21
754.570618
  0
LINE
  8
LC-008-003-----0
 62
     2
  6
DIVIDE
 10
132.112457
 20
721.139587
 11
144.112457
 21
721.139587
  0
LINE
  8
LC-008-003-----0
 62
     2
  6
DIVIDE
 10
144.112457
 20
721.139587
 11
158.112457
 21
721.139587
  0
LINE
  8
LC-008-003-----0
 62
     2
  6
DIVIDE
 10
81.615089
 20
604.278748
 11
93.617706
 21
605.731934
  0
LINE
  8
LC-008-003-----0
 62
     2
  6
DIVIDE
 10
116.112465
 20
605.047913
 11
116.112465
 21
621.139587
  0
LINE
  8
LC-008-003-----0
 62
     2
  6
DIVIDE
 10
76.112465
 20
606.546021
 11
76.112465
 21
621.139587
  0
LINE
  8
LC-008-003-----0
 62
     2
  6
DIVIDE
 10
88.112465
 20
605.065430
 11
88.112465
 21
621.139587
  0
LINE
  8
LC-008-003-----0
 62
     2
  6
DIVIDE
 10
104.112465
 20
604.402893
 11
104.112465
 21
621.139587
  0
LINE
  8
LC-008-003-----0
 62
     2
  6
DIVIDE
 10
93.491432
 20
605.716614
 11
93.491432
 21
621.139587
  0
LINE
  8
LC-008-003-----0
 62
     2
  6
DIVIDE
 10
98.733498
 20
605.084106
 11
98.733498
 21
621.139587
  0
LINE
  8
LC-008-003-----0
 62
     2
  6
DIVIDE
 10
178.122726
 20
757.675354
 11
178.122726
 21
769.140137
  0
LINE
  8
LC-008-003-----0
 62
     2
  6
DIVIDE
 10
93.617706
 20
605.731934
 11
107.112869
 21
604.022949
  0
LINE
  8
LC-008-003-----0
 62
     2
  6
DIVIDE
 10
107.112869
 20
604.022949
 11
116.112465
 21
605.047913
  0
LINE
  8
LC-008-003-----0
 62
     2
  6
DIVIDE
 10
122.118362
 20
605.731934
 11
135.844513
 21
604.193481
  0
LINE
  8
LC-008-003-----0
 62
     2
  6
DIVIDE
 10
135.844513
 20
604.193481
 11
151.196487
 21
605.472534
  0
LINE
  8
LC-008-003-----0
 62
     2
  6
DIVIDE
 10
151.196487
 20
605.472534
 11
158.112457
 21
604.344910
  0
LINE
  8
LC-008-003-----0
 62
     2
  6
DIVIDE
 10
118.112465
 20
605.275696
 11
122.118362
 21
605.731934
  0
ENDSEC
  0
EOF
