  0
SECTION
  2
HEADER
  9
$LIMMIN
 10
532.394287
 20
78.175919
  9
$LIMMAX
 10
955.661682
 20
397.737549
  9
$EXTMIN
 10
532.394287
 20
78.175919
  9
$EXTMAX
 10
955.661682
 20
397.737549
  0
ENDSEC
  0
SECTION
  2
TABLES
  0
TABLE
  2
LTYPE
 70
     4
  0
LTYPE
  2
CONTINUOUS
 70
    64
  3
Ausgezogene Linie
 72
    65
 73
     0
 40
0.0
  0
LTYPE
  2
DASHED
 70
    64
  3
__ __ __ __ __ __ __ __ __ __ __ __ __ __ __
 72
    65
 73
     2
 40
0.75
 49
0.5
 49
-0.25
  0
LTYPE
  2
DASHDOT
 70
    64
  3
__ . __ . __ . __ . __ . __ . __ . __ . __ . __
 72
    65
 73
     4
 40
1.0
 49
0.5
 49
-0.25
 49
0.0
 49
-0.25
  0
LTYPE
  2
DIVIDE
 70
    64
  3
__ . . __ . . __ . . __ . . __ . . __ . . __
 72
    65
 73
     6
 40
1.25
 49
0.5
 49
-0.25
 49
0.0
 49
-0.25
 49
0.0
 49
-0.25
  0
ENDTAB
  0
TABLE
  2
LAYER
 70
     4
  0
LAYER
  2
LC-003-002-----0
 70
    64
 62
     7
  6
CONTINUOUS
  0
LAYER
  2
LC-004-006-----0
 70
    64
 62
     7
  6
CONTINUOUS
  0
LAYER
  2
LC-006-012-----0
 70
    64
 62
     7
  6
CONTINUOUS
  0
LAYER
  2
LC-008-003-----0
 70
    64
 62
     7
  6
CONTINUOUS
  0
ENDTAB
  0
TABLE
  2
STYLE
 70
     1
  0
STYLE
  2
TXT8
 70
    64
 40
0.0
 41
1.0
 50
0.0
 71
     0
 42
3.500000
  3
TXT8
  4

  0
ENDTAB
  0
ENDSEC
  0
SECTION
  2
BLOCKS
  0
ENDSEC
  0
SECTION
  2
ENTITIES
  0
LINE
  8
LC-006-012-----0
 62
     2
  6
DASHED
 10
565.172546
 20
282.373932
 11
565.172546
 21
102.373947
  0
LINE
  8
LC-006-012-----0
 62
     2
  6
DASHED
 10
588.487976
 20
282.373932
 11
588.487976
 21
102.373947
  0
LINE
  8
LC-006-012-----0
 62
     2
  6
DASHED
 10
600.330261
 20
282.373932
 11
600.330261
 21
214.373962
  0
LINE
  8
LC-006-012-----0
 62
     2
  6
DASHED
 10
553.330261
 20
282.373932
 11
553.330261
 21
214.373962
  0
LINE
  8
LC-004-006-----0
 62
     2
  6
DASHDOT
 10
576.830261
 20
301.844849
 11
576.830261
 21
84.339027
  0
LINE
  8
LC-003-002-----0
 62
     1
  6
CONTINUOUS
 10
534.830261
 20
394.371613
 11
534.830261
 21
334.371613
  0
LINE
  8
LC-003-002-----0
 62
     1
  6
CONTINUOUS
 10
534.830261
 20
394.371613
 11
714.830261
 21
394.371613
  0
LINE
  8
LC-003-002-----0
 62
     1
  6
CONTINUOUS
 10
714.830261
 20
394.371613
 11
714.830261
 21
334.371613
  0
LINE
  8
LC-003-002-----0
 62
     1
  6
CONTINUOUS
 10
534.830261
 20
334.371613
 11
565.172546
 21
334.371613
  0
LINE
  8
LC-004-006-----0
 62
     2
  6
DASHDOT
 10
645.567200
 20
359.371613
 11
699.698059
 21
359.371613
  0
LINE
  8
LC-004-006-----0
 62
     2
  6
DASHDOT
 10
672.830261
 20
334.371613
 11
672.830261
 21
385.589294
  0
CIRCLE
  8
LC-003-002-----0
 62
     1
  6
CONTINUOUS
 10
672.830261
 20
359.371613
 40
15.000000
  0
ARC
  8
LC-003-002-----0
 62
     1
  6
CONTINUOUS
 10
672.830261
 20
359.371613
 40
23.500000
 50
294.999999
 51
244.999996
  0
ARC
  8
LC-003-002-----0
 62
     1
  6
CONTINUOUS
 10
672.830261
 20
359.371613
 40
21.000000
 50
294.999999
 51
244.999996
  0
LINE
  8
LC-003-002-----0
 62
     1
  6
CONTINUOUS
 10
679.169556
 20
345.776978
 11
682.761780
 21
338.073364
  0
LINE
  8
LC-003-002-----0
 62
     1
  6
CONTINUOUS
 10
666.490967
 20
345.776978
 11
662.898743
 21
338.073364
  0
LINE
  8
LC-003-002-----0
 62
     1
  6
CONTINUOUS
 10
684.487976
 20
334.371613
 11
714.830261
 21
334.371613
  0
LINE
  8
LC-003-002-----0
 62
     1
  6
CONTINUOUS
 10
662.898743
 20
338.073364
 11
661.172546
 21
334.371613
  0
LINE
  8
LC-003-002-----0
 62
     1
  6
CONTINUOUS
 10
682.761780
 20
338.073364
 11
684.487976
 21
334.371613
  0
LINE
  8
LC-004-006-----0
 62
     2
  6
DASHDOT
 10
703.830261
 20
330.066162
 11
703.830261
 21
397.737549
  0
LINE
  8
LC-006-012-----0
 62
     2
  6
DASHED
 10
709.830261
 20
368.371613
 11
709.830261
 21
394.371613
  0
LINE
  8
LC-006-012-----0
 62
     2
  6
DASHED
 10
697.830261
 20
368.371613
 11
697.830261
 21
394.371613
  0
LINE
  8
LC-006-012-----0
 62
     2
  6
DASHED
 10
709.080261
 20
345.371613
 11
709.080261
 21
394.371613
  0
LINE
  8
LC-006-012-----0
 62
     2
  6
DASHED
 10
698.580261
 20
345.371613
 11
698.580261
 21
394.371613
  0
LINE
  8
LC-006-012-----0
 62
     2
  6
DASHED
 10
697.830261
 20
368.371613
 11
709.830261
 21
368.371613
  0
LINE
  8
LC-006-012-----0
 62
     2
  6
DASHED
 10
694.830261
 20
345.371613
 11
712.830261
 21
345.371613
  0
LINE
  8
LC-006-012-----0
 62
     2
  6
DASHED
 10
712.830261
 20
334.371613
 11
712.830261
 21
345.371613
  0
LINE
  8
LC-006-012-----0
 62
     2
  6
DASHED
 10
694.830261
 20
334.371613
 11
694.830261
 21
345.371613
  0
LINE
  8
LC-004-006-----0
 62
     2
  6
DASHDOT
 10
576.830261
 20
334.371613
 11
576.830261
 21
385.589294
  0
CIRCLE
  8
LC-003-002-----0
 62
     1
  6
CONTINUOUS
 10
576.830261
 20
359.371613
 40
15.000000
  0
ARC
  8
LC-003-002-----0
 62
     1
  6
CONTINUOUS
 10
576.830261
 20
359.371613
 40
23.500000
 50
294.999999
 51
244.999996
  0
ARC
  8
LC-003-002-----0
 62
     1
  6
CONTINUOUS
 10
576.830261
 20
359.371613
 40
21.000000
 50
294.999999
 51
244.999996
  0
LINE
  8
LC-003-002-----0
 62
     1
  6
CONTINUOUS
 10
570.490967
 20
345.776978
 11
566.898743
 21
338.073364
  0
LINE
  8
LC-003-002-----0
 62
     1
  6
CONTINUOUS
 10
583.169556
 20
345.776978
 11
586.761780
 21
338.073364
  0
LINE
  8
LC-003-002-----0
 62
     1
  6
CONTINUOUS
 10
586.761780
 20
338.073364
 11
588.487976
 21
334.371613
  0
LINE
  8
LC-003-002-----0
 62
     1
  6
CONTINUOUS
 10
566.898743
 20
338.073364
 11
565.172546
 21
334.371613
  0
LINE
  8
LC-004-006-----0
 62
     2
  6
DASHDOT
 10
545.830261
 20
330.066162
 11
545.830261
 21
397.737549
  0
LINE
  8
LC-006-012-----0
 62
     2
  6
DASHED
 10
539.830261
 20
368.371613
 11
539.830261
 21
394.371613
  0
LINE
  8
LC-006-012-----0
 62
     2
  6
DASHED
 10
551.830261
 20
368.371613
 11
551.830261
 21
394.371613
  0
LINE
  8
LC-006-012-----0
 62
     2
  6
DASHED
 10
540.580261
 20
345.371613
 11
540.580261
 21
394.371613
  0
LINE
  8
LC-006-012-----0
 62
     2
  6
DASHED
 10
551.080261
 20
345.371613
 11
551.080261
 21
394.371613
  0
LINE
  8
LC-006-012-----0
 62
     2
  6
DASHED
 10
551.830261
 20
368.371613
 11
539.830261
 21
368.371613
  0
LINE
  8
LC-006-012-----0
 62
     2
  6
DASHED
 10
554.830261
 20
345.371613
 11
536.830261
 21
345.371613
  0
LINE
  8
LC-006-012-----0
 62
     2
  6
DASHED
 10
536.830261
 20
334.371613
 11
536.830261
 21
345.371613
  0
LINE
  8
LC-006-012-----0
 62
     2
  6
DASHED
 10
554.830261
 20
334.371613
 11
554.830261
 21
345.371613
  0
LINE
  8
LC-004-006-----0
 62
     2
  6
DASHDOT
 10
604.093323
 20
359.371613
 11
549.962463
 21
359.371613
  0
LINE
  8
LC-003-002-----0
 62
     1
  6
CONTINUOUS
 10
588.487976
 20
334.371613
 11
661.172546
 21
334.371613
  0
LINE
  8
LC-008-003-----0
 62
     2
  6
DIVIDE
 10
611.330261
 20
317.371613
 11
542.330261
 21
317.371613
  0
LINE
  8
LC-008-003-----0
 62
     2
  6
DIVIDE
 10
611.330261
 20
317.371613
 11
611.330261
 21
324.371613
  0
LINE
  8
LC-008-003-----0
 62
     2
  6
DIVIDE
 10
542.330261
 20
317.371613
 11
542.330261
 21
324.371613
  0
LINE
  8
LC-008-003-----0
 62
     2
  6
DIVIDE
 10
611.330261
 20
324.371613
 11
602.830261
 21
324.371613
  0
LINE
  8
LC-008-003-----0
 62
     2
  6
DIVIDE
 10
561.330261
 20
324.371613
 11
552.830261
 21
324.371613
  0
LINE
  8
LC-008-003-----0
 62
     2
  6
DIVIDE
 10
550.830261
 20
324.371613
 11
542.330261
 21
324.371613
  0
LINE
  8
LC-008-003-----0
 62
     2
  6
DIVIDE
 10
561.330261
 20
324.371613
 11
571.172974
 21
345.479340
  0
LINE
  8
LC-008-003-----0
 62
     2
  6
DIVIDE
 10
592.330261
 20
324.371613
 11
582.487549
 21
345.479340
  0
LINE
  8
LC-008-003-----0
 62
     2
  6
DIVIDE
 10
601.830261
 20
323.371613
 11
600.830261
 21
324.371613
  0
LINE
  8
LC-008-003-----0
 62
     2
  6
DIVIDE
 10
551.830261
 20
323.371613
 11
552.830261
 21
324.371613
  0
LINE
  8
LC-008-003-----0
 62
     2
  6
DIVIDE
 10
551.830261
 20
323.371613
 11
550.830261
 21
324.371613
  0
LINE
  8
LC-008-003-----0
 62
     2
  6
DIVIDE
 10
601.830261
 20
323.371613
 11
602.830261
 21
324.371613
  0
LINE
  8
LC-008-003-----0
 62
     2
  6
DIVIDE
 10
600.830261
 20
324.371613
 11
592.330261
 21
324.371613
  0
LINE
  8
LC-008-003-----0
 62
     2
  6
DIVIDE
 10
571.172974
 20
345.479340
 11
576.830261
 21
343.695587
  0
LINE
  8
LC-008-003-----0
 62
     2
  6
DIVIDE
 10
582.487549
 20
345.479340
 11
576.830261
 21
343.695587
  0
LINE
  8
LC-008-003-----0
 62
     2
  6
DIVIDE
 10
638.330261
 20
317.371613
 11
707.330261
 21
317.371613
  0
LINE
  8
LC-008-003-----0
 62
     2
  6
DIVIDE
 10
638.330261
 20
317.371613
 11
638.330261
 21
324.371613
  0
LINE
  8
LC-008-003-----0
 62
     2
  6
DIVIDE
 10
707.330261
 20
317.371613
 11
707.330261
 21
324.371613
  0
LINE
  8
LC-008-003-----0
 62
     2
  6
DIVIDE
 10
638.330261
 20
324.371613
 11
646.830261
 21
324.371613
  0
LINE
  8
LC-008-003-----0
 62
     2
  6
DIVIDE
 10
688.330261
 20
324.371613
 11
696.830261
 21
324.371613
  0
LINE
  8
LC-008-003-----0
 62
     2
  6
DIVIDE
 10
698.830261
 20
324.371613
 11
707.330261
 21
324.371613
  0
LINE
  8
LC-008-003-----0
 62
     2
  6
DIVIDE
 10
688.330261
 20
324.371613
 11
678.487549
 21
345.479340
  0
LINE
  8
LC-008-003-----0
 62
     2
  6
DIVIDE
 10
657.330261
 20
324.371613
 11
667.172974
 21
345.479340
  0
LINE
  8
LC-008-003-----0
 62
     2
  6
DIVIDE
 10
647.830261
 20
323.371613
 11
648.830261
 21
324.371613
  0
LINE
  8
LC-008-003-----0
 62
     2
  6
DIVIDE
 10
697.830261
 20
323.371613
 11
696.830261
 21
324.371613
  0
LINE
  8
LC-008-003-----0
 62
     2
  6
DIVIDE
 10
697.830261
 20
323.371613
 11
698.830261
 21
324.371613
  0
LINE
  8
LC-008-003-----0
 62
     2
  6
DIVIDE
 10
647.830261
 20
323.371613
 11
646.830261
 21
324.371613
  0
LINE
  8
LC-008-003-----0
 62
     2
  6
DIVIDE
 10
648.830261
 20
324.371613
 11
657.330261
 21
324.371613
  0
LINE
  8
LC-008-003-----0
 62
     2
  6
DIVIDE
 10
678.487549
 20
345.479340
 11
672.830261
 21
343.695587
  0
LINE
  8
LC-008-003-----0
 62
     2
  6
DIVIDE
 10
667.172974
 20
345.479340
 11
672.830261
 21
343.695587
  0
LINE
  8
LC-003-002-----0
 62
     1
  6
CONTINUOUS
 10
534.830261
 20
282.373932
 11
534.830261
 21
102.373947
  0
LINE
  8
LC-003-002-----0
 62
     1
  6
CONTINUOUS
 10
534.830261
 20
102.373940
 11
714.830261
 21
102.373940
  0
LINE
  8
LC-003-002-----0
 62
     1
  6
CONTINUOUS
 10
714.830261
 20
282.373932
 11
714.830261
 21
102.373947
  0
LINE
  8
LC-003-002-----0
 62
     1
  6
CONTINUOUS
 10
534.830261
 20
282.373932
 11
714.830261
 21
282.373932
  0
LINE
  8
LC-004-006-----0
 62
     2
  6
DASHDOT
 10
545.830261
 20
285.005493
 11
545.830261
 21
258.575256
  0
LINE
  8
LC-004-006-----0
 62
     2
  6
DASHDOT
 10
558.673645
 20
271.373932
 11
532.394287
 21
271.373932
  0
CIRCLE
  8
LC-003-002-----0
 62
     1
  6
CONTINUOUS
 10
545.830261
 20
271.373932
 40
5.250000
  0
ARC
  8
LC-006-012-----0
 62
     2
  6
CONTINUOUS
 10
545.830261
 20
271.373932
 40
6.000000
 50
78.845668
 51
10.389330
  0
CIRCLE
  8
LC-006-012-----0
 62
     2
  6
DASHED
 10
545.830261
 20
271.373932
 40
9.000000
  0
LINE
  8
LC-004-006-----0
 62
     2
  6
DASHDOT
 10
545.830261
 20
99.742378
 11
545.830261
 21
126.172615
  0
LINE
  8
LC-004-006-----0
 62
     2
  6
DASHDOT
 10
558.673645
 20
113.373940
 11
532.394287
 21
113.373940
  0
CIRCLE
  8
LC-003-002-----0
 62
     1
  6
CONTINUOUS
 10
545.830261
 20
113.373940
 40
5.250000
  0
ARC
  8
LC-006-012-----0
 62
     2
  6
CONTINUOUS
 10
545.830261
 20
113.373940
 40
6.000000
 50
349.610670
 51
281.154332
  0
CIRCLE
  8
LC-006-012-----0
 62
     2
  6
DASHED
 10
545.830261
 20
113.373940
 40
9.000000
  0
LINE
  8
LC-006-012-----0
 62
     2
  6
DASHED
 10
684.487976
 20
282.373932
 11
684.487976
 21
102.373947
  0
LINE
  8
LC-006-012-----0
 62
     2
  6
DASHED
 10
661.172546
 20
282.373932
 11
661.172546
 21
102.373947
  0
LINE
  8
LC-006-012-----0
 62
     2
  6
DASHED
 10
649.330261
 20
282.373932
 11
649.330261
 21
214.373962
  0
LINE
  8
LC-006-012-----0
 62
     2
  6
DASHED
 10
696.330261
 20
282.373932
 11
696.330261
 21
214.373962
  0
LINE
  8
LC-004-006-----0
 62
     2
  6
DASHDOT
 10
672.830261
 20
301.844849
 11
672.830261
 21
84.339027
  0
LINE
  8
LC-004-006-----0
 62
     2
  6
DASHDOT
 10
703.830261
 20
285.005493
 11
703.830261
 21
258.575256
  0
CIRCLE
  8
LC-003-002-----0
 62
     1
  6
CONTINUOUS
 10
703.830261
 20
271.373932
 40
5.250000
  0
ARC
  8
LC-006-012-----0
 62
     2
  6
CONTINUOUS
 10
703.830261
 20
271.373932
 40
6.000000
 50
169.610673
 51
101.154330
  0
CIRCLE
  8
LC-006-012-----0
 62
     2
  6
DASHED
 10
703.830261
 20
271.373932
 40
9.000000
  0
LINE
  8
LC-004-006-----0
 62
     2
  6
DASHDOT
 10
703.830261
 20
99.742378
 11
703.830261
 21
126.172615
  0
LINE
  8
LC-006-012-----0
 62
     2
  6
DASHED
 10
553.330261
 20
214.373947
 11
600.330261
 21
214.373947
  0
LINE
  8
LC-006-012-----0
 62
     2
  6
DASHED
 10
553.330261
 20
170.373947
 11
600.330261
 21
170.373947
  0
LINE
  8
LC-006-012-----0
 62
     2
  6
DASHED
 10
553.330261
 20
214.373947
 11
553.330261
 21
170.373947
  0
LINE
  8
LC-006-012-----0
 62
     2
  6
DASHED
 10
553.330261
 20
170.373947
 11
553.330261
 21
102.373932
  0
LINE
  8
LC-006-012-----0
 62
     2
  6
DASHED
 10
600.330261
 20
214.373947
 11
600.330261
 21
170.373947
  0
LINE
  8
LC-006-012-----0
 62
     2
  6
DASHED
 10
600.330261
 20
170.373947
 11
600.330261
 21
102.373932
  0
LINE
  8
LC-008-003-----0
 62
     2
  6
DIVIDE
 10
561.830261
 20
297.373932
 11
591.830261
 21
297.373932
  0
LINE
  8
LC-008-003-----0
 62
     2
  6
DIVIDE
 10
561.830261
 20
297.373932
 11
561.830261
 21
282.373932
  0
LINE
  8
LC-008-003-----0
 62
     2
  6
DIVIDE
 10
591.830261
 20
297.373932
 11
591.830261
 21
282.373932
  0
LINE
  8
LC-006-012-----0
 62
     2
  6
DASHED
 10
561.830261
 20
282.373932
 11
561.830261
 21
102.373947
  0
LINE
  8
LC-006-012-----0
 62
     2
  6
DASHED
 10
591.830261
 20
282.373932
 11
591.830261
 21
102.373947
  0
LINE
  8
LC-008-003-----0
 62
     2
  6
DIVIDE
 10
542.330261
 20
297.373932
 11
542.330261
 21
282.373932
  0
LINE
  8
LC-008-003-----0
 62
     2
  6
DIVIDE
 10
561.330261
 20
297.373932
 11
561.330261
 21
282.373932
  0
LINE
  8
LC-008-003-----0
 62
     2
  6
DIVIDE
 10
592.330261
 20
297.373932
 11
592.330261
 21
282.373932
  0
LINE
  8
LC-008-003-----0
 62
     2
  6
DIVIDE
 10
611.330261
 20
297.373932
 11
611.330261
 21
282.373932
  0
LINE
  8
LC-008-003-----0
 62
     2
  6
DIVIDE
 10
571.172974
 20
297.373932
 11
571.172974
 21
282.373932
  0
LINE
  8
LC-008-003-----0
 62
     2
  6
DIVIDE
 10
582.487549
 20
297.373932
 11
582.487549
 21
282.373932
  0
LINE
  8
LC-008-003-----0
 62
     2
  6
DIVIDE
 10
591.830261
 20
297.373932
 11
611.330261
 21
297.373932
  0
LINE
  8
LC-008-003-----0
 62
     2
  6
DIVIDE
 10
561.830261
 20
297.373932
 11
542.330261
 21
297.373932
  0
LINE
  8
LC-008-003-----0
 62
     2
  6
DIVIDE
 10
561.830261
 20
90.050934
 11
566.791992
 21
88.959763
  0
LINE
  8
LC-008-003-----0
 62
     2
  6
DIVIDE
 10
561.830261
 20
90.050934
 11
561.830261
 21
102.373940
  0
LINE
  8
LC-008-003-----0
 62
     2
  6
DIVIDE
 10
591.830261
 20
90.303421
 11
591.830261
 21
102.373940
  0
LINE
  8
LC-008-003-----0
 62
     2
  6
DIVIDE
 10
542.330261
 20
80.000053
 11
542.330261
 21
102.373940
  0
LINE
  8
LC-008-003-----0
 62
     2
  6
DIVIDE
 10
561.330261
 20
79.176384
 11
561.330261
 21
102.373940
  0
LINE
  8
LC-008-003-----0
 62
     2
  6
DIVIDE
 10
592.330261
 20
80.648354
 11
592.330261
 21
102.373940
  0
LINE
  8
LC-008-003-----0
 62
     2
  6
DIVIDE
 10
611.330261
 20
79.928223
 11
611.330261
 21
102.373940
  0
LINE
  8
LC-008-003-----0
 62
     2
  6
DIVIDE
 10
571.172974
 20
78.791054
 11
571.172974
 21
102.373940
  0
LINE
  8
LC-008-003-----0
 62
     2
  6
DIVIDE
 10
582.487549
 20
79.072197
 11
582.487549
 21
102.373940
  0
LINE
  8
LC-008-003-----0
 62
     2
  6
DIVIDE
 10
566.791992
 20
88.959763
 11
575.331299
 21
90.345024
  0
LINE
  8
LC-008-003-----0
 62
     2
  6
DIVIDE
 10
575.331299
 20
90.345024
 11
585.843018
 21
89.806313
  0
CIRCLE
  8
LC-003-002-----0
 62
     1
  6
CONTINUOUS
 10
703.830261
 20
113.373940
 40
5.250000
  0
ARC
  8
LC-006-012-----0
 62
     2
  6
CONTINUOUS
 10
703.830261
 20
113.373940
 40
6.000000
 50
258.845670
 51
190.389327
  0
LINE
  8
LC-008-003-----0
 62
     2
  6
DIVIDE
 10
585.843018
 20
89.806313
 11
591.830261
 21
90.303421
  0
LINE
  8
LC-008-003-----0
 62
     2
  6
DIVIDE
 10
542.330261
 20
80.000053
 11
551.581665
 21
78.175919
  0
LINE
  8
LC-008-003-----0
 62
     2
  6
DIVIDE
 10
551.581665
 20
78.175919
 11
563.143799
 21
79.176384
  0
LINE
  8
LC-008-003-----0
 62
     2
  6
DIVIDE
 10
563.143799
 20
79.176384
 11
579.179993
 21
78.406792
  0
LINE
  8
LC-008-003-----0
 62
     2
  6
DIVIDE
 10
579.179993
 20
78.406792
 11
591.054810
 21
80.795723
  0
LINE
  8
LC-008-003-----0
 62
     2
  6
DIVIDE
 10
591.054810
 20
80.795723
 11
605.735962
 21
79.099419
  0
LINE
  8
LC-008-003-----0
 62
     2
  6
DIVIDE
 10
605.735962
 20
79.099419
 11
611.330261
 21
79.928223
  0
CIRCLE
  8
LC-006-012-----0
 62
     2
  6
DASHED
 10
703.830261
 20
113.373940
 40
9.000000
  0
LINE
  8
LC-006-012-----0
 62
     2
  6
DASHED
 10
696.330261
 20
214.373947
 11
649.330261
 21
214.373947
  0
LINE
  8
LC-006-012-----0
 62
     2
  6
DASHED
 10
696.330261
 20
170.373947
 11
649.330261
 21
170.373947
  0
LINE
  8
LC-006-012-----0
 62
     2
  6
DASHED
 10
696.330261
 20
214.373947
 11
696.330261
 21
170.373947
  0
LINE
  8
LC-006-012-----0
 62
     2
  6
DASHED
 10
696.330261
 20
170.373947
 11
696.330261
 21
102.373932
  0
LINE
  8
LC-006-012-----0
 62
     2
  6
DASHED
 10
649.330261
 20
214.373947
 11
649.330261
 21
170.373947
  0
LINE
  8
LC-006-012-----0
 62
     2
  6
DASHED
 10
649.330261
 20
170.373947
 11
649.330261
 21
102.373932
  0
LINE
  8
LC-008-003-----0
 62
     2
  6
DIVIDE
 10
687.830261
 20
297.373932
 11
657.830261
 21
297.373932
  0
LINE
  8
LC-008-003-----0
 62
     2
  6
DIVIDE
 10
687.830261
 20
297.373932
 11
687.830261
 21
282.373932
  0
LINE
  8
LC-008-003-----0
 62
     2
  6
DIVIDE
 10
657.830261
 20
297.373932
 11
657.830261
 21
282.373932
  0
LINE
  8
LC-006-012-----0
 62
     2
  6
DASHED
 10
687.830261
 20
282.373932
 11
687.830261
 21
102.373947
  0
LINE
  8
LC-006-012-----0
 62
     2
  6
DASHED
 10
657.830261
 20
282.373932
 11
657.830261
 21
102.373947
  0
LINE
  8
LC-008-003-----0
 62
     2
  6
DIVIDE
 10
707.330261
 20
297.373932
 11
707.330261
 21
282.373932
  0
LINE
  8
LC-008-003-----0
 62
     2
  6
DIVIDE
 10
688.330261
 20
297.373932
 11
688.330261
 21
282.373932
  0
LINE
  8
LC-008-003-----0
 62
     2
  6
DIVIDE
 10
657.330261
 20
297.373932
 11
657.330261
 21
282.373932
  0
LINE
  8
LC-008-003-----0
 62
     2
  6
DIVIDE
 10
638.330261
 20
297.373932
 11
638.330261
 21
282.373932
  0
LINE
  8
LC-008-003-----0
 62
     2
  6
DIVIDE
 10
678.487549
 20
297.373932
 11
678.487549
 21
282.373932
  0
LINE
  8
LC-008-003-----0
 62
     2
  6
DIVIDE
 10
667.172974
 20
297.373932
 11
667.172974
 21
282.373932
  0
LINE
  8
LC-008-003-----0
 62
     2
  6
DIVIDE
 10
657.830261
 20
297.373932
 11
638.330261
 21
297.373932
  0
LINE
  8
LC-008-003-----0
 62
     2
  6
DIVIDE
 10
687.830261
 20
297.373932
 11
707.330261
 21
297.373932
  0
LINE
  8
LC-008-003-----0
 62
     2
  6
DIVIDE
 10
687.830261
 20
90.050934
 11
682.868530
 21
88.959763
  0
LINE
  8
LC-008-003-----0
 62
     2
  6
DIVIDE
 10
687.830261
 20
90.050934
 11
687.830261
 21
102.373940
  0
LINE
  8
LC-008-003-----0
 62
     2
  6
DIVIDE
 10
657.830261
 20
90.303421
 11
657.830261
 21
102.373940
  0
LINE
  8
LC-008-003-----0
 62
     2
  6
DIVIDE
 10
707.330261
 20
80.000053
 11
707.330261
 21
102.373940
  0
LINE
  8
LC-008-003-----0
 62
     2
  6
DIVIDE
 10
688.330261
 20
79.176384
 11
688.330261
 21
102.373940
  0
LINE
  8
LC-008-003-----0
 62
     2
  6
DIVIDE
 10
657.330261
 20
80.648354
 11
657.330261
 21
102.373940
  0
LINE
  8
LC-008-003-----0
 62
     2
  6
DIVIDE
 10
638.330261
 20
79.928223
 11
638.330261
 21
102.373940
  0
LINE
  8
LC-008-003-----0
 62
     2
  6
DIVIDE
 10
678.487549
 20
78.791054
 11
678.487549
 21
102.373940
  0
LINE
  8
LC-008-003-----0
 62
     2
  6
DIVIDE
 10
667.172974
 20
79.072197
 11
667.172974
 21
102.373940
  0
LINE
  8
LC-008-003-----0
 62
     2
  6
DIVIDE
 10
682.868530
 20
88.959763
 11
674.329224
 21
90.345024
  0
LINE
  8
LC-008-003-----0
 62
     2
  6
DIVIDE
 10
674.329224
 20
90.345024
 11
663.817505
 21
89.806313
  0
LINE
  8
LC-008-003-----0
 62
     2
  6
DIVIDE
 10
663.817505
 20
89.806313
 11
657.830261
 21
90.303421
  0
LINE
  8
LC-008-003-----0
 62
     2
  6
DIVIDE
 10
707.330261
 20
80.000053
 11
698.078857
 21
78.175919
  0
LINE
  8
LC-008-003-----0
 62
     2
  6
DIVIDE
 10
698.078857
 20
78.175919
 11
686.516724
 21
79.176384
  0
LINE
  8
LC-008-003-----0
 62
     2
  6
DIVIDE
 10
686.516724
 20
79.176384
 11
670.480530
 21
78.406792
  0
LINE
  8
LC-008-003-----0
 62
     2
  6
DIVIDE
 10
670.480530
 20
78.406792
 11
658.605713
 21
80.795723
  0
LINE
  8
LC-008-003-----0
 62
     2
  6
DIVIDE
 10
658.605713
 20
80.795723
 11
643.924561
 21
79.099419
  0
LINE
  8
LC-008-003-----0
 62
     2
  6
DIVIDE
 10
643.924561
 20
79.099419
 11
638.330261
 21
79.928223
  0
LINE
  8
LC-004-006-----0
 62
     2
  6
DASHDOT
 10
690.986938
 20
113.373940
 11
717.266235
 21
113.373940
  0
LINE
  8
LC-004-006-----0
 62
     2
  6
DASHDOT
 10
690.986938
 20
271.373932
 11
717.266235
 21
271.373932
  0
LINE
  8
LC-003-002-----0
 62
     1
  6
CONTINUOUS
 10
749.826843
 20
394.371613
 11
929.826843
 21
394.371613
  0
LINE
  8
LC-003-002-----0
 62
     1
  6
CONTINUOUS
 10
929.826843
 20
394.371613
 11
929.826843
 21
334.371613
  0
LINE
  8
LC-003-002-----0
 62
     1
  6
CONTINUOUS
 10
749.826843
 20
334.371613
 11
929.826843
 21
334.371613
  0
LINE
  8
LC-003-002-----0
 62
     1
  6
CONTINUOUS
 10
749.826843
 20
394.371613
 11
749.826843
 21
334.371613
  0
LINE
  8
LC-004-006-----0
 62
     2
  6
DASHDOT
 10
760.826843
 20
330.066162
 11
760.826843
 21
397.737549
  0
LINE
  8
LC-006-012-----0
 62
     2
  6
DASHED
 10
754.826843
 20
368.371613
 11
754.826843
 21
394.371613
  0
LINE
  8
LC-006-012-----0
 62
     2
  6
DASHED
 10
766.826843
 20
368.371613
 11
766.826843
 21
394.371613
  0
LINE
  8
LC-006-012-----0
 62
     2
  6
DASHED
 10
755.576843
 20
345.371613
 11
755.576843
 21
394.371613
  0
LINE
  8
LC-006-012-----0
 62
     2
  6
DASHED
 10
766.076843
 20
345.371613
 11
766.076843
 21
394.371613
  0
LINE
  8
LC-006-012-----0
 62
     2
  6
DASHED
 10
766.826843
 20
368.371613
 11
754.826843
 21
368.371613
  0
LINE
  8
LC-006-012-----0
 62
     2
  6
DASHED
 10
769.826843
 20
345.371613
 11
751.826843
 21
345.371613
  0
LINE
  8
LC-006-012-----0
 62
     2
  6
DASHED
 10
751.826843
 20
334.371613
 11
751.826843
 21
345.371613
  0
LINE
  8
LC-006-012-----0
 62
     2
  6
DASHED
 10
769.826843
 20
334.371613
 11
769.826843
 21
345.371613
  0
LINE
  8
LC-004-006-----0
 62
     2
  6
DASHDOT
 10
918.826843
 20
330.066162
 11
918.826843
 21
397.737549
  0
LINE
  8
LC-006-012-----0
 62
     2
  6
DASHED
 10
924.826843
 20
368.371613
 11
924.826843
 21
394.371613
  0
LINE
  8
LC-006-012-----0
 62
     2
  6
DASHED
 10
912.826843
 20
368.371613
 11
912.826843
 21
394.371613
  0
LINE
  8
LC-006-012-----0
 62
     2
  6
DASHED
 10
924.076843
 20
345.371613
 11
924.076843
 21
394.371613
  0
LINE
  8
LC-006-012-----0
 62
     2
  6
DASHED
 10
913.576843
 20
345.371613
 11
913.576843
 21
394.371613
  0
LINE
  8
LC-006-012-----0
 62
     2
  6
DASHED
 10
912.826843
 20
368.371613
 11
924.826843
 21
368.371613
  0
LINE
  8
LC-006-012-----0
 62
     2
  6
DASHED
 10
909.826843
 20
345.371613
 11
927.826843
 21
345.371613
  0
LINE
  8
LC-006-012-----0
 62
     2
  6
DASHED
 10
927.826843
 20
334.371613
 11
927.826843
 21
345.371613
  0
LINE
  8
LC-006-012-----0
 62
     2
  6
DASHED
 10
909.826843
 20
334.371613
 11
909.826843
 21
345.371613
  0
LINE
  8
LC-004-006-----0
 62
     2
  6
DASHDOT
 10
727.139648
 20
359.371613
 11
951.587769
 21
359.371613
  0
LINE
  8
LC-006-012-----0
 62
     2
  6
DASHED
 10
749.826843
 20
382.871613
 11
817.826843
 21
382.871613
  0
LINE
  8
LC-006-012-----0
 62
     2
  6
DASHED
 10
749.826843
 20
338.073364
 11
817.826843
 21
338.073364
  0
LINE
  8
LC-006-012-----0
 62
     2
  6
DASHED
 10
817.826843
 20
382.871613
 11
817.826843
 21
338.073364
  0
LINE
  8
LC-006-012-----0
 62
     2
  6
DASHED
 10
861.826843
 20
382.871613
 11
861.826843
 21
338.073364
  0
LINE
  8
LC-006-012-----0
 62
     2
  6
DASHED
 10
817.826843
 20
382.871613
 11
861.826843
 21
382.871613
  0
LINE
  8
LC-006-012-----0
 62
     2
  6
DASHED
 10
861.826843
 20
382.871613
 11
929.826843
 21
382.871613
  0
LINE
  8
LC-006-012-----0
 62
     2
  6
DASHED
 10
817.826843
 20
338.073364
 11
861.826843
 21
338.073364
  0
LINE
  8
LC-006-012-----0
 62
     2
  6
DASHED
 10
861.826843
 20
338.073364
 11
929.826843
 21
338.073364
  0
LINE
  8
LC-008-003-----0
 62
     2
  6
DIVIDE
 10
734.826843
 20
374.371613
 11
749.826843
 21
374.371613
  0
LINE
  8
LC-008-003-----0
 62
     2
  6
DIVIDE
 10
734.826843
 20
344.371613
 11
749.826843
 21
344.371613
  0
LINE
  8
LC-008-003-----0
 62
     2
  6
DIVIDE
 10
734.826843
 20
374.371613
 11
734.826843
 21
344.371613
  0
LINE
  8
LC-006-012-----0
 62
     2
  6
DASHED
 10
749.826843
 20
374.371613
 11
929.826843
 21
374.371613
  0
LINE
  8
LC-006-012-----0
 62
     2
  6
DASHED
 10
749.826843
 20
344.371613
 11
929.826843
 21
344.371613
  0
LINE
  8
LC-008-003-----0
 62
     2
  6
DIVIDE
 10
734.826843
 20
324.371613
 11
954.987366
 21
324.371613
  0
LINE
  8
LC-008-003-----0
 62
     2
  6
DIVIDE
 10
734.826843
 20
317.371613
 11
955.119751
 21
317.371613
  0
LINE
  8
LC-008-003-----0
 62
     2
  6
DIVIDE
 10
734.826843
 20
345.479340
 11
954.137512
 21
345.479340
  0
LINE
  8
LC-008-003-----0
 62
     2
  6
DIVIDE
 10
734.826843
 20
344.371613
 11
734.826843
 21
317.371613
  0
LINE
  8
LC-008-003-----0
 62
     2
  6
DIVIDE
 10
944.991455
 20
374.371613
 11
945.982788
 21
367.721344
  0
LINE
  8
LC-008-003-----0
 62
     2
  6
DIVIDE
 10
945.982788
 20
367.721344
 11
944.201172
 21
357.520233
  0
LINE
  8
LC-008-003-----0
 62
     2
  6
DIVIDE
 10
944.201172
 20
357.520233
 11
945.871399
 21
350.525391
  0
LINE
  8
LC-008-003-----0
 62
     2
  6
DIVIDE
 10
945.871399
 20
350.525391
 11
945.499756
 21
344.371613
  0
LINE
  8
LC-008-003-----0
 62
     2
  6
DIVIDE
 10
929.826843
 20
344.371613
 11
945.499756
 21
344.371613
  0
LINE
  8
LC-008-003-----0
 62
     2
  6
DIVIDE
 10
945.499756
 20
344.371613
 11
945.499756
 21
344.371613
  0
LINE
  8
LC-008-003-----0
 62
     2
  6
DIVIDE
 10
929.826843
 20
374.371613
 11
944.991455
 21
374.371613
  0
LINE
  8
LC-008-003-----0
 62
     2
  6
DIVIDE
 10
954.137512
 20
345.479340
 11
955.661682
 21
339.248688
  0
LINE
  8
LC-008-003-----0
 62
     2
  6
DIVIDE
 10
955.661682
 20
339.248688
 11
954.102783
 21
330.691833
  0
LINE
  8
LC-008-003-----0
 62
     2
  6
DIVIDE
 10
954.102783
 20
330.691833
 11
955.438965
 21
321.144989
  0
LINE
  8
LC-008-003-----0
 62
     2
  6
DIVIDE
 10
955.438965
 20
321.144989
 11
955.119751
 21
317.371613
  0
ENDSEC
  0
EOF
