  0
SECTION
  2
HEADER
  9
$LIMMIN
 10
89.872948
 20
360.054962
  9
$LIMMAX
 10
624.785339
 20
757.210999
  9
$EXTMIN
 10
89.872948
 20
360.054962
  9
$EXTMAX
 10
624.785339
 20
757.210999
  0
ENDSEC
  0
SECTION
  2
TABLES
  0
TABLE
  2
LTYPE
 70
     4
  0
LTYPE
  2
CONTINUOUS
 70
    64
  3
Ausgezogene Linie
 72
    65
 73
     0
 40
0.0
  0
LTYPE
  2
DASHED
 70
    64
  3
__ __ __ __ __ __ __ __ __ __ __ __ __ __ __
 72
    65
 73
     2
 40
0.75
 49
0.5
 49
-0.25
  0
LTYPE
  2
DASHDOT
 70
    64
  3
__ . __ . __ . __ . __ . __ . __ . __ . __ . __
 72
    65
 73
     4
 40
1.0
 49
0.5
 49
-0.25
 49
0.0
 49
-0.25
  0
LTYPE
  2
DIVIDE
 70
    64
  3
__ . . __ . . __ . . __ . . __ . . __ . . __
 72
    65
 73
     6
 40
1.25
 49
0.5
 49
-0.25
 49
0.0
 49
-0.25
 49
0.0
 49
-0.25
  0
ENDTAB
  0
TABLE
  2
LAYER
 70
     4
  0
LAYER
  2
LC-004-006-----0
 70
    64
 62
     7
  6
CONTINUOUS
  0
LAYER
  2
LC-003-002-----0
 70
    64
 62
     7
  6
CONTINUOUS
  0
LAYER
  2
LC-006-012-----0
 70
    64
 62
     7
  6
CONTINUOUS
  0
LAYER
  2
LC-008-003-----0
 70
    64
 62
     7
  6
CONTINUOUS
  0
ENDTAB
  0
TABLE
  2
STYLE
 70
     1
  0
STYLE
  2
TXT8
 70
    64
 40
0.0
 41
1.0
 50
0.0
 71
     0
 42
3.500000
  3
TXT8
  4

  0
ENDTAB
  0
ENDSEC
  0
SECTION
  2
BLOCKS
  0
ENDSEC
  0
SECTION
  2
ENTITIES
  0
LINE
  8
LC-004-006-----0
 62
     1
  6
CONTINUOUS
 10
91.674904
 20
751.703613
 11
91.674904
 21
674.703613
  0
LINE
  8
LC-004-006-----0
 62
     1
  6
CONTINUOUS
 10
91.674904
 20
674.703613
 11
130.753052
 21
674.703613
  0
LINE
  8
LC-004-006-----0
 62
     1
  6
CONTINUOUS
 10
91.674904
 20
751.703613
 11
321.674896
 21
751.703613
  0
LINE
  8
LC-004-006-----0
 62
     1
  6
CONTINUOUS
 10
321.674896
 20
751.703613
 11
321.674896
 21
674.703613
  0
LINE
  8
LC-003-002-----0
 62
     2
  6
DASHDOT
 10
232.242401
 20
706.703613
 11
301.912842
 21
706.703613
  0
LINE
  8
LC-003-002-----0
 62
     2
  6
DASHDOT
 10
307.674896
 20
669.262329
 11
307.674896
 21
757.210999
  0
LINE
  8
LC-006-012-----0
 62
     2
  6
DASHED
 10
315.674896
 20
717.703613
 11
315.674896
 21
751.703613
  0
LINE
  8
LC-006-012-----0
 62
     2
  6
DASHED
 10
299.674896
 20
717.703613
 11
299.674896
 21
751.703613
  0
LINE
  8
LC-006-012-----0
 62
     2
  6
DASHED
 10
314.424896
 20
687.703613
 11
314.424896
 21
751.703613
  0
LINE
  8
LC-006-012-----0
 62
     2
  6
DASHED
 10
300.924896
 20
687.703613
 11
300.924896
 21
751.703613
  0
LINE
  8
LC-006-012-----0
 62
     2
  6
DASHED
 10
299.674896
 20
717.703613
 11
315.674896
 21
717.703613
  0
LINE
  8
LC-006-012-----0
 62
     2
  6
DASHED
 10
297.674896
 20
687.703613
 11
317.674896
 21
687.703613
  0
LINE
  8
LC-006-012-----0
 62
     2
  6
DASHED
 10
317.674896
 20
674.703613
 11
317.674896
 21
687.703613
  0
LINE
  8
LC-006-012-----0
 62
     2
  6
DASHED
 10
297.674896
 20
674.703613
 11
297.674896
 21
687.703613
  0
LINE
  8
LC-003-002-----0
 62
     2
  6
DASHDOT
 10
267.674896
 20
674.703613
 11
267.674896
 21
741.738525
  0
CIRCLE
  8
LC-004-006-----0
 62
     1
  6
CONTINUOUS
 10
267.674896
 20
706.703613
 40
20.000000
  0
ARC
  8
LC-004-006-----0
 62
     1
  6
CONTINUOUS
 10
267.674896
 20
706.703613
 40
31.000000
 50
294.999999
 51
244.999996
  0
ARC
  8
LC-004-006-----0
 62
     1
  6
CONTINUOUS
 10
267.674896
 20
706.703613
 40
28.000000
 50
294.999999
 51
244.999996
  0
LINE
  8
LC-004-006-----0
 62
     1
  6
CONTINUOUS
 10
276.127258
 20
688.577454
 11
280.776062
 21
678.608093
  0
LINE
  8
LC-004-006-----0
 62
     1
  6
CONTINUOUS
 10
259.222534
 20
688.577454
 11
254.573730
 21
678.608093
  0
LINE
  8
LC-004-006-----0
 62
     1
  6
CONTINUOUS
 10
282.596741
 20
674.703613
 11
321.674896
 21
674.703613
  0
LINE
  8
LC-004-006-----0
 62
     1
  6
CONTINUOUS
 10
254.573730
 20
678.608093
 11
252.753052
 21
674.703613
  0
LINE
  8
LC-004-006-----0
 62
     1
  6
CONTINUOUS
 10
280.776062
 20
678.608093
 11
282.596741
 21
674.703613
  0
LINE
  8
LC-003-002-----0
 62
     2
  6
DASHDOT
 10
181.107407
 20
706.703613
 11
111.436974
 21
706.703613
  0
LINE
  8
LC-003-002-----0
 62
     2
  6
DASHDOT
 10
105.674904
 20
669.262329
 11
105.674904
 21
757.210999
  0
LINE
  8
LC-006-012-----0
 62
     2
  6
DASHED
 10
97.674904
 20
717.703613
 11
97.674904
 21
751.703613
  0
LINE
  8
LC-006-012-----0
 62
     2
  6
DASHED
 10
113.674904
 20
717.703613
 11
113.674904
 21
751.703613
  0
LINE
  8
LC-006-012-----0
 62
     2
  6
DASHED
 10
98.924904
 20
687.703613
 11
98.924904
 21
751.703613
  0
LINE
  8
LC-006-012-----0
 62
     2
  6
DASHED
 10
112.424904
 20
687.703613
 11
112.424904
 21
751.703613
  0
LINE
  8
LC-006-012-----0
 62
     2
  6
DASHED
 10
113.674904
 20
717.703613
 11
97.674904
 21
717.703613
  0
LINE
  8
LC-006-012-----0
 62
     2
  6
DASHED
 10
115.674904
 20
687.703613
 11
95.674904
 21
687.703613
  0
LINE
  8
LC-006-012-----0
 62
     2
  6
DASHED
 10
95.674904
 20
674.703613
 11
95.674904
 21
687.703613
  0
LINE
  8
LC-006-012-----0
 62
     2
  6
DASHED
 10
115.674904
 20
674.703613
 11
115.674904
 21
687.703613
  0
LINE
  8
LC-003-002-----0
 62
     2
  6
DASHDOT
 10
145.674911
 20
674.703613
 11
145.674911
 21
741.738525
  0
CIRCLE
  8
LC-004-006-----0
 62
     1
  6
CONTINUOUS
 10
145.674911
 20
706.703613
 40
20.000000
  0
LINE
  8
LC-004-006-----0
 62
     1
  6
CONTINUOUS
 10
91.674904
 20
616.700989
 11
91.674904
 21
386.700989
  0
ARC
  8
LC-004-006-----0
 62
     1
  6
CONTINUOUS
 10
145.674911
 20
706.703613
 40
28.000000
 50
294.999999
 51
244.999996
  0
LINE
  8
LC-004-006-----0
 62
     1
  6
CONTINUOUS
 10
137.222534
 20
688.577454
 11
132.573730
 21
678.608093
  0
LINE
  8
LC-004-006-----0
 62
     1
  6
CONTINUOUS
 10
154.127274
 20
688.577454
 11
158.776077
 21
678.608093
  0
LINE
  8
LC-004-006-----0
 62
     1
  6
CONTINUOUS
 10
158.776077
 20
678.608093
 11
160.596756
 21
674.703613
  0
LINE
  8
LC-004-006-----0
 62
     1
  6
CONTINUOUS
 10
132.573730
 20
678.608093
 11
130.753052
 21
674.703613
  0
LINE
  8
LC-004-006-----0
 62
     1
  6
CONTINUOUS
 10
160.596756
 20
674.703613
 11
252.753052
 21
674.703613
  0
LINE
  8
LC-008-003-----0
 62
     2
  6
DIVIDE
 10
182.174911
 20
656.703613
 11
154.174911
 21
656.703613
  0
LINE
  8
LC-008-003-----0
 62
     2
  6
DIVIDE
 10
182.174911
 20
656.703613
 11
182.174911
 21
664.703613
  0
LINE
  8
LC-008-003-----0
 62
     2
  6
DIVIDE
 10
109.174904
 20
656.703613
 11
109.174904
 21
664.703613
  0
LINE
  8
LC-008-003-----0
 62
     2
  6
DIVIDE
 10
182.174911
 20
664.703613
 11
174.674911
 21
664.703613
  0
LINE
  8
LC-008-003-----0
 62
     2
  6
DIVIDE
 10
126.174904
 20
664.703613
 11
118.674904
 21
664.703613
  0
LINE
  8
LC-008-003-----0
 62
     2
  6
DIVIDE
 10
116.674904
 20
664.703613
 11
109.174904
 21
664.703613
  0
LINE
  8
LC-008-003-----0
 62
     2
  6
DIVIDE
 10
137.292358
 20
688.545044
 11
126.174904
 21
664.703613
  0
LINE
  8
LC-008-003-----0
 62
     2
  6
DIVIDE
 10
154.057449
 20
688.545044
 11
165.174911
 21
664.703613
  0
LINE
  8
LC-008-003-----0
 62
     2
  6
DIVIDE
 10
173.674911
 20
663.703613
 11
172.674911
 21
664.703613
  0
LINE
  8
LC-008-003-----0
 62
     2
  6
DIVIDE
 10
117.674904
 20
663.703613
 11
118.674904
 21
664.703613
  0
LINE
  8
LC-008-003-----0
 62
     2
  6
DIVIDE
 10
117.674904
 20
663.703613
 11
116.674904
 21
664.703613
  0
LINE
  8
LC-008-003-----0
 62
     2
  6
DIVIDE
 10
173.674911
 20
663.703613
 11
174.674911
 21
664.703613
  0
LINE
  8
LC-008-003-----0
 62
     2
  6
DIVIDE
 10
172.674911
 20
664.703613
 11
165.174911
 21
664.703613
  0
LINE
  8
LC-008-003-----0
 62
     2
  6
DIVIDE
 10
137.292358
 20
688.545044
 11
145.674911
 21
685.902039
  0
LINE
  8
LC-008-003-----0
 62
     2
  6
DIVIDE
 10
154.057449
 20
688.545044
 11
145.674911
 21
685.902039
  0
LINE
  8
LC-008-003-----0
 62
     2
  6
DIVIDE
 10
154.174911
 20
667.203613
 11
137.174911
 21
667.203613
  0
LINE
  8
LC-008-003-----0
 62
     2
  6
DIVIDE
 10
154.174911
 20
656.703613
 11
154.174911
 21
667.203613
  0
LINE
  8
LC-008-003-----0
 62
     2
  6
DIVIDE
 10
137.174911
 20
656.703613
 11
137.174911
 21
667.203613
  0
ARC
  8
LC-004-006-----0
 62
     1
  6
CONTINUOUS
 10
145.674911
 20
706.703613
 40
31.000000
 50
294.999999
 51
244.999996
  0
LINE
  8
LC-008-003-----0
 62
     2
  6
DIVIDE
 10
137.174911
 20
656.703613
 11
109.174896
 21
656.703613
  0
LINE
  8
LC-008-003-----0
 62
     2
  6
DIVIDE
 10
240.674911
 20
664.703613
 11
248.174911
 21
664.703613
  0
LINE
  8
LC-008-003-----0
 62
     2
  6
DIVIDE
 10
239.674911
 20
663.703613
 11
240.674911
 21
664.703613
  0
LINE
  8
LC-008-003-----0
 62
     2
  6
DIVIDE
 10
239.674911
 20
663.703613
 11
238.674911
 21
664.703613
  0
LINE
  8
LC-008-003-----0
 62
     2
  6
DIVIDE
 10
231.174911
 20
664.703613
 11
238.674911
 21
664.703613
  0
LINE
  8
LC-008-003-----0
 62
     2
  6
DIVIDE
 10
231.174911
 20
656.703613
 11
231.174911
 21
664.703613
  0
LINE
  8
LC-008-003-----0
 62
     2
  6
DIVIDE
 10
231.174911
 20
656.703613
 11
259.174896
 21
656.703613
  0
LINE
  8
LC-008-003-----0
 62
     2
  6
DIVIDE
 10
259.174896
 20
656.703613
 11
259.174896
 21
667.203613
  0
LINE
  8
LC-008-003-----0
 62
     2
  6
DIVIDE
 10
259.174896
 20
667.203613
 11
276.174896
 21
667.203613
  0
LINE
  8
LC-008-003-----0
 62
     2
  6
DIVIDE
 10
276.174896
 20
656.703613
 11
276.174896
 21
667.203613
  0
LINE
  8
LC-008-003-----0
 62
     2
  6
DIVIDE
 10
276.174896
 20
656.703613
 11
304.174896
 21
656.703613
  0
LINE
  8
LC-008-003-----0
 62
     2
  6
DIVIDE
 10
304.174896
 20
656.703613
 11
304.174896
 21
664.703613
  0
LINE
  8
LC-008-003-----0
 62
     2
  6
DIVIDE
 10
296.674896
 20
664.703613
 11
304.174896
 21
664.703613
  0
LINE
  8
LC-008-003-----0
 62
     2
  6
DIVIDE
 10
295.674896
 20
663.703613
 11
296.674896
 21
664.703613
  0
LINE
  8
LC-008-003-----0
 62
     2
  6
DIVIDE
 10
295.674896
 20
663.703613
 11
294.674896
 21
664.703613
  0
LINE
  8
LC-008-003-----0
 62
     2
  6
DIVIDE
 10
287.174896
 20
664.703613
 11
294.674896
 21
664.703613
  0
LINE
  8
LC-008-003-----0
 62
     2
  6
DIVIDE
 10
276.057465
 20
688.545044
 11
287.174896
 21
664.703613
  0
LINE
  8
LC-008-003-----0
 62
     2
  6
DIVIDE
 10
276.057465
 20
688.545044
 11
267.674896
 21
685.902039
  0
LINE
  8
LC-008-003-----0
 62
     2
  6
DIVIDE
 10
259.292358
 20
688.545044
 11
267.674896
 21
685.902039
  0
LINE
  8
LC-008-003-----0
 62
     2
  6
DIVIDE
 10
259.292358
 20
688.545044
 11
248.174911
 21
664.703613
  0
LINE
  8
LC-004-006-----0
 62
     1
  6
CONTINUOUS
 10
91.674904
 20
386.700989
 11
321.674896
 21
386.700989
  0
LINE
  8
LC-004-006-----0
 62
     1
  6
CONTINUOUS
 10
321.674896
 20
616.700989
 11
321.674896
 21
386.700989
  0
LINE
  8
LC-004-006-----0
 62
     1
  6
CONTINUOUS
 10
91.674904
 20
616.700989
 11
321.674896
 21
616.700989
  0
LINE
  8
LC-003-002-----0
 62
     2
  6
DASHDOT
 10
105.674904
 20
618.670410
 11
105.674904
 21
587.956177
  0
LINE
  8
LC-003-002-----0
 62
     2
  6
DASHDOT
 10
119.665833
 20
602.700989
 11
89.872948
 21
602.700989
  0
CIRCLE
  8
LC-004-006-----0
 62
     1
  6
CONTINUOUS
 10
105.674904
 20
602.700989
 40
6.750000
  0
ARC
  8
LC-006-012-----0
 62
     2
  6
CONTINUOUS
 10
105.674904
 20
602.700989
 40
8.000000
 50
80.983880
 51
10.976525
  0
CIRCLE
  8
LC-006-012-----0
 62
     2
  6
DASHED
 10
105.674904
 20
602.700989
 40
10.000000
  0
LINE
  8
LC-003-002-----0
 62
     2
  6
DASHDOT
 10
105.674904
 20
384.731537
 11
105.674904
 21
415.445770
  0
LINE
  8
LC-003-002-----0
 62
     2
  6
DASHDOT
 10
119.665833
 20
400.700989
 11
89.872948
 21
400.700989
  0
CIRCLE
  8
LC-004-006-----0
 62
     1
  6
CONTINUOUS
 10
105.674904
 20
400.700989
 40
6.750000
  0
ARC
  8
LC-006-012-----0
 62
     2
  6
CONTINUOUS
 10
105.674904
 20
400.700989
 40
8.000000
 50
349.023475
 51
279.016120
  0
CIRCLE
  8
LC-006-012-----0
 62
     2
  6
DASHED
 10
105.674904
 20
400.700989
 40
10.000000
  0
LINE
  8
LC-003-002-----0
 62
     2
  6
DASHDOT
 10
307.674896
 20
618.670410
 11
307.674896
 21
587.956177
  0
LINE
  8
LC-003-002-----0
 62
     2
  6
DASHDOT
 10
293.683990
 20
602.700989
 11
323.476868
 21
602.700989
  0
CIRCLE
  8
LC-004-006-----0
 62
     1
  6
CONTINUOUS
 10
307.674896
 20
602.700989
 40
6.750000
  0
ARC
  8
LC-006-012-----0
 62
     2
  6
CONTINUOUS
 10
307.674896
 20
602.700989
 40
8.000000
 50
169.023481
 51
99.016125
  0
CIRCLE
  8
LC-006-012-----0
 62
     2
  6
DASHED
 10
307.674896
 20
602.700989
 40
10.000000
  0
LINE
  8
LC-003-002-----0
 62
     2
  6
DASHDOT
 10
307.674896
 20
384.731537
 11
307.674896
 21
415.445770
  0
LINE
  8
LC-003-002-----0
 62
     2
  6
DASHDOT
 10
293.683990
 20
400.700989
 11
323.476868
 21
400.700989
  0
CIRCLE
  8
LC-004-006-----0
 62
     1
  6
CONTINUOUS
 10
307.674896
 20
400.700989
 40
6.750000
  0
ARC
  8
LC-006-012-----0
 62
     2
  6
CONTINUOUS
 10
307.674896
 20
400.700989
 40
8.000000
 50
260.983875
 51
190.976519
  0
CIRCLE
  8
LC-006-012-----0
 62
     2
  6
DASHED
 10
307.674896
 20
400.700989
 40
10.000000
  0
LINE
  8
LC-006-012-----0
 62
     2
  6
DASHED
 10
114.674904
 20
616.700989
 11
114.674904
 21
536.700989
  0
LINE
  8
LC-006-012-----0
 62
     2
  6
DASHED
 10
176.674911
 20
616.700989
 11
176.674911
 21
536.700989
  0
LINE
  8
LC-006-012-----0
 62
     2
  6
DASHED
 10
130.837982
 20
616.700989
 11
130.837982
 21
386.700989
  0
LINE
  8
LC-006-012-----0
 62
     2
  6
DASHED
 10
160.596756
 20
616.700989
 11
160.596756
 21
386.700989
  0
LINE
  8
LC-006-012-----0
 62
     2
  6
DASHED
 10
114.674904
 20
466.700989
 11
176.674911
 21
466.700989
  0
LINE
  8
LC-006-012-----0
 62
     2
  6
DASHED
 10
114.674904
 20
536.700989
 11
176.674911
 21
536.700989
  0
LINE
  8
LC-006-012-----0
 62
     2
  6
DASHED
 10
114.674904
 20
536.700989
 11
114.674904
 21
466.700989
  0
LINE
  8
LC-006-012-----0
 62
     2
  6
DASHED
 10
114.674904
 20
466.700989
 11
114.674904
 21
386.700989
  0
LINE
  8
LC-006-012-----0
 62
     2
  6
DASHED
 10
176.674911
 20
536.700989
 11
176.674911
 21
466.700989
  0
LINE
  8
LC-006-012-----0
 62
     2
  6
DASHED
 10
176.674911
 20
466.700989
 11
176.674911
 21
386.700989
  0
LINE
  8
LC-008-003-----0
 62
     2
  6
DIVIDE
 10
125.674904
 20
631.700989
 11
125.674904
 21
616.700989
  0
LINE
  8
LC-008-003-----0
 62
     2
  6
DIVIDE
 10
165.674911
 20
631.700989
 11
165.674911
 21
616.700989
  0
LINE
  8
LC-008-003-----0
 62
     2
  6
DIVIDE
 10
125.674904
 20
631.700989
 11
165.674911
 21
631.700989
  0
LINE
  8
LC-006-012-----0
 62
     2
  6
DASHED
 10
125.674904
 20
616.700989
 11
125.674904
 21
386.700989
  0
LINE
  8
LC-006-012-----0
 62
     2
  6
DASHED
 10
165.674911
 20
616.700989
 11
165.674911
 21
386.700989
  0
LINE
  8
LC-008-003-----0
 62
     2
  6
DIVIDE
 10
109.174904
 20
631.700989
 11
109.174904
 21
616.700989
  0
LINE
  8
LC-008-003-----0
 62
     2
  6
DIVIDE
 10
126.174904
 20
631.700989
 11
126.174904
 21
616.700989
  0
LINE
  8
LC-008-003-----0
 62
     2
  6
DIVIDE
 10
137.292358
 20
631.700989
 11
137.292358
 21
616.700989
  0
LINE
  8
LC-008-003-----0
 62
     2
  6
DIVIDE
 10
154.057449
 20
631.700989
 11
154.057449
 21
616.700989
  0
LINE
  8
LC-008-003-----0
 62
     2
  6
DIVIDE
 10
165.174911
 20
631.700989
 11
165.174911
 21
616.700989
  0
LINE
  8
LC-008-003-----0
 62
     2
  6
DIVIDE
 10
182.174911
 20
631.700989
 11
182.174911
 21
616.700989
  0
LINE
  8
LC-008-003-----0
 62
     2
  6
DIVIDE
 10
165.674911
 20
631.700989
 11
182.174911
 21
631.700989
  0
LINE
  8
LC-008-003-----0
 62
     2
  6
DIVIDE
 10
125.674904
 20
631.700989
 11
109.174904
 21
631.700989
  0
LINE
  8
LC-008-003-----0
 62
     2
  6
DIVIDE
 10
125.674904
 20
371.818420
 11
125.674904
 21
386.700989
  0
LINE
  8
LC-008-003-----0
 62
     2
  6
DIVIDE
 10
165.674911
 20
370.588745
 11
165.674911
 21
386.700989
  0
LINE
  8
LC-008-003-----0
 62
     2
  6
DIVIDE
 10
125.674904
 20
371.818420
 11
131.945541
 21
372.835663
  0
LINE
  8
LC-008-003-----0
 62
     2
  6
DIVIDE
 10
109.174904
 20
362.808960
 11
109.174904
 21
386.700989
  0
LINE
  8
LC-008-003-----0
 62
     2
  6
DIVIDE
 10
126.174904
 20
362.659332
 11
126.174904
 21
386.700989
  0
LINE
  8
LC-008-003-----0
 62
     2
  6
DIVIDE
 10
137.292358
 20
360.969330
 11
137.292358
 21
386.700989
  0
LINE
  8
LC-008-003-----0
 62
     2
  6
DIVIDE
 10
154.057449
 20
360.570953
 11
154.057449
 21
386.700989
  0
LINE
  8
LC-008-003-----0
 62
     2
  6
DIVIDE
 10
165.174911
 20
360.865784
 11
165.174911
 21
386.700989
  0
LINE
  8
LC-008-003-----0
 62
     2
  6
DIVIDE
 10
182.174911
 20
361.840363
 11
182.174911
 21
386.700989
  0
LINE
  8
LC-008-003-----0
 62
     2
  6
DIVIDE
 10
131.945541
 20
372.835663
 11
141.803482
 21
371.121552
  0
LINE
  8
LC-008-003-----0
 62
     2
  6
DIVIDE
 10
141.803482
 20
371.121552
 11
153.286575
 21
372.150024
  0
LINE
  8
LC-008-003-----0
 62
     2
  6
DIVIDE
 10
153.286575
 20
372.150024
 11
165.674911
 21
370.588745
  0
LINE
  8
LC-008-003-----0
 62
     2
  6
DIVIDE
 10
109.174904
 20
362.808960
 11
115.363831
 21
361.340515
  0
LINE
  8
LC-008-003-----0
 62
     2
  6
DIVIDE
 10
115.363831
 20
361.340515
 11
124.641373
 21
362.972473
  0
LINE
  8
LC-008-003-----0
 62
     2
  6
DIVIDE
 10
124.641373
 20
362.972473
 11
134.731476
 21
360.912018
  0
LINE
  8
LC-008-003-----0
 62
     2
  6
DIVIDE
 10
134.731476
 20
360.912018
 11
146.214569
 21
361.169128
  0
LINE
  8
LC-008-003-----0
 62
     2
  6
DIVIDE
 10
146.214569
 20
361.169128
 11
160.822891
 21
360.054962
  0
LINE
  8
LC-008-003-----0
 62
     2
  6
DIVIDE
 10
160.822891
 20
360.054962
 11
174.163269
 21
362.540405
  0
LINE
  8
LC-008-003-----0
 62
     2
  6
DIVIDE
 10
174.163269
 20
362.540405
 11
182.174911
 21
361.840363
  0
LINE
  8
LC-006-012-----0
 62
     2
  6
DASHED
 10
298.674896
 20
616.700989
 11
298.674896
 21
536.700989
  0
LINE
  8
LC-006-012-----0
 62
     2
  6
DASHED
 10
236.674911
 20
616.700989
 11
236.674911
 21
536.700989
  0
LINE
  8
LC-006-012-----0
 62
     2
  6
DASHED
 10
282.511841
 20
616.700989
 11
282.511841
 21
386.700989
  0
LINE
  8
LC-006-012-----0
 62
     2
  6
DASHED
 10
252.753052
 20
616.700989
 11
252.753052
 21
386.700989
  0
LINE
  8
LC-006-012-----0
 62
     2
  6
DASHED
 10
298.674896
 20
466.700989
 11
236.674927
 21
466.700989
  0
LINE
  8
LC-006-012-----0
 62
     2
  6
DASHED
 10
298.674896
 20
536.700989
 11
236.674927
 21
536.700989
  0
LINE
  8
LC-006-012-----0
 62
     2
  6
DASHED
 10
298.674896
 20
536.700989
 11
298.674896
 21
466.700989
  0
LINE
  8
LC-006-012-----0
 62
     2
  6
DASHED
 10
298.674896
 20
466.700989
 11
298.674896
 21
386.700989
  0
LINE
  8
LC-006-012-----0
 62
     2
  6
DASHED
 10
236.674911
 20
536.700989
 11
236.674911
 21
466.700989
  0
LINE
  8
LC-006-012-----0
 62
     2
  6
DASHED
 10
236.674911
 20
466.700989
 11
236.674911
 21
386.700989
  0
LINE
  8
LC-008-003-----0
 62
     2
  6
DIVIDE
 10
287.674896
 20
631.700989
 11
287.674896
 21
616.700989
  0
LINE
  8
LC-008-003-----0
 62
     2
  6
DIVIDE
 10
247.674911
 20
631.700989
 11
247.674911
 21
616.700989
  0
LINE
  8
LC-008-003-----0
 62
     2
  6
DIVIDE
 10
287.674896
 20
631.700989
 11
247.674927
 21
631.700989
  0
LINE
  8
LC-006-012-----0
 62
     2
  6
DASHED
 10
287.674896
 20
616.700989
 11
287.674896
 21
386.700989
  0
LINE
  8
LC-006-012-----0
 62
     2
  6
DASHED
 10
247.674911
 20
616.700989
 11
247.674911
 21
386.700989
  0
LINE
  8
LC-008-003-----0
 62
     2
  6
DIVIDE
 10
304.174896
 20
631.700989
 11
304.174896
 21
616.700989
  0
LINE
  8
LC-008-003-----0
 62
     2
  6
DIVIDE
 10
287.174896
 20
631.700989
 11
287.174896
 21
616.700989
  0
LINE
  8
LC-008-003-----0
 62
     2
  6
DIVIDE
 10
276.057465
 20
631.700989
 11
276.057465
 21
616.700989
  0
LINE
  8
LC-008-003-----0
 62
     2
  6
DIVIDE
 10
259.292358
 20
631.700989
 11
259.292358
 21
616.700989
  0
LINE
  8
LC-008-003-----0
 62
     2
  6
DIVIDE
 10
248.174911
 20
631.700989
 11
248.174911
 21
616.700989
  0
LINE
  8
LC-008-003-----0
 62
     2
  6
DIVIDE
 10
231.174911
 20
631.700989
 11
231.174911
 21
616.700989
  0
LINE
  8
LC-008-003-----0
 62
     2
  6
DIVIDE
 10
247.674911
 20
631.700989
 11
231.174911
 21
631.700989
  0
LINE
  8
LC-008-003-----0
 62
     2
  6
DIVIDE
 10
287.674896
 20
631.700989
 11
304.174896
 21
631.700989
  0
LINE
  8
LC-008-003-----0
 62
     2
  6
DIVIDE
 10
287.674896
 20
371.818420
 11
287.674896
 21
386.700989
  0
LINE
  8
LC-008-003-----0
 62
     2
  6
DIVIDE
 10
247.674911
 20
370.588745
 11
247.674911
 21
386.700989
  0
LINE
  8
LC-008-003-----0
 62
     2
  6
DIVIDE
 10
287.674896
 20
371.818420
 11
281.404266
 21
372.835663
  0
LINE
  8
LC-008-003-----0
 62
     2
  6
DIVIDE
 10
304.174896
 20
362.808960
 11
304.174896
 21
386.700989
  0
LINE
  8
LC-008-003-----0
 62
     2
  6
DIVIDE
 10
287.174896
 20
362.659332
 11
287.174896
 21
386.700989
  0
LINE
  8
LC-008-003-----0
 62
     2
  6
DIVIDE
 10
276.057465
 20
360.969330
 11
276.057465
 21
386.700989
  0
LINE
  8
LC-008-003-----0
 62
     2
  6
DIVIDE
 10
259.292358
 20
360.570953
 11
259.292358
 21
386.700989
  0
LINE
  8
LC-008-003-----0
 62
     2
  6
DIVIDE
 10
248.174911
 20
360.865784
 11
248.174911
 21
386.700989
  0
LINE
  8
LC-008-003-----0
 62
     2
  6
DIVIDE
 10
231.174911
 20
361.840363
 11
231.174911
 21
386.700989
  0
LINE
  8
LC-008-003-----0
 62
     2
  6
DIVIDE
 10
281.404266
 20
372.835663
 11
271.546326
 21
371.121552
  0
LINE
  8
LC-008-003-----0
 62
     2
  6
DIVIDE
 10
271.546326
 20
371.121552
 11
260.063232
 21
372.150024
  0
LINE
  8
LC-008-003-----0
 62
     2
  6
DIVIDE
 10
260.063232
 20
372.150024
 11
247.674911
 21
370.588745
  0
LINE
  8
LC-008-003-----0
 62
     2
  6
DIVIDE
 10
304.174896
 20
362.808960
 11
297.985992
 21
361.340515
  0
LINE
  8
LC-008-003-----0
 62
     2
  6
DIVIDE
 10
297.985992
 20
361.340515
 11
288.708435
 21
362.972473
  0
LINE
  8
LC-008-003-----0
 62
     2
  6
DIVIDE
 10
288.708435
 20
362.972473
 11
278.618317
 21
360.912018
  0
LINE
  8
LC-008-003-----0
 62
     2
  6
DIVIDE
 10
278.618317
 20
360.912018
 11
267.135254
 21
361.169128
  0
LINE
  8
LC-008-003-----0
 62
     2
  6
DIVIDE
 10
267.135254
 20
361.169128
 11
252.526901
 21
360.054962
  0
LINE
  8
LC-008-003-----0
 62
     2
  6
DIVIDE
 10
252.526917
 20
360.054962
 11
239.186539
 21
362.540405
  0
LINE
  8
LC-008-003-----0
 62
     2
  6
DIVIDE
 10
239.186539
 20
362.540405
 11
231.174911
 21
361.840363
  0
LINE
  8
LC-003-002-----0
 62
     2
  6
DASHDOT
 10
145.674911
 20
639.946106
 11
145.674911
 21
365.685120
  0
LINE
  8
LC-003-002-----0
 62
     2
  6
DASHDOT
 10
267.674896
 20
639.946106
 11
267.674896
 21
365.685120
  0
LINE
  8
LC-004-006-----0
 62
     1
  6
CONTINUOUS
 10
361.677917
 20
674.703613
 11
591.677917
 21
674.703613
  0
LINE
  8
LC-004-006-----0
 62
     1
  6
CONTINUOUS
 10
591.677917
 20
674.703613
 11
591.677917
 21
751.703613
  0
LINE
  8
LC-004-006-----0
 62
     1
  6
CONTINUOUS
 10
361.677917
 20
751.703613
 11
591.677917
 21
751.703613
  0
LINE
  8
LC-004-006-----0
 62
     1
  6
CONTINUOUS
 10
361.677917
 20
674.703613
 11
361.677917
 21
751.703613
  0
LINE
  8
LC-003-002-----0
 62
     2
  6
DASHDOT
 10
375.677917
 20
669.262329
 11
375.677917
 21
757.210999
  0
LINE
  8
LC-006-012-----0
 62
     2
  6
DASHED
 10
367.677917
 20
717.703613
 11
367.677917
 21
751.703613
  0
LINE
  8
LC-006-012-----0
 62
     2
  6
DASHED
 10
383.677917
 20
717.703613
 11
383.677917
 21
751.703613
  0
LINE
  8
LC-006-012-----0
 62
     2
  6
DASHED
 10
368.927917
 20
687.703613
 11
368.927917
 21
751.703613
  0
LINE
  8
LC-006-012-----0
 62
     2
  6
DASHED
 10
382.427917
 20
687.703613
 11
382.427917
 21
751.703613
  0
LINE
  8
LC-006-012-----0
 62
     2
  6
DASHED
 10
383.677917
 20
717.703613
 11
367.677917
 21
717.703613
  0
LINE
  8
LC-006-012-----0
 62
     2
  6
DASHED
 10
385.677917
 20
687.703613
 11
365.677917
 21
687.703613
  0
LINE
  8
LC-006-012-----0
 62
     2
  6
DASHED
 10
365.677917
 20
674.703613
 11
365.677917
 21
687.703613
  0
LINE
  8
LC-006-012-----0
 62
     2
  6
DASHED
 10
385.677917
 20
674.703613
 11
385.677917
 21
687.703613
  0
LINE
  8
LC-003-002-----0
 62
     2
  6
DASHDOT
 10
577.677917
 20
669.262329
 11
577.677917
 21
757.210999
  0
LINE
  8
LC-006-012-----0
 62
     2
  6
DASHED
 10
585.677917
 20
717.703613
 11
585.677917
 21
751.703613
  0
LINE
  8
LC-006-012-----0
 62
     2
  6
DASHED
 10
569.677917
 20
717.703613
 11
569.677917
 21
751.703613
  0
LINE
  8
LC-006-012-----0
 62
     2
  6
DASHED
 10
584.427917
 20
687.703613
 11
584.427917
 21
751.703613
  0
LINE
  8
LC-006-012-----0
 62
     2
  6
DASHED
 10
570.927917
 20
687.703613
 11
570.927917
 21
751.703613
  0
LINE
  8
LC-006-012-----0
 62
     2
  6
DASHED
 10
569.677917
 20
717.703613
 11
585.677917
 21
717.703613
  0
LINE
  8
LC-006-012-----0
 62
     2
  6
DASHED
 10
567.677917
 20
687.703613
 11
587.677917
 21
687.703613
  0
LINE
  8
LC-006-012-----0
 62
     2
  6
DASHED
 10
587.677917
 20
674.703613
 11
587.677917
 21
687.703613
  0
LINE
  8
LC-006-012-----0
 62
     2
  6
DASHED
 10
567.677917
 20
674.703613
 11
567.677917
 21
687.703613
  0
LINE
  8
LC-006-012-----0
 62
     2
  6
DASHED
 10
361.677917
 20
737.703613
 11
441.677917
 21
737.703613
  0
LINE
  8
LC-006-012-----0
 62
     2
  6
DASHED
 10
361.677917
 20
678.608093
 11
441.677917
 21
678.608093
  0
LINE
  8
LC-006-012-----0
 62
     2
  6
DASHED
 10
441.677917
 20
678.608093
 11
441.677917
 21
737.703613
  0
LINE
  8
LC-006-012-----0
 62
     2
  6
DASHED
 10
511.677917
 20
678.608093
 11
511.677917
 21
737.703613
  0
LINE
  8
LC-008-003-----0
 62
     2
  6
DIVIDE
 10
346.677917
 20
726.703613
 11
361.677917
 21
726.703613
  0
LINE
  8
LC-003-002-----0
 62
     2
  6
DASHDOT
 10
339.587616
 20
706.703613
 11
612.394836
 21
706.703613
  0
LINE
  8
LC-008-003-----0
 62
     2
  6
DIVIDE
 10
346.677917
 20
686.703613
 11
361.677917
 21
686.703613
  0
LINE
  8
LC-006-012-----0
 62
     2
  6
DASHED
 10
441.677917
 20
737.703613
 11
511.677917
 21
737.703613
  0
LINE
  8
LC-006-012-----0
 62
     2
  6
DASHED
 10
511.677917
 20
737.703613
 11
591.677917
 21
737.703613
  0
LINE
  8
LC-006-012-----0
 62
     2
  6
DASHED
 10
441.677917
 20
678.608093
 11
511.677917
 21
678.608093
  0
LINE
  8
LC-006-012-----0
 62
     2
  6
DASHED
 10
511.677917
 20
678.608093
 11
591.677917
 21
678.608093
  0
LINE
  8
LC-008-003-----0
 62
     2
  6
DIVIDE
 10
346.677917
 20
686.703613
 11
346.677917
 21
726.703613
  0
LINE
  8
LC-006-012-----0
 62
     2
  6
DASHED
 10
361.677917
 20
686.703613
 11
591.677917
 21
686.703613
  0
LINE
  8
LC-006-012-----0
 62
     2
  6
DASHED
 10
361.677917
 20
726.703613
 11
591.677917
 21
726.703613
  0
LINE
  8
LC-008-003-----0
 62
     2
  6
DIVIDE
 10
591.677917
 20
726.703613
 11
609.320251
 21
726.703613
  0
LINE
  8
LC-008-003-----0
 62
     2
  6
DIVIDE
 10
591.677917
 20
686.703613
 11
608.048401
 21
686.703613
  0
LINE
  8
LC-008-003-----0
 62
     2
  6
DIVIDE
 10
608.048401
 20
686.703613
 11
609.129211
 21
695.277710
  0
LINE
  8
LC-008-003-----0
 62
     2
  6
DIVIDE
 10
609.129211
 20
695.277710
 11
606.983215
 21
710.102844
  0
LINE
  8
LC-008-003-----0
 62
     2
  6
DIVIDE
 10
606.983215
 20
710.102844
 11
609.320251
 21
726.703613
  0
LINE
  8
LC-008-003-----0
 62
     2
  6
DIVIDE
 10
346.677917
 20
656.703613
 11
622.820984
 21
656.703613
  0
LINE
  8
LC-008-003-----0
 62
     2
  6
DIVIDE
 10
346.677917
 20
664.703613
 11
623.863892
 21
664.703613
  0
LINE
  8
LC-008-003-----0
 62
     2
  6
DIVIDE
 10
346.677917
 20
686.703613
 11
346.677917
 21
656.703613
  0
LINE
  8
LC-008-003-----0
 62
     2
  6
DIVIDE
 10
346.677917
 20
688.545044
 11
623.817322
 21
688.545044
  0
LINE
  8
LC-008-003-----0
 62
     2
  6
DIVIDE
 10
622.820984
 20
656.703613
 11
624.100342
 21
662.304077
  0
LINE
  8
LC-008-003-----0
 62
     2
  6
DIVIDE
 10
624.100342
 20
662.304077
 11
623.031433
 21
673.150696
  0
LINE
  8
LC-008-003-----0
 62
     2
  6
DIVIDE
 10
623.031433
 20
673.150696
 11
624.785339
 21
681.974304
  0
LINE
  8
LC-008-003-----0
 62
     2
  6
DIVIDE
 10
624.785339
 20
681.974304
 11
623.817322
 21
688.545044
  0
ENDSEC
  0
EOF
