  0
SECTION
  2
HEADER
  9
$LIMMIN
 10
468.641357
 20
47.621059
  9
$LIMMAX
 10
1098.562378
 20
519.084595
  9
$EXTMIN
 10
468.641357
 20
47.621059
  9
$EXTMAX
 10
1098.562378
 20
519.084595
  0
ENDSEC
  0
SECTION
  2
TABLES
  0
TABLE
  2
LTYPE
 70
     4
  0
LTYPE
  2
CONTINUOUS
 70
    64
  3
Ausgezogene Linie
 72
    65
 73
     0
 40
0.0
  0
LTYPE
  2
DASHED
 70
    64
  3
__ __ __ __ __ __ __ __ __ __ __ __ __ __ __
 72
    65
 73
     2
 40
0.75
 49
0.5
 49
-0.25
  0
LTYPE
  2
DASHDOT
 70
    64
  3
__ . __ . __ . __ . __ . __ . __ . __ . __ . __
 72
    65
 73
     4
 40
1.0
 49
0.5
 49
-0.25
 49
0.0
 49
-0.25
  0
LTYPE
  2
DIVIDE
 70
    64
  3
__ . . __ . . __ . . __ . . __ . . __ . . __
 72
    65
 73
     6
 40
1.25
 49
0.5
 49
-0.25
 49
0.0
 49
-0.25
 49
0.0
 49
-0.25
  0
ENDTAB
  0
TABLE
  2
LAYER
 70
     4
  0
LAYER
  2
LC-004-006-----0
 70
    64
 62
     7
  6
CONTINUOUS
  0
LAYER
  2
LC-003-002-----0
 70
    64
 62
     7
  6
CONTINUOUS
  0
LAYER
  2
LC-006-012-----0
 70
    64
 62
     7
  6
CONTINUOUS
  0
LAYER
  2
LC-008-003-----0
 70
    64
 62
     7
  6
CONTINUOUS
  0
ENDTAB
  0
TABLE
  2
STYLE
 70
     1
  0
STYLE
  2
TXT8
 70
    64
 40
0.0
 41
1.0
 50
0.0
 71
     0
 42
3.500000
  3
TXT8
  4

  0
ENDTAB
  0
ENDSEC
  0
SECTION
  2
BLOCKS
  0
ENDSEC
  0
SECTION
  2
ENTITIES
  0
LINE
  8
LC-004-006-----0
 62
     1
  6
CONTINUOUS
 10
468.641357
 20
507.933411
 11
468.641357
 21
414.933411
  0
LINE
  8
LC-004-006-----0
 62
     1
  6
CONTINUOUS
 10
468.641357
 20
414.933411
 11
514.921692
 21
414.933411
  0
LINE
  8
LC-004-006-----0
 62
     1
  6
CONTINUOUS
 10
468.641357
 20
507.933411
 11
748.641357
 21
507.933411
  0
LINE
  8
LC-004-006-----0
 62
     1
  6
CONTINUOUS
 10
748.641357
 20
507.933411
 11
748.641357
 21
414.933411
  0
LINE
  8
LC-004-006-----0
 62
     1
  6
CONTINUOUS
 10
788.645142
 20
507.933411
 11
1068.645142
 21
507.933411
  0
LINE
  8
LC-003-002-----0
 62
     2
  6
DASHDOT
 10
733.641357
 20
405.011230
 11
733.641357
 21
519.084595
  0
LINE
  8
LC-006-012-----0
 62
     2
  6
DASHED
 10
741.641357
 20
473.933411
 11
741.641357
 21
507.933411
  0
LINE
  8
LC-006-012-----0
 62
     2
  6
DASHED
 10
725.641357
 20
473.933411
 11
725.641357
 21
507.933411
  0
LINE
  8
LC-006-012-----0
 62
     2
  6
DASHED
 10
740.391357
 20
427.933411
 11
740.391357
 21
507.933411
  0
LINE
  8
LC-006-012-----0
 62
     2
  6
DASHED
 10
726.891357
 20
427.933411
 11
726.891357
 21
507.933411
  0
LINE
  8
LC-006-012-----0
 62
     2
  6
DASHED
 10
725.641357
 20
473.933411
 11
741.641357
 21
473.933411
  0
LINE
  8
LC-006-012-----0
 62
     2
  6
DASHED
 10
743.641357
 20
414.933411
 11
743.641357
 21
427.933411
  0
LINE
  8
LC-006-012-----0
 62
     2
  6
DASHED
 10
723.641357
 20
414.933411
 11
723.641357
 21
427.933411
  0
LINE
  8
LC-006-012-----0
 62
     2
  6
DASHED
 10
723.641357
 20
427.933411
 11
743.641357
 21
427.933411
  0
LINE
  8
LC-003-002-----0
 62
     2
  6
DASHDOT
 10
684.641357
 20
414.933411
 11
684.641357
 21
495.598450
  0
LINE
  8
LC-003-002-----0
 62
     2
  6
DASHDOT
 10
640.735229
 20
452.933411
 11
729.658447
 21
452.933411
  0
CIRCLE
  8
LC-004-006-----0
 62
     1
  6
CONTINUOUS
 10
684.641357
 20
452.933411
 40
25.000000
  0
CIRCLE
  8
LC-004-006-----0
 62
     1
  6
CONTINUOUS
 10
483.741364
 20
337.834991
 40
6.750000
  0
ARC
  8
LC-006-012-----0
 62
     2
  6
CONTINUOUS
 10
483.741364
 20
337.834991
 40
8.000000
 50
79.539233
 51
11.121209
  0
LINE
  8
LC-004-006-----0
 62
     1
  6
CONTINUOUS
 10
695.206848
 20
430.275726
 11
700.489563
 21
418.946869
  0
LINE
  8
LC-004-006-----0
 62
     1
  6
CONTINUOUS
 10
674.075928
 20
430.275726
 11
668.793152
 21
418.946869
  0
LINE
  8
LC-004-006-----0
 62
     1
  6
CONTINUOUS
 10
702.361084
 20
414.933411
 11
748.641357
 21
414.933411
  0
ARC
  8
LC-004-006-----0
 62
     1
  6
CONTINUOUS
 10
684.641357
 20
452.933411
 40
37.500000
 50
294.999999
 51
244.999996
  0
ARC
  8
LC-004-006-----0
 62
     1
  6
CONTINUOUS
 10
684.641357
 20
452.933411
 40
33.000000
 50
294.999999
 51
244.999996
  0
LINE
  8
LC-004-006-----0
 62
     1
  6
CONTINUOUS
 10
668.793152
 20
418.946869
 11
666.921692
 21
414.933411
  0
LINE
  8
LC-004-006-----0
 62
     1
  6
CONTINUOUS
 10
700.489563
 20
418.946869
 11
702.361084
 21
414.933411
  0
LINE
  8
LC-003-002-----0
 62
     2
  6
DASHDOT
 10
483.641357
 20
405.011230
 11
483.641357
 21
519.084595
  0
LINE
  8
LC-006-012-----0
 62
     2
  6
DASHED
 10
475.641357
 20
473.933411
 11
475.641357
 21
507.933411
  0
LINE
  8
LC-006-012-----0
 62
     2
  6
DASHED
 10
491.641357
 20
473.933411
 11
491.641357
 21
507.933411
  0
LINE
  8
LC-006-012-----0
 62
     2
  6
DASHED
 10
476.891357
 20
427.933411
 11
476.891357
 21
507.933411
  0
LINE
  8
LC-006-012-----0
 62
     2
  6
DASHED
 10
490.391357
 20
427.933411
 11
490.391357
 21
507.933411
  0
LINE
  8
LC-006-012-----0
 62
     2
  6
DASHED
 10
491.641357
 20
473.933411
 11
475.641357
 21
473.933411
  0
LINE
  8
LC-006-012-----0
 62
     2
  6
DASHED
 10
473.641357
 20
414.933411
 11
473.641357
 21
427.933411
  0
LINE
  8
LC-006-012-----0
 62
     2
  6
DASHED
 10
493.641357
 20
414.933411
 11
493.641357
 21
427.933411
  0
LINE
  8
LC-006-012-----0
 62
     2
  6
DASHED
 10
493.641357
 20
427.933411
 11
473.641357
 21
427.933411
  0
LINE
  8
LC-003-002-----0
 62
     2
  6
DASHDOT
 10
532.641357
 20
414.933411
 11
532.641357
 21
495.598450
  0
LINE
  8
LC-003-002-----0
 62
     2
  6
DASHDOT
 10
576.547485
 20
452.933411
 11
487.624268
 21
452.933411
  0
CIRCLE
  8
LC-004-006-----0
 62
     1
  6
CONTINUOUS
 10
532.641357
 20
452.933411
 40
25.000000
  0
LINE
  8
LC-004-006-----0
 62
     1
  6
CONTINUOUS
 10
522.075928
 20
430.275726
 11
516.793152
 21
418.946869
  0
LINE
  8
LC-004-006-----0
 62
     1
  6
CONTINUOUS
 10
543.206848
 20
430.275726
 11
548.489563
 21
418.946869
  0
ARC
  8
LC-004-006-----0
 62
     1
  6
CONTINUOUS
 10
532.641357
 20
452.933411
 40
37.500000
 50
294.999999
 51
244.999996
  0
ARC
  8
LC-004-006-----0
 62
     1
  6
CONTINUOUS
 10
532.641357
 20
452.933411
 40
33.000000
 50
294.999999
 51
244.999996
  0
LINE
  8
LC-004-006-----0
 62
     1
  6
CONTINUOUS
 10
548.489563
 20
418.946869
 11
550.361084
 21
414.933411
  0
LINE
  8
LC-004-006-----0
 62
     1
  6
CONTINUOUS
 10
516.793152
 20
418.946869
 11
514.921692
 21
414.933411
  0
LINE
  8
LC-004-006-----0
 62
     1
  6
CONTINUOUS
 10
550.361084
 20
414.933411
 11
666.921692
 21
414.933411
  0
LINE
  8
LC-008-003-----0
 62
     2
  6
DIVIDE
 10
574.641357
 20
392.933411
 11
542.141357
 21
392.933411
  0
LINE
  8
LC-008-003-----0
 62
     2
  6
DIVIDE
 10
574.641357
 20
392.933411
 11
574.641357
 21
401.933411
  0
LINE
  8
LC-008-003-----0
 62
     2
  6
DIVIDE
 10
490.641357
 20
392.933411
 11
490.641357
 21
401.933411
  0
LINE
  8
LC-008-003-----0
 62
     2
  6
DIVIDE
 10
574.641357
 20
401.933411
 11
565.141357
 21
401.933411
  0
LINE
  8
LC-008-003-----0
 62
     2
  6
DIVIDE
 10
511.641357
 20
401.933411
 11
502.141357
 21
401.933411
  0
LINE
  8
LC-008-003-----0
 62
     2
  6
DIVIDE
 10
500.141357
 20
401.933411
 11
490.641357
 21
401.933411
  0
LINE
  8
LC-008-003-----0
 62
     2
  6
DIVIDE
 10
511.641357
 20
401.933411
 11
523.425110
 21
429.694214
  0
LINE
  8
LC-008-003-----0
 62
     2
  6
DIVIDE
 10
553.641357
 20
401.933411
 11
541.857605
 21
429.694214
  0
LINE
  8
LC-008-003-----0
 62
     2
  6
DIVIDE
 10
564.141357
 20
400.933411
 11
563.141357
 21
401.933411
  0
LINE
  8
LC-008-003-----0
 62
     2
  6
DIVIDE
 10
501.141357
 20
400.933411
 11
502.141357
 21
401.933411
  0
LINE
  8
LC-008-003-----0
 62
     2
  6
DIVIDE
 10
564.141357
 20
400.933411
 11
565.141357
 21
401.933411
  0
LINE
  8
LC-008-003-----0
 62
     2
  6
DIVIDE
 10
501.141357
 20
400.933411
 11
500.141357
 21
401.933411
  0
LINE
  8
LC-008-003-----0
 62
     2
  6
DIVIDE
 10
563.141357
 20
401.933411
 11
553.641357
 21
401.933411
  0
LINE
  8
LC-008-003-----0
 62
     2
  6
DIVIDE
 10
523.425110
 20
429.694214
 11
532.641357
 21
426.788330
  0
LINE
  8
LC-008-003-----0
 62
     2
  6
DIVIDE
 10
541.857605
 20
429.694214
 11
532.641357
 21
426.788330
  0
LINE
  8
LC-008-003-----0
 62
     2
  6
DIVIDE
 10
542.141357
 20
392.933411
 11
542.141357
 21
405.433411
  0
LINE
  8
LC-008-003-----0
 62
     2
  6
DIVIDE
 10
523.141357
 20
392.933411
 11
523.141357
 21
405.433411
  0
LINE
  8
LC-008-003-----0
 62
     2
  6
DIVIDE
 10
542.141357
 20
405.433411
 11
523.141357
 21
405.433411
  0
LINE
  8
LC-008-003-----0
 62
     2
  6
DIVIDE
 10
523.141357
 20
392.933411
 11
490.641357
 21
392.933411
  0
LINE
  8
LC-008-003-----0
 62
     2
  6
DIVIDE
 10
642.641357
 20
392.933411
 11
675.141357
 21
392.933411
  0
LINE
  8
LC-008-003-----0
 62
     2
  6
DIVIDE
 10
642.641357
 20
392.933411
 11
642.641357
 21
401.933411
  0
LINE
  8
LC-008-003-----0
 62
     2
  6
DIVIDE
 10
726.641357
 20
392.933411
 11
726.641357
 21
401.933411
  0
LINE
  8
LC-008-003-----0
 62
     2
  6
DIVIDE
 10
642.641357
 20
401.933411
 11
652.141357
 21
401.933411
  0
LINE
  8
LC-008-003-----0
 62
     2
  6
DIVIDE
 10
705.641357
 20
401.933411
 11
715.141357
 21
401.933411
  0
LINE
  8
LC-008-003-----0
 62
     2
  6
DIVIDE
 10
717.141357
 20
401.933411
 11
726.641357
 21
401.933411
  0
LINE
  8
LC-008-003-----0
 62
     2
  6
DIVIDE
 10
705.641357
 20
401.933411
 11
693.857605
 21
429.694214
  0
LINE
  8
LC-008-003-----0
 62
     2
  6
DIVIDE
 10
663.641357
 20
401.933411
 11
675.425110
 21
429.694214
  0
LINE
  8
LC-008-003-----0
 62
     2
  6
DIVIDE
 10
653.141357
 20
400.933411
 11
654.141357
 21
401.933411
  0
LINE
  8
LC-008-003-----0
 62
     2
  6
DIVIDE
 10
716.141357
 20
400.933411
 11
715.141357
 21
401.933411
  0
LINE
  8
LC-008-003-----0
 62
     2
  6
DIVIDE
 10
653.141357
 20
400.933411
 11
652.141357
 21
401.933411
  0
LINE
  8
LC-008-003-----0
 62
     2
  6
DIVIDE
 10
716.141357
 20
400.933411
 11
717.141357
 21
401.933411
  0
LINE
  8
LC-008-003-----0
 62
     2
  6
DIVIDE
 10
654.141357
 20
401.933411
 11
663.641357
 21
401.933411
  0
LINE
  8
LC-008-003-----0
 62
     2
  6
DIVIDE
 10
693.857605
 20
429.694214
 11
684.641357
 21
426.788330
  0
LINE
  8
LC-008-003-----0
 62
     2
  6
DIVIDE
 10
675.425110
 20
429.694214
 11
684.641357
 21
426.788330
  0
LINE
  8
LC-008-003-----0
 62
     2
  6
DIVIDE
 10
675.141357
 20
392.933411
 11
675.141357
 21
405.433411
  0
LINE
  8
LC-008-003-----0
 62
     2
  6
DIVIDE
 10
694.141357
 20
392.933411
 11
694.141357
 21
405.433411
  0
LINE
  8
LC-008-003-----0
 62
     2
  6
DIVIDE
 10
675.141357
 20
405.433411
 11
694.141357
 21
405.433411
  0
LINE
  8
LC-008-003-----0
 62
     2
  6
DIVIDE
 10
694.141357
 20
392.933411
 11
726.641357
 21
392.933411
  0
LINE
  8
LC-004-006-----0
 62
     1
  6
CONTINUOUS
 10
468.741364
 20
352.834991
 11
468.741364
 21
72.834991
  0
LINE
  8
LC-004-006-----0
 62
     1
  6
CONTINUOUS
 10
468.741364
 20
72.834991
 11
748.741394
 21
72.834991
  0
LINE
  8
LC-004-006-----0
 62
     1
  6
CONTINUOUS
 10
748.741394
 20
352.834991
 11
748.741394
 21
72.834991
  0
LINE
  8
LC-004-006-----0
 62
     1
  6
CONTINUOUS
 10
468.741364
 20
352.834991
 11
748.741394
 21
352.834991
  0
LINE
  8
LC-003-002-----0
 62
     2
  6
DASHDOT
 10
483.741364
 20
351.646851
 11
483.741364
 21
323.362549
  0
LINE
  8
LC-003-002-----0
 62
     2
  6
DASHDOT
 10
498.759460
 20
337.834991
 11
470.655518
 21
337.834991
  0
CIRCLE
  8
LC-006-012-----0
 62
     2
  6
DASHED
 10
483.741364
 20
337.834991
 40
10.000000
  0
LINE
  8
LC-004-006-----0
 62
     1
  6
CONTINUOUS
 10
1068.645142
 20
507.933411
 11
1068.645142
 21
414.933411
  0
CIRCLE
  8
LC-004-006-----0
 62
     1
  6
CONTINUOUS
 10
483.741364
 20
87.834991
 40
6.750000
  0
ARC
  8
LC-006-012-----0
 62
     2
  6
CONTINUOUS
 10
483.741364
 20
87.834991
 40
8.000000
 50
348.878791
 51
280.460767
  0
LINE
  8
LC-003-002-----0
 62
     2
  6
DASHDOT
 10
483.741364
 20
74.023148
 11
483.741364
 21
102.307426
  0
LINE
  8
LC-003-002-----0
 62
     2
  6
DASHDOT
 10
498.759460
 20
87.834991
 11
470.655518
 21
87.834991
  0
CIRCLE
  8
LC-006-012-----0
 62
     2
  6
DASHED
 10
483.741364
 20
87.834991
 40
10.000000
  0
CIRCLE
  8
LC-004-006-----0
 62
     1
  6
CONTINUOUS
 10
733.741394
 20
337.834991
 40
6.750000
  0
ARC
  8
LC-006-012-----0
 62
     2
  6
CONTINUOUS
 10
733.741394
 20
337.834991
 40
8.000000
 50
168.878790
 51
100.460765
  0
LINE
  8
LC-003-002-----0
 62
     2
  6
DASHDOT
 10
733.741394
 20
351.646851
 11
733.741394
 21
323.362549
  0
CIRCLE
  8
LC-006-012-----0
 62
     2
  6
DASHED
 10
733.741394
 20
337.834991
 40
10.000000
  0
CIRCLE
  8
LC-004-006-----0
 62
     1
  6
CONTINUOUS
 10
733.741394
 20
87.834991
 40
6.750000
  0
ARC
  8
LC-006-012-----0
 62
     2
  6
CONTINUOUS
 10
733.741394
 20
87.834991
 40
8.000000
 50
259.539235
 51
191.121210
  0
LINE
  8
LC-003-002-----0
 62
     2
  6
DASHDOT
 10
733.741394
 20
74.023148
 11
733.741394
 21
102.307426
  0
LINE
  8
LC-003-002-----0
 62
     2
  6
DASHDOT
 10
718.723267
 20
87.834991
 11
746.827209
 21
87.834991
  0
CIRCLE
  8
LC-006-012-----0
 62
     2
  6
DASHED
 10
733.741394
 20
87.834991
 40
10.000000
  0
LINE
  8
LC-003-002-----0
 62
     2
  6
DASHDOT
 10
718.723267
 20
337.834991
 11
746.827209
 21
337.834991
  0
LINE
  8
LC-006-012-----0
 62
     2
  6
DASHED
 10
550.461060
 20
352.834991
 11
550.461060
 21
72.834991
  0
LINE
  8
LC-006-012-----0
 62
     2
  6
DASHED
 10
515.021667
 20
352.834991
 11
515.021667
 21
72.834991
  0
LINE
  8
LC-006-012-----0
 62
     2
  6
DASHED
 10
495.241364
 20
352.834991
 11
495.241364
 21
252.834991
  0
LINE
  8
LC-006-012-----0
 62
     2
  6
DASHED
 10
570.241394
 20
352.834991
 11
570.241394
 21
252.834991
  0
LINE
  8
LC-006-012-----0
 62
     2
  6
DASHED
 10
495.241364
 20
172.834991
 11
570.241394
 21
172.834991
  0
LINE
  8
LC-006-012-----0
 62
     2
  6
DASHED
 10
495.241364
 20
252.834991
 11
570.241394
 21
252.834991
  0
LINE
  8
LC-006-012-----0
 62
     2
  6
DASHED
 10
495.241364
 20
252.834991
 11
495.241364
 21
172.834991
  0
LINE
  8
LC-006-012-----0
 62
     2
  6
DASHED
 10
495.241364
 20
172.834991
 11
495.241364
 21
72.834991
  0
LINE
  8
LC-006-012-----0
 62
     2
  6
DASHED
 10
570.241394
 20
252.834991
 11
570.241394
 21
172.834991
  0
LINE
  8
LC-006-012-----0
 62
     2
  6
DASHED
 10
570.241394
 20
172.834991
 11
570.241394
 21
72.834991
  0
LINE
  8
LC-003-002-----0
 62
     2
  6
DASHDOT
 10
532.741394
 20
372.567749
 11
532.741394
 21
52.251923
  0
LINE
  8
LC-008-003-----0
 62
     2
  6
DIVIDE
 10
507.741364
 20
367.834991
 11
507.741364
 21
352.834991
  0
LINE
  8
LC-008-003-----0
 62
     2
  6
DIVIDE
 10
557.741394
 20
367.834991
 11
557.741394
 21
352.834991
  0
LINE
  8
LC-008-003-----0
 62
     2
  6
DIVIDE
 10
507.741364
 20
367.834991
 11
557.741394
 21
367.834991
  0
LINE
  8
LC-006-012-----0
 62
     2
  6
DASHED
 10
507.741364
 20
352.834991
 11
507.741364
 21
72.834991
  0
LINE
  8
LC-006-012-----0
 62
     2
  6
DASHED
 10
557.741394
 20
352.834991
 11
557.741394
 21
72.834991
  0
LINE
  8
LC-008-003-----0
 62
     2
  6
DIVIDE
 10
490.741364
 20
367.834991
 11
490.741364
 21
352.834991
  0
LINE
  8
LC-008-003-----0
 62
     2
  6
DIVIDE
 10
511.741364
 20
367.834991
 11
511.741364
 21
352.834991
  0
LINE
  8
LC-008-003-----0
 62
     2
  6
DIVIDE
 10
553.741394
 20
367.834991
 11
553.741394
 21
352.834991
  0
LINE
  8
LC-008-003-----0
 62
     2
  6
DIVIDE
 10
574.741394
 20
367.834991
 11
574.741394
 21
352.834991
  0
LINE
  8
LC-008-003-----0
 62
     2
  6
DIVIDE
 10
523.525146
 20
367.834991
 11
523.525146
 21
352.834991
  0
LINE
  8
LC-008-003-----0
 62
     2
  6
DIVIDE
 10
541.957581
 20
367.834991
 11
541.957581
 21
352.834991
  0
LINE
  8
LC-008-003-----0
 62
     2
  6
DIVIDE
 10
557.741394
 20
367.834991
 11
574.741394
 21
367.834991
  0
LINE
  8
LC-008-003-----0
 62
     2
  6
DIVIDE
 10
507.741364
 20
367.834991
 11
490.741364
 21
367.834991
  0
LINE
  8
LC-008-003-----0
 62
     2
  6
DIVIDE
 10
574.741394
 20
48.275501
 11
574.741394
 21
72.834991
  0
LINE
  8
LC-008-003-----0
 62
     2
  6
DIVIDE
 10
557.741394
 20
57.834991
 11
557.741394
 21
72.834991
  0
LINE
  8
LC-008-003-----0
 62
     2
  6
DIVIDE
 10
553.741394
 20
49.030796
 11
553.741394
 21
72.834991
  0
LINE
  8
LC-008-003-----0
 62
     2
  6
DIVIDE
 10
541.957581
 20
47.742012
 11
541.957581
 21
72.834991
  0
LINE
  8
LC-008-003-----0
 62
     2
  6
DIVIDE
 10
523.525146
 20
49.382309
 11
523.525146
 21
72.834991
  0
LINE
  8
LC-008-003-----0
 62
     2
  6
DIVIDE
 10
511.741364
 20
49.289825
 11
511.741364
 21
72.834991
  0
LINE
  8
LC-008-003-----0
 62
     2
  6
DIVIDE
 10
490.741364
 20
49.883553
 11
490.741364
 21
72.834991
  0
LINE
  8
LC-008-003-----0
 62
     2
  6
DIVIDE
 10
490.741364
 20
49.883553
 11
500.483093
 21
48.612644
  0
LINE
  8
LC-008-003-----0
 62
     2
  6
DIVIDE
 10
500.483093
 20
48.612644
 11
519.716064
 21
49.769501
  0
LINE
  8
LC-008-003-----0
 62
     2
  6
DIVIDE
 10
519.716064
 20
49.769501
 11
540.851685
 21
47.621059
  0
LINE
  8
LC-008-003-----0
 62
     2
  6
DIVIDE
 10
540.851685
 20
47.621059
 11
562.762146
 21
50.017395
  0
LINE
  8
LC-008-003-----0
 62
     2
  6
DIVIDE
 10
562.762146
 20
50.017395
 11
574.741394
 21
48.275501
  0
LINE
  8
LC-008-003-----0
 62
     2
  6
DIVIDE
 10
507.741364
 20
57.834991
 11
507.741364
 21
72.834991
  0
LINE
  8
LC-008-003-----0
 62
     2
  6
DIVIDE
 10
507.741364
 20
57.834991
 11
521.506775
 21
60.026237
  0
LINE
  8
LC-008-003-----0
 62
     2
  6
DIVIDE
 10
521.506775
 20
60.026237
 11
536.822571
 21
58.704121
  0
LINE
  8
LC-008-003-----0
 62
     2
  6
DIVIDE
 10
536.822571
 20
58.704121
 11
550.915894
 21
60.356766
  0
LINE
  8
LC-008-003-----0
 62
     2
  6
DIVIDE
 10
550.915894
 20
60.356766
 11
557.741394
 21
57.834991
  0
LINE
  8
LC-006-012-----0
 62
     2
  6
DASHED
 10
647.241394
 20
172.834991
 11
647.241394
 21
72.834991
  0
LINE
  8
LC-006-012-----0
 62
     2
  6
DASHED
 10
659.741394
 20
352.834991
 11
659.741394
 21
72.834991
  0
LINE
  8
LC-006-012-----0
 62
     2
  6
DASHED
 10
667.021667
 20
352.834991
 11
667.021667
 21
72.834991
  0
LINE
  8
LC-003-002-----0
 62
     2
  6
DASHDOT
 10
684.741394
 20
372.567749
 11
684.741394
 21
52.251923
  0
LINE
  8
LC-006-012-----0
 62
     2
  6
DASHED
 10
702.461060
 20
352.834991
 11
702.461060
 21
72.834991
  0
LINE
  8
LC-006-012-----0
 62
     2
  6
DASHED
 10
709.741394
 20
352.834991
 11
709.741394
 21
72.834991
  0
LINE
  8
LC-006-012-----0
 62
     2
  6
DASHED
 10
722.241394
 20
172.834991
 11
722.241394
 21
72.834991
  0
LINE
  8
LC-006-012-----0
 62
     2
  6
DASHED
 10
722.241394
 20
352.834991
 11
722.241394
 21
252.834991
  0
LINE
  8
LC-006-012-----0
 62
     2
  6
DASHED
 10
722.241394
 20
252.834991
 11
722.241394
 21
172.834991
  0
LINE
  8
LC-006-012-----0
 62
     2
  6
DASHED
 10
647.241394
 20
252.834991
 11
647.241394
 21
172.834991
  0
LINE
  8
LC-006-012-----0
 62
     2
  6
DASHED
 10
647.241394
 20
352.834991
 11
647.241394
 21
252.834991
  0
LINE
  8
LC-006-012-----0
 62
     2
  6
DASHED
 10
722.241394
 20
252.834991
 11
647.241394
 21
252.834991
  0
LINE
  8
LC-006-012-----0
 62
     2
  6
DASHED
 10
722.241394
 20
172.834991
 11
647.241394
 21
172.834991
  0
LINE
  8
LC-008-003-----0
 62
     2
  6
DIVIDE
 10
642.741394
 20
48.275501
 11
642.741394
 21
72.834991
  0
LINE
  8
LC-008-003-----0
 62
     2
  6
DIVIDE
 10
659.741394
 20
57.834991
 11
659.741394
 21
72.834991
  0
LINE
  8
LC-008-003-----0
 62
     2
  6
DIVIDE
 10
659.741394
 20
57.834991
 11
659.741394
 21
72.834991
  0
LINE
  8
LC-008-003-----0
 62
     2
  6
DIVIDE
 10
654.720581
 20
50.017395
 11
642.741394
 21
48.275501
  0
LINE
  8
LC-008-003-----0
 62
     2
  6
DIVIDE
 10
676.631042
 20
47.621059
 11
654.720581
 21
50.017395
  0
LINE
  8
LC-008-003-----0
 62
     2
  6
DIVIDE
 10
663.741394
 20
49.030796
 11
663.741394
 21
72.834991
  0
LINE
  8
LC-008-003-----0
 62
     2
  6
DIVIDE
 10
675.525146
 20
47.742012
 11
675.525146
 21
72.834991
  0
LINE
  8
LC-008-003-----0
 62
     2
  6
DIVIDE
 10
697.766663
 20
49.769501
 11
676.631042
 21
47.621059
  0
LINE
  8
LC-008-003-----0
 62
     2
  6
DIVIDE
 10
693.957581
 20
49.382309
 11
693.957581
 21
72.834991
  0
LINE
  8
LC-008-003-----0
 62
     2
  6
DIVIDE
 10
705.741394
 20
49.289825
 11
705.741394
 21
72.834991
  0
LINE
  8
LC-008-003-----0
 62
     2
  6
DIVIDE
 10
716.999634
 20
48.612644
 11
697.766663
 21
49.769501
  0
LINE
  8
LC-008-003-----0
 62
     2
  6
DIVIDE
 10
726.741394
 20
49.883553
 11
716.999634
 21
48.612644
  0
LINE
  8
LC-008-003-----0
 62
     2
  6
DIVIDE
 10
726.741394
 20
49.883553
 11
726.741394
 21
72.834991
  0
LINE
  8
LC-008-003-----0
 62
     2
  6
DIVIDE
 10
709.741394
 20
57.834991
 11
695.975952
 21
60.026237
  0
LINE
  8
LC-008-003-----0
 62
     2
  6
DIVIDE
 10
709.741394
 20
57.834991
 11
709.741394
 21
72.834991
  0
LINE
  8
LC-008-003-----0
 62
     2
  6
DIVIDE
 10
695.975952
 20
60.026237
 11
680.660156
 21
58.704121
  0
LINE
  8
LC-008-003-----0
 62
     2
  6
DIVIDE
 10
680.660156
 20
58.704121
 11
666.566833
 21
60.356766
  0
LINE
  8
LC-008-003-----0
 62
     2
  6
DIVIDE
 10
666.566833
 20
60.356766
 11
659.741394
 21
57.834991
  0
LINE
  8
LC-008-003-----0
 62
     2
  6
DIVIDE
 10
726.741394
 20
367.834991
 11
726.741394
 21
352.834991
  0
LINE
  8
LC-008-003-----0
 62
     2
  6
DIVIDE
 10
709.741394
 20
367.834991
 11
709.741394
 21
352.834991
  0
LINE
  8
LC-008-003-----0
 62
     2
  6
DIVIDE
 10
705.741394
 20
367.834991
 11
705.741394
 21
352.834991
  0
LINE
  8
LC-008-003-----0
 62
     2
  6
DIVIDE
 10
693.957581
 20
367.834991
 11
693.957581
 21
352.834991
  0
LINE
  8
LC-008-003-----0
 62
     2
  6
DIVIDE
 10
675.525146
 20
367.834991
 11
675.525146
 21
352.834991
  0
LINE
  8
LC-008-003-----0
 62
     2
  6
DIVIDE
 10
663.741394
 20
367.834991
 11
663.741394
 21
352.834991
  0
LINE
  8
LC-008-003-----0
 62
     2
  6
DIVIDE
 10
659.741394
 20
367.834991
 11
659.741394
 21
352.834991
  0
LINE
  8
LC-008-003-----0
 62
     2
  6
DIVIDE
 10
642.741394
 20
367.834991
 11
642.741394
 21
352.834991
  0
LINE
  8
LC-008-003-----0
 62
     2
  6
DIVIDE
 10
659.741394
 20
367.834991
 11
642.741394
 21
367.834991
  0
LINE
  8
LC-008-003-----0
 62
     2
  6
DIVIDE
 10
709.741394
 20
367.834991
 11
659.741394
 21
367.834991
  0
LINE
  8
LC-008-003-----0
 62
     2
  6
DIVIDE
 10
709.741394
 20
367.834991
 11
726.741394
 21
367.834991
  0
LINE
  8
LC-004-006-----0
 62
     1
  6
CONTINUOUS
 10
788.645142
 20
414.933411
 11
1068.645142
 21
414.933411
  0
LINE
  8
LC-004-006-----0
 62
     1
  6
CONTINUOUS
 10
788.645142
 20
507.933411
 11
788.645142
 21
414.933411
  0
LINE
  8
LC-006-012-----0
 62
     2
  6
DASHED
 10
811.645142
 20
473.933411
 11
811.645142
 21
507.933411
  0
LINE
  8
LC-006-012-----0
 62
     2
  6
DASHED
 10
810.395142
 20
427.933411
 11
810.395142
 21
507.933411
  0
LINE
  8
LC-003-002-----0
 62
     2
  6
DASHDOT
 10
803.645142
 20
405.011230
 11
803.645142
 21
519.084595
  0
LINE
  8
LC-006-012-----0
 62
     2
  6
DASHED
 10
796.895142
 20
427.933411
 11
796.895142
 21
507.933411
  0
LINE
  8
LC-006-012-----0
 62
     2
  6
DASHED
 10
795.645142
 20
473.933411
 11
795.645142
 21
507.933411
  0
LINE
  8
LC-006-012-----0
 62
     2
  6
DASHED
 10
811.645142
 20
473.933411
 11
795.645142
 21
473.933411
  0
LINE
  8
LC-006-012-----0
 62
     2
  6
DASHED
 10
813.645142
 20
427.933411
 11
793.645142
 21
427.933411
  0
LINE
  8
LC-006-012-----0
 62
     2
  6
DASHED
 10
813.645142
 20
414.933411
 11
813.645142
 21
427.933411
  0
LINE
  8
LC-006-012-----0
 62
     2
  6
DASHED
 10
793.645142
 20
414.933411
 11
793.645142
 21
427.933411
  0
LINE
  8
LC-006-012-----0
 62
     2
  6
DASHED
 10
1045.645142
 20
473.933411
 11
1045.645142
 21
507.933411
  0
LINE
  8
LC-006-012-----0
 62
     2
  6
DASHED
 10
1046.895142
 20
427.933411
 11
1046.895142
 21
507.933411
  0
LINE
  8
LC-006-012-----0
 62
     2
  6
DASHED
 10
1043.645142
 20
414.933411
 11
1043.645142
 21
427.933411
  0
LINE
  8
LC-006-012-----0
 62
     2
  6
DASHED
 10
1043.645142
 20
427.933411
 11
1063.645142
 21
427.933411
  0
LINE
  8
LC-006-012-----0
 62
     2
  6
DASHED
 10
1063.645142
 20
414.933411
 11
1063.645142
 21
427.933411
  0
LINE
  8
LC-006-012-----0
 62
     2
  6
DASHED
 10
1060.395142
 20
427.933411
 11
1060.395142
 21
507.933411
  0
LINE
  8
LC-006-012-----0
 62
     2
  6
DASHED
 10
1061.645142
 20
473.933411
 11
1061.645142
 21
507.933411
  0
LINE
  8
LC-006-012-----0
 62
     2
  6
DASHED
 10
1045.645142
 20
473.933411
 11
1061.645142
 21
473.933411
  0
LINE
  8
LC-003-002-----0
 62
     2
  6
DASHDOT
 10
1053.645142
 20
405.011230
 11
1053.645142
 21
519.084595
  0
LINE
  8
LC-006-012-----0
 62
     2
  6
DASHED
 10
788.645142
 20
490.433411
 11
888.645142
 21
490.433411
  0
LINE
  8
LC-006-012-----0
 62
     2
  6
DASHED
 10
788.645142
 20
418.946869
 11
888.645142
 21
418.946869
  0
LINE
  8
LC-006-012-----0
 62
     2
  6
DASHED
 10
888.645142
 20
490.433411
 11
888.645142
 21
418.946869
  0
LINE
  8
LC-006-012-----0
 62
     2
  6
DASHED
 10
968.645142
 20
490.433411
 11
968.645142
 21
418.946869
  0
LINE
  8
LC-006-012-----0
 62
     2
  6
DASHED
 10
888.645142
 20
490.433411
 11
968.645142
 21
490.433411
  0
LINE
  8
LC-006-012-----0
 62
     2
  6
DASHED
 10
968.645142
 20
490.433411
 11
1068.645142
 21
490.433411
  0
LINE
  8
LC-006-012-----0
 62
     2
  6
DASHED
 10
888.645142
 20
418.946869
 11
968.645142
 21
418.946869
  0
LINE
  8
LC-006-012-----0
 62
     2
  6
DASHED
 10
968.645142
 20
418.946869
 11
1068.645142
 21
418.946869
  0
LINE
  8
LC-003-002-----0
 62
     2
  6
DASHDOT
 10
766.123291
 20
452.933411
 11
1092.258667
 21
452.933411
  0
LINE
  8
LC-008-003-----0
 62
     2
  6
DIVIDE
 10
773.645142
 20
477.933411
 11
788.645142
 21
477.933411
  0
LINE
  8
LC-008-003-----0
 62
     2
  6
DIVIDE
 10
773.645142
 20
427.933411
 11
788.645142
 21
427.933411
  0
LINE
  8
LC-008-003-----0
 62
     2
  6
DIVIDE
 10
773.645142
 20
477.933411
 11
773.645142
 21
427.933411
  0
LINE
  8
LC-006-012-----0
 62
     2
  6
DASHED
 10
788.645142
 20
427.933411
 11
1068.645142
 21
427.933411
  0
LINE
  8
LC-006-012-----0
 62
     2
  6
DASHED
 10
788.645142
 20
477.933411
 11
1068.645142
 21
477.933411
  0
LINE
  8
LC-008-003-----0
 62
     2
  6
DIVIDE
 10
773.645142
 20
392.933411
 11
1097.584839
 21
392.933411
  0
LINE
  8
LC-008-003-----0
 62
     2
  6
DIVIDE
 10
773.645142
 20
401.933411
 11
1098.280762
 21
401.933411
  0
LINE
  8
LC-008-003-----0
 62
     2
  6
DIVIDE
 10
773.645142
 20
427.933411
 11
773.645142
 21
392.933411
  0
LINE
  8
LC-008-003-----0
 62
     2
  6
DIVIDE
 10
773.645142
 20
429.694214
 11
1097.337891
 21
429.694214
  0
LINE
  8
LC-008-003-----0
 62
     2
  6
DIVIDE
 10
1084.084473
 20
427.933411
 11
1086.806152
 21
440.874481
  0
LINE
  8
LC-008-003-----0
 62
     2
  6
DIVIDE
 10
1086.806152
 20
440.874481
 11
1084.564819
 21
460.236816
  0
LINE
  8
LC-008-003-----0
 62
     2
  6
DIVIDE
 10
1084.564819
 20
460.236816
 11
1085.895142
 21
477.933411
  0
LINE
  8
LC-008-003-----0
 62
     2
  6
DIVIDE
 10
1097.584839
 20
392.933411
 11
1098.562378
 21
405.575836
  0
LINE
  8
LC-008-003-----0
 62
     2
  6
DIVIDE
 10
1098.562378
 20
405.575836
 11
1096.321045
 21
419.551361
  0
LINE
  8
LC-008-003-----0
 62
     2
  6
DIVIDE
 10
1096.321045
 20
419.551361
 11
1097.337891
 21
429.694214
  0
LINE
  8
LC-008-003-----0
 62
     2
  6
DIVIDE
 10
1068.645142
 20
427.933411
 11
1084.084473
 21
427.933411
  0
LINE
  8
LC-008-003-----0
 62
     2
  6
DIVIDE
 10
1068.645142
 20
477.933411
 11
1085.895142
 21
477.933411
  0
ENDSEC
  0
EOF
