  0
SECTION
  2
HEADER
  9
$LIMMIN
 10
-98.832100
 20
406.784302
  9
$LIMMAX
 10
-11.595870
 20
490.186310
  9
$EXTMIN
 10
-98.832100
 20
406.784302
  9
$EXTMAX
 10
-11.595870
 20
490.186310
  0
ENDSEC
  0
SECTION
  2
TABLES
  0
TABLE
  2
LTYPE
 70
     3
  0
LTYPE
  2
CONTINUOUS
 70
    64
  3
Ausgezogene Linie
 72
    65
 73
     0
 40
0.0
  0
LTYPE
  2
DASHED
 70
    64
  3
__ __ __ __ __ __ __ __ __ __ __ __ __ __ __
 72
    65
 73
     2
 40
0.75
 49
0.5
 49
-0.25
  0
LTYPE
  2
DASHDOT
 70
    64
  3
__ . __ . __ . __ . __ . __ . __ . __ . __ . __
 72
    65
 73
     4
 40
1.0
 49
0.5
 49
-0.25
 49
0.0
 49
-0.25
  0
ENDTAB
  0
TABLE
  2
LAYER
 70
     4
  0
LAYER
  2
LC-003-002-----0
 70
    64
 62
     7
  6
CONTINUOUS
  0
LAYER
  2
LC-005-002-RND-0
 70
    64
 62
     7
  6
CONTINUOUS
  0
LAYER
  2
LC-008-003-----0
 70
    64
 62
     7
  6
CONTINUOUS
  0
LAYER
  2
LC-007-004-----0
 70
    64
 62
     7
  6
CONTINUOUS
  0
ENDTAB
  0
TABLE
  2
STYLE
 70
     1
  0
STYLE
  2
TXT8
 70
    64
 40
0.0
 41
1.0
 50
0.0
 71
     0
 42
3.500000
  3
TXT8
  4

  0
ENDTAB
  0
ENDSEC
  0
SECTION
  2
BLOCKS
  0
ENDSEC
  0
SECTION
  2
ENTITIES
  0
LINE
  8
LC-008-003-----0
 62
     2
  6
DASHED
 10
-77.174431
 20
485.422546
 11
-76.174431
 21
485.422546
  0
LINE
  8
LC-008-003-----0
 62
     2
  6
DASHED
 10
-76.674431
 20
485.422546
 11
-72.438293
 21
485.422546
  0
LINE
  8
LC-003-002-----0
 62
     1
  6
CONTINUOUS
 10
-97.677109
 20
453.422546
 11
-55.674438
 21
453.422546
  0
LINE
  8
LC-003-002-----0
 62
     1
  6
CONTINUOUS
 10
-96.774429
 20
458.922546
 11
-87.674431
 21
458.922546
  0
LINE
  8
LC-005-002-RND-0
 62
     2
  6
DASHDOT
 10
-76.674431
 20
490.186310
 11
-76.674431
 21
451.185120
  0
LINE
  8
LC-003-002-----0
 62
     1
  6
CONTINUOUS
 10
-66.674431
 20
487.422546
 11
-66.674431
 21
459.922546
  0
LINE
  8
LC-003-002-----0
 62
     1
  6
CONTINUOUS
 10
-86.674431
 20
487.422546
 11
-86.674431
 21
459.922546
  0
LINE
  8
LC-003-002-----0
 62
     1
  6
CONTINUOUS
 10
-85.674431
 20
488.422546
 11
-77.174431
 21
488.422546
  0
LINE
  8
LC-003-002-----0
 62
     1
  6
CONTINUOUS
 10
-55.674435
 20
457.922546
 11
-55.674435
 21
453.422546
  0
LINE
  8
LC-003-002-----0
 62
     1
  6
CONTINUOUS
 10
-97.774429
 20
457.922546
 11
-97.774429
 21
453.422546
  0
LINE
  8
LC-003-002-----0
 62
     1
  6
CONTINUOUS
 10
-65.674431
 20
458.922546
 11
-56.674438
 21
458.922546
  0
LINE
  8
LC-005-002-RND-0
 62
     2
  6
DASHDOT
 10
-84.214699
 20
473.422546
 11
-69.465294
 21
473.422546
  0
LINE
  8
LC-005-002-RND-0
 62
     2
  6
DASHDOT
 10
-60.674435
 20
460.854828
 11
-60.674435
 21
451.185120
  0
LINE
  8
LC-005-002-RND-0
 62
     2
  6
DASHDOT
 10
-92.674431
 20
460.854828
 11
-92.674431
 21
451.185120
  0
LINE
  8
LC-008-003-----0
 62
     2
  6
DASHED
 10
-89.924431
 20
458.922546
 11
-89.924431
 21
453.422546
  0
LINE
  8
LC-008-003-----0
 62
     2
  6
DASHED
 10
-95.424431
 20
458.922546
 11
-95.424431
 21
453.422546
  0
LINE
  8
LC-008-003-----0
 62
     2
  6
DASHED
 10
-63.424435
 20
458.922546
 11
-63.424435
 21
453.422546
  0
LINE
  8
LC-008-003-----0
 62
     2
  6
DASHED
 10
-57.924435
 20
458.922546
 11
-57.924435
 21
453.422546
  0
LINE
  8
LC-005-002-RND-0
 62
     2
  6
DASHDOT
 10
-88.969627
 20
483.422546
 11
-65.121361
 21
483.422546
  0
LINE
  8
LC-008-003-----0
 62
     2
  6
DASHED
 10
-86.674431
 20
487.422546
 11
-82.174431
 21
487.422546
  0
LINE
  8
LC-008-003-----0
 62
     2
  6
DASHED
 10
-86.674431
 20
479.422546
 11
-82.174431
 21
479.422546
  0
LINE
  8
LC-008-003-----0
 62
     2
  6
DASHED
 10
-82.174431
 20
485.822540
 11
-77.174431
 21
485.822540
  0
LINE
  8
LC-008-003-----0
 62
     2
  6
DASHED
 10
-82.174431
 20
481.022522
 11
-77.174431
 21
481.022522
  0
LINE
  8
LC-008-003-----0
 62
     2
  6
DASHED
 10
-82.174431
 20
487.422546
 11
-82.174431
 21
479.422546
  0
LINE
  8
LC-003-002-----0
 62
     1
  6
CONTINUOUS
 10
-76.174431
 20
488.422546
 11
-76.174431
 21
479.401672
  0
LINE
  8
LC-003-002-----0
 62
     1
  6
CONTINUOUS
 10
-77.174431
 20
488.422546
 11
-77.174431
 21
479.401672
  0
ARC
  8
LC-003-002-----0
 62
     1
  6
CONTINUOUS
 10
-76.674431
 20
473.422546
 40
6.000000
 50
94.780192
 51
85.219806
  0
LINE
  8
LC-008-003-----0
 62
     2
  6
DASHED
 10
-72.438293
 20
485.422546
 11
-68.674431
 21
485.422546
  0
LINE
  8
LC-008-003-----0
 62
     2
  6
DASHED
 10
-72.438293
 20
481.422546
 11
-68.674431
 21
481.422546
  0
LINE
  8
LC-008-003-----0
 62
     2
  6
DASHED
 10
-72.175598
 20
484.967529
 11
-66.674431
 21
484.967529
  0
LINE
  8
LC-008-003-----0
 62
     2
  6
DASHED
 10
-72.175598
 20
481.877533
 11
-66.674431
 21
481.877533
  0
LINE
  8
LC-008-003-----0
 62
     2
  6
DASHED
 10
-68.674431
 20
485.422546
 11
-68.674431
 21
481.422546
  0
ARC
  8
LC-003-002-----0
 62
     1
  6
CONTINUOUS
 10
-96.774429
 20
457.922546
 40
1.000000
 50
90.000003
 51
180.000009
  0
ARC
  8
LC-003-002-----0
 62
     1
  6
CONTINUOUS
 10
-87.674431
 20
459.922546
 40
1.000000
 50
269.999997
 51
0.000000
  0
ARC
  8
LC-003-002-----0
 62
     1
  6
CONTINUOUS
 10
-85.674431
 20
487.422546
 40
1.000000
 50
90.000003
 51
180.000009
  0
ARC
  8
LC-003-002-----0
 62
     1
  6
CONTINUOUS
 10
-67.674431
 20
487.422546
 40
1.000000
 50
0.000000
 51
90.000003
  0
ARC
  8
LC-003-002-----0
 62
     1
  6
CONTINUOUS
 10
-65.674431
 20
459.922546
 40
1.000000
 50
180.000009
 51
269.999997
  0
ARC
  8
LC-003-002-----0
 62
     1
  6
CONTINUOUS
 10
-56.674435
 20
457.922546
 40
1.000000
 50
0.000000
 51
90.000003
  0
LINE
  8
LC-003-002-----0
 62
     1
  6
CONTINUOUS
 10
-97.677109
 20
420.139404
 11
-97.677109
 21
410.139404
  0
LINE
  8
LC-003-002-----0
 62
     1
  6
CONTINUOUS
 10
-96.677109
 20
409.139404
 11
-56.674438
 21
409.139404
  0
LINE
  8
LC-003-002-----0
 62
     1
  6
CONTINUOUS
 10
-55.674435
 20
420.139404
 11
-55.674435
 21
410.139404
  0
LINE
  8
LC-003-002-----0
 62
     1
  6
CONTINUOUS
 10
-96.677109
 20
421.139404
 11
-56.674438
 21
421.139404
  0
LINE
  8
LC-005-002-RND-0
 62
     2
  6
DASHDOT
 10
-76.674431
 20
422.877563
 11
-76.674431
 21
406.784302
  0
LINE
  8
LC-005-002-RND-0
 62
     2
  6
DASHDOT
 10
-92.674431
 20
418.867981
 11
-92.674431
 21
411.401703
  0
LINE
  8
LC-005-002-RND-0
 62
     2
  6
DASHDOT
 10
-98.832100
 20
415.139404
 11
-55.674431
 21
415.139404
  0
CIRCLE
  8
LC-003-002-----0
 62
     1
  6
CONTINUOUS
 10
-92.674431
 20
415.139404
 40
2.750000
  0
LINE
  8
LC-005-002-RND-0
 62
     2
  6
DASHDOT
 10
-60.674435
 20
418.867981
 11
-60.674435
 21
411.401703
  0
CIRCLE
  8
LC-003-002-----0
 62
     1
  6
CONTINUOUS
 10
-60.674435
 20
415.139404
 40
2.750000
  0
LINE
  8
LC-008-003-----0
 62
     2
  6
DASHED
 10
-82.674431
 20
421.139404
 11
-82.674431
 21
409.139404
  0
LINE
  8
LC-008-003-----0
 62
     2
  6
DASHED
 10
-70.674431
 20
421.139404
 11
-70.674431
 21
409.139404
  0
LINE
  8
LC-003-002-----0
 62
     1
  6
CONTINUOUS
 10
-77.174431
 20
421.139404
 11
-77.174431
 21
409.139404
  0
LINE
  8
LC-003-002-----0
 62
     1
  6
CONTINUOUS
 10
-76.174431
 20
421.139404
 11
-76.174431
 21
409.139404
  0
LINE
  8
LC-003-002-----0
 62
     1
  6
CONTINUOUS
 10
-86.674431
 20
420.139404
 11
-86.674431
 21
410.139404
  0
LINE
  8
LC-003-002-----0
 62
     1
  6
CONTINUOUS
 10
-66.674431
 20
420.139404
 11
-66.674431
 21
410.139404
  0
LINE
  8
LC-008-003-----0
 62
     2
  6
DASHED
 10
-86.674431
 20
419.139404
 11
-82.174431
 21
419.139404
  0
LINE
  8
LC-008-003-----0
 62
     2
  6
DASHED
 10
-86.674431
 20
411.139404
 11
-82.174431
 21
411.139404
  0
LINE
  8
LC-008-003-----0
 62
     2
  6
DASHED
 10
-82.174431
 20
417.539398
 11
-77.174431
 21
417.539398
  0
LINE
  8
LC-008-003-----0
 62
     2
  6
DASHED
 10
-82.174431
 20
412.739410
 11
-77.174431
 21
412.739410
  0
LINE
  8
LC-008-003-----0
 62
     2
  6
DASHED
 10
-82.174431
 20
419.139404
 11
-82.174431
 21
411.139404
  0
LINE
  8
LC-008-003-----0
 62
     2
  6
DASHED
 10
-76.174431
 20
417.139404
 11
-68.674431
 21
417.139404
  0
LINE
  8
LC-008-003-----0
 62
     2
  6
DASHED
 10
-76.174431
 20
413.139404
 11
-68.674431
 21
413.139404
  0
LINE
  8
LC-008-003-----0
 62
     2
  6
DASHED
 10
-72.175598
 20
416.684387
 11
-66.674431
 21
416.684387
  0
LINE
  8
LC-008-003-----0
 62
     2
  6
DASHED
 10
-72.175598
 20
413.594391
 11
-66.674431
 21
413.594391
  0
LINE
  8
LC-008-003-----0
 62
     2
  6
DASHED
 10
-68.674431
 20
417.139404
 11
-68.674431
 21
413.139404
  0
LINE
  8
LC-008-003-----0
 62
     2
  6
DASHED
 10
-77.174431
 20
417.139404
 11
-76.174431
 21
417.139404
  0
LINE
  8
LC-003-002-----0
 62
     1
  6
CONTINUOUS
 10
-24.597277
 20
487.422546
 11
-24.597277
 21
453.422546
  0
LINE
  8
LC-003-002-----0
 62
     1
  6
CONTINUOUS
 10
-24.597277
 20
453.422546
 11
-12.597275
 21
453.422546
  0
LINE
  8
LC-003-002-----0
 62
     1
  6
CONTINUOUS
 10
-23.597277
 20
458.922546
 11
-13.597275
 21
458.922546
  0
LINE
  8
LC-003-002-----0
 62
     1
  6
CONTINUOUS
 10
-23.597277
 20
488.422546
 11
-13.597275
 21
488.422546
  0
LINE
  8
LC-005-002-RND-0
 62
     2
  6
DASHDOT
 10
-26.048512
 20
473.422546
 11
-11.595870
 21
473.422546
  0
LINE
  8
LC-005-002-RND-0
 62
     2
  6
DASHDOT
 10
-23.386892
 20
483.422546
 11
-13.685904
 21
483.422546
  0
LINE
  8
LC-003-002-----0
 62
     1
  6
CONTINUOUS
 10
-12.597276
 20
487.422546
 11
-12.597276
 21
453.422546
  0
LINE
  8
LC-008-003-----0
 62
     2
  6
DASHED
 10
-24.597277
 20
467.422546
 11
-12.597275
 21
467.422546
  0
LINE
  8
LC-008-003-----0
 62
     2
  6
DASHED
 10
-24.597277
 20
479.401672
 11
-12.597275
 21
479.401672
  0
LINE
  8
LC-005-002-RND-0
 62
     2
  6
DASHDOT
 10
-18.597277
 20
478.400635
 11
-18.597277
 21
488.056213
  0
LINE
  8
LC-005-002-RND-0
 62
     2
  6
DASHDOT
 10
-18.597277
 20
460.854828
 11
-18.597277
 21
451.185120
  0
LINE
  8
LC-008-003-----0
 62
     2
  6
DASHED
 10
-21.347277
 20
458.922546
 11
-21.347277
 21
453.422546
  0
LINE
  8
LC-008-003-----0
 62
     2
  6
DASHED
 10
-15.847276
 20
458.922546
 11
-15.847276
 21
453.422546
  0
ARC
  8
LC-003-002-----0
 62
     1
  6
CONTINUOUS
 10
-23.597277
 20
457.922546
 40
1.000000
 50
90.000003
 51
180.000009
  0
ARC
  8
LC-003-002-----0
 62
     1
  6
CONTINUOUS
 10
-13.597276
 20
457.922546
 40
1.000000
 50
0.000000
 51
90.000003
  0
ARC
  8
LC-003-002-----0
 62
     1
  6
CONTINUOUS
 10
-23.597277
 20
487.422546
 40
1.000000
 50
90.000003
 51
180.000009
  0
ARC
  8
LC-003-002-----0
 62
     1
  6
CONTINUOUS
 10
-13.597276
 20
487.422546
 40
1.000000
 50
0.000000
 51
90.000003
  0
CIRCLE
  8
LC-003-002-----0
 62
     1
  6
CONTINUOUS
 10
-18.597277
 20
483.422546
 40
4.000000
  0
ARC
  8
LC-003-002-----0
 62
     1
  6
CONTINUOUS
 10
-85.674431
 20
420.139404
 40
1.000000
 50
90.000003
 51
180.000009
  0
ARC
  8
LC-003-002-----0
 62
     1
  6
CONTINUOUS
 10
-85.674431
 20
410.139404
 40
1.000000
 50
180.000009
 51
269.999997
  0
ARC
  8
LC-003-002-----0
 62
     1
  6
CONTINUOUS
 10
-67.674431
 20
410.139404
 40
1.000000
 50
269.999997
 51
0.000000
  0
ARC
  8
LC-003-002-----0
 62
     1
  6
CONTINUOUS
 10
-67.674431
 20
420.139404
 40
1.000000
 50
0.000000
 51
90.000003
  0
ARC
  8
LC-003-002-----0
 62
     1
  6
CONTINUOUS
 10
-96.677109
 20
420.139404
 40
1.000000
 50
90.000003
 51
180.000009
  0
ARC
  8
LC-003-002-----0
 62
     1
  6
CONTINUOUS
 10
-96.677109
 20
410.139404
 40
1.000000
 50
180.000009
 51
269.999997
  0
ARC
  8
LC-003-002-----0
 62
     1
  6
CONTINUOUS
 10
-56.674435
 20
420.139404
 40
1.000000
 50
0.000000
 51
90.000003
  0
ARC
  8
LC-003-002-----0
 62
     1
  6
CONTINUOUS
 10
-56.674435
 20
410.139404
 40
1.000000
 50
269.999997
 51
0.000000
  0
LINE
  8
LC-003-002-----0
 62
     1
  6
CONTINUOUS
 10
-76.174431
 20
488.422546
 11
-67.674431
 21
488.422546
  0
LINE
  8
LC-003-002-----0
 62
     1
  6
CONTINUOUS
 10
-76.174431
 20
485.422546
 11
-77.174431
 21
485.422546
  0
LINE
  8
LC-003-002-----0
 62
     1
  6
CONTINUOUS
 10
-77.174431
 20
481.422546
 11
-76.174431
 21
481.422546
  0
LINE
  8
LC-008-003-----0
 62
     2
  6
DASHED
 10
-76.674431
 20
481.422546
 11
-72.438293
 21
481.422546
  0
LINE
  8
LC-007-004-----0
 62
     2
  6
CONTINUOUS
 10
-76.174431
 20
481.877533
 11
-77.174431
 21
481.877533
  0
LINE
  8
LC-008-003-----0
 62
     2
  6
DASHED
 10
-77.174431
 20
481.877533
 11
-80.075600
 21
481.877533
  0
LINE
  8
LC-007-004-----0
 62
     2
  6
CONTINUOUS
 10
-76.174431
 20
484.967529
 11
-77.174431
 21
484.967529
  0
LINE
  8
LC-008-003-----0
 62
     2
  6
DASHED
 10
-77.174431
 20
484.967529
 11
-80.075600
 21
484.967529
  0
LINE
  8
LC-008-003-----0
 62
     2
  6
DASHED
 10
-85.475601
 20
486.922546
 11
-82.175598
 21
486.922546
  0
LINE
  8
LC-008-003-----0
 62
     2
  6
DASHED
 10
-72.175598
 20
481.877533
 11
-76.674431
 21
481.877533
  0
LINE
  8
LC-008-003-----0
 62
     2
  6
DASHED
 10
-80.075600
 20
485.422546
 11
-80.075600
 21
481.422546
  0
ARC
  8
LC-008-003-----0
 62
     2
  6
DASHED
 10
-85.475601
 20
486.222534
 40
0.700000
 50
90.000003
 51
180.000009
  0
LINE
  8
LC-008-003-----0
 62
     2
  6
DASHED
 10
-86.175598
 20
480.622528
 11
-86.175598
 21
486.222534
  0
LINE
  8
LC-008-003-----0
 62
     2
  6
DASHED
 10
-85.475601
 20
479.922546
 11
-82.175598
 21
479.922546
  0
ARC
  8
LC-008-003-----0
 62
     2
  6
DASHED
 10
-85.475601
 20
480.622528
 40
0.700000
 50
180.000009
 51
269.999997
  0
LINE
  8
LC-008-003-----0
 62
     2
  6
DASHED
 10
-72.438293
 20
481.422546
 11
-72.175598
 21
481.877533
  0
LINE
  8
LC-008-003-----0
 62
     2
  6
DASHED
 10
-72.438293
 20
485.422546
 11
-72.175598
 21
484.967529
  0
LINE
  8
LC-008-003-----0
 62
     2
  6
DASHED
 10
-82.175598
 20
485.422546
 11
-77.174431
 21
485.422546
  0
LINE
  8
LC-008-003-----0
 62
     2
  6
DASHED
 10
-82.175598
 20
481.422546
 11
-77.174431
 21
481.422546
  0
LINE
  8
LC-008-003-----0
 62
     2
  6
DASHED
 10
-72.438293
 20
485.422546
 11
-72.438293
 21
481.422546
  0
LINE
  8
LC-008-003-----0
 62
     2
  6
DASHED
 10
-72.175598
 20
484.967529
 11
-76.674431
 21
484.967529
  0
LINE
  8
LC-008-003-----0
 62
     2
  6
DASHED
 10
-72.175598
 20
484.967529
 11
-72.175598
 21
481.877533
  0
LINE
  8
LC-008-003-----0
 62
     2
  6
DASHED
 10
-76.674431
 20
417.139404
 11
-72.438293
 21
417.139404
  0
LINE
  8
LC-003-002-----0
 62
     1
  6
CONTINUOUS
 10
-76.174431
 20
417.139404
 11
-77.174431
 21
417.139404
  0
LINE
  8
LC-003-002-----0
 62
     1
  6
CONTINUOUS
 10
-77.174431
 20
413.139404
 11
-76.174431
 21
413.139404
  0
LINE
  8
LC-008-003-----0
 62
     2
  6
DASHED
 10
-76.174431
 20
413.139404
 11
-72.438293
 21
413.139404
  0
LINE
  8
LC-007-004-----0
 62
     2
  6
CONTINUOUS
 10
-76.174431
 20
413.594391
 11
-77.174431
 21
413.594391
  0
LINE
  8
LC-008-003-----0
 62
     2
  6
DASHED
 10
-77.174431
 20
413.594391
 11
-80.075600
 21
413.594391
  0
LINE
  8
LC-007-004-----0
 62
     2
  6
CONTINUOUS
 10
-76.174431
 20
416.684387
 11
-77.174431
 21
416.684387
  0
LINE
  8
LC-008-003-----0
 62
     2
  6
DASHED
 10
-77.174431
 20
416.684387
 11
-80.075600
 21
416.684387
  0
LINE
  8
LC-008-003-----0
 62
     2
  6
DASHED
 10
-85.475601
 20
418.639404
 11
-82.175598
 21
418.639404
  0
LINE
  8
LC-008-003-----0
 62
     2
  6
DASHED
 10
-72.175598
 20
413.594391
 11
-76.174431
 21
413.594391
  0
LINE
  8
LC-008-003-----0
 62
     2
  6
DASHED
 10
-72.175598
 20
416.684387
 11
-72.175598
 21
413.594391
  0
LINE
  8
LC-008-003-----0
 62
     2
  6
DASHED
 10
-80.075600
 20
417.139404
 11
-80.075600
 21
413.139404
  0
ARC
  8
LC-008-003-----0
 62
     2
  6
DASHED
 10
-85.475601
 20
417.939392
 40
0.700000
 50
90.000003
 51
180.000009
  0
LINE
  8
LC-008-003-----0
 62
     2
  6
DASHED
 10
-86.175598
 20
412.339386
 11
-86.175598
 21
417.939392
  0
LINE
  8
LC-008-003-----0
 62
     2
  6
DASHED
 10
-85.475601
 20
411.639404
 11
-82.175598
 21
411.639404
  0
ARC
  8
LC-008-003-----0
 62
     2
  6
DASHED
 10
-85.475601
 20
412.339386
 40
0.700000
 50
180.000009
 51
269.999997
  0
LINE
  8
LC-008-003-----0
 62
     2
  6
DASHED
 10
-72.438293
 20
413.139404
 11
-72.175598
 21
413.594391
  0
LINE
  8
LC-008-003-----0
 62
     2
  6
DASHED
 10
-72.438293
 20
417.139404
 11
-72.175598
 21
416.684387
  0
LINE
  8
LC-008-003-----0
 62
     2
  6
DASHED
 10
-82.175598
 20
417.139404
 11
-77.174431
 21
417.139404
  0
LINE
  8
LC-008-003-----0
 62
     2
  6
DASHED
 10
-82.175598
 20
413.139404
 11
-77.174431
 21
413.139404
  0
LINE
  8
LC-008-003-----0
 62
     2
  6
DASHED
 10
-72.175598
 20
416.684387
 11
-76.174431
 21
416.684387
  0
LINE
  8
LC-008-003-----0
 62
     2
  6
DASHED
 10
-72.438293
 20
417.139404
 11
-72.438293
 21
413.139404
  0
ENDSEC
  0
EOF
