  0
SECTION
  2
HEADER
  9
$LIMMIN
 10
-108.817337
 20
-27.551117
  9
$LIMMAX
 10
13.377383
 20
85.797737
  9
$EXTMIN
 10
-108.817337
 20
-27.551117
  9
$EXTMAX
 10
13.377383
 20
85.797737
  0
ENDSEC
  0
SECTION
  2
TABLES
  0
TABLE
  2
LTYPE
 70
     3
  0
LTYPE
  2
CONTINUOUS
 70
    64
  3
Ausgezogene Linie
 72
    65
 73
     0
 40
0.0
  0
LTYPE
  2
DASHED
 70
    64
  3
__ __ __ __ __ __ __ __ __ __ __ __ __ __ __
 72
    65
 73
     2
 40
0.75
 49
0.5
 49
-0.25
  0
LTYPE
  2
DASHDOT
 70
    64
  3
__ . __ . __ . __ . __ . __ . __ . __ . __ . __
 72
    65
 73
     4
 40
1.0
 49
0.5
 49
-0.25
 49
0.0
 49
-0.25
  0
ENDTAB
  0
TABLE
  2
LAYER
 70
     4
  0
LAYER
  2
LC-003-002-----0
 70
    64
 62
     7
  6
CONTINUOUS
  0
LAYER
  2
LC-005-002-RND-0
 70
    64
 62
     7
  6
CONTINUOUS
  0
LAYER
  2
LC-008-003-----0
 70
    64
 62
     7
  6
CONTINUOUS
  0
LAYER
  2
LC-007-004-----0
 70
    64
 62
     7
  6
CONTINUOUS
  0
ENDTAB
  0
TABLE
  2
STYLE
 70
     1
  0
STYLE
  2
TXT8
 70
    64
 40
0.0
 41
1.0
 50
0.0
 71
     0
 42
3.500000
  3
TXT8
  4

  0
ENDTAB
  0
ENDSEC
  0
SECTION
  2
BLOCKS
  0
ENDSEC
  0
SECTION
  2
ENTITIES
  0
LINE
  8
LC-008-003-----0
 62
     2
  6
DASHED
 10
-88.488480
 20
80.904137
 11
-77.487312
 21
80.904137
  0
LINE
  8
LC-003-002-----0
 62
     1
  6
CONTINUOUS
 10
-77.487312
 20
80.904137
 11
-76.487312
 21
80.904137
  0
LINE
  8
LC-003-002-----0
 62
     1
  6
CONTINUOUS
 10
-106.987312
 20
33.904137
 11
-46.987320
 21
33.904137
  0
LINE
  8
LC-003-002-----0
 62
     1
  6
CONTINUOUS
 10
-105.987312
 20
41.904137
 11
-93.987312
 21
41.904137
  0
LINE
  8
LC-003-002-----0
 62
     1
  6
CONTINUOUS
 10
-91.987312
 20
83.904137
 11
-77.487312
 21
83.904137
  0
LINE
  8
LC-005-002-RND-0
 62
     2
  6
DASHDOT
 10
-76.987312
 20
85.797737
 11
-76.987312
 21
31.889763
  0
LINE
  8
LC-003-002-----0
 62
     1
  6
CONTINUOUS
 10
-60.987316
 20
82.904137
 11
-60.987316
 21
42.904137
  0
LINE
  8
LC-003-002-----0
 62
     1
  6
CONTINUOUS
 10
-92.987312
 20
82.904137
 11
-92.987312
 21
42.904137
  0
LINE
  8
LC-005-002-RND-0
 62
     2
  6
DASHDOT
 10
-54.487316
 20
43.245682
 11
-54.487316
 21
31.889763
  0
LINE
  8
LC-005-002-RND-0
 62
     2
  6
DASHDOT
 10
-99.487312
 20
43.245682
 11
-99.487312
 21
31.889763
  0
LINE
  8
LC-003-002-----0
 62
     1
  6
CONTINUOUS
 10
-46.987316
 20
40.904137
 11
-46.987316
 21
33.904137
  0
LINE
  8
LC-003-002-----0
 62
     1
  6
CONTINUOUS
 10
-106.987312
 20
40.904137
 11
-106.987312
 21
33.904137
  0
LINE
  8
LC-003-002-----0
 62
     1
  6
CONTINUOUS
 10
-59.987316
 20
41.904137
 11
-47.987316
 21
41.904137
  0
LINE
  8
LC-005-002-RND-0
 62
     2
  6
DASHDOT
 10
-88.864639
 20
63.904137
 11
-65.110443
 21
63.904137
  0
LINE
  8
LC-008-003-----0
 62
     2
  6
DASHED
 10
-102.237312
 20
41.904137
 11
-102.237312
 21
33.904137
  0
LINE
  8
LC-008-003-----0
 62
     2
  6
DASHED
 10
-96.737312
 20
41.904137
 11
-96.737312
 21
33.904137
  0
LINE
  8
LC-008-003-----0
 62
     2
  6
DASHED
 10
-57.237316
 20
41.904137
 11
-57.237316
 21
33.904137
  0
LINE
  8
LC-008-003-----0
 62
     2
  6
DASHED
 10
-51.737316
 20
41.904137
 11
-51.737316
 21
33.904137
  0
ARC
  8
LC-003-002-----0
 62
     1
  6
CONTINUOUS
 10
-105.987312
 20
40.904137
 40
1.000000
 50
90.000003
 51
180.000009
  0
ARC
  8
LC-003-002-----0
 62
     1
  6
CONTINUOUS
 10
-93.987312
 20
42.904137
 40
1.000000
 50
269.999997
 51
0.000000
  0
ARC
  8
LC-003-002-----0
 62
     1
  6
CONTINUOUS
 10
-91.987312
 20
82.904137
 40
1.000000
 50
90.000003
 51
180.000009
  0
ARC
  8
LC-003-002-----0
 62
     1
  6
CONTINUOUS
 10
-61.987316
 20
82.904137
 40
1.000000
 50
0.000000
 51
90.000003
  0
ARC
  8
LC-003-002-----0
 62
     1
  6
CONTINUOUS
 10
-59.987316
 20
42.904137
 40
1.000000
 50
180.000009
 51
269.999997
  0
ARC
  8
LC-003-002-----0
 62
     1
  6
CONTINUOUS
 10
-47.987316
 20
40.904137
 40
1.000000
 50
0.000000
 51
90.000003
  0
LINE
  8
LC-005-002-RND-0
 62
     2
  6
DASHDOT
 10
-94.570168
 20
78.904137
 11
-59.529137
 21
78.904137
  0
LINE
  8
LC-008-003-----0
 62
     2
  6
DASHED
 10
-92.987312
 20
82.904137
 11
-88.487312
 21
82.904137
  0
LINE
  8
LC-008-003-----0
 62
     2
  6
DASHED
 10
-92.987312
 20
74.904137
 11
-88.487312
 21
74.904137
  0
LINE
  8
LC-008-003-----0
 62
     2
  6
DASHED
 10
-88.487312
 20
81.304138
 11
-77.487312
 21
81.304138
  0
LINE
  8
LC-008-003-----0
 62
     2
  6
DASHED
 10
-88.487312
 20
76.504135
 11
-77.487312
 21
76.504135
  0
LINE
  8
LC-008-003-----0
 62
     2
  6
DASHED
 10
-88.487312
 20
82.904137
 11
-88.487312
 21
74.904137
  0
LINE
  8
LC-008-003-----0
 62
     2
  6
DASHED
 10
-68.751175
 20
80.904137
 11
-64.987312
 21
80.904137
  0
LINE
  8
LC-008-003-----0
 62
     2
  6
DASHED
 10
-68.751175
 20
76.904137
 11
-64.987312
 21
76.904137
  0
LINE
  8
LC-008-003-----0
 62
     2
  6
DASHED
 10
-68.488480
 20
80.404137
 11
-60.987320
 21
80.404137
  0
LINE
  8
LC-008-003-----0
 62
     2
  6
DASHED
 10
-68.488480
 20
77.404137
 11
-60.987320
 21
77.404137
  0
LINE
  8
LC-003-002-----0
 62
     1
  6
CONTINUOUS
 10
-106.987312
 20
-6.169911
 11
-106.987312
 21
-24.169910
  0
LINE
  8
LC-003-002-----0
 62
     1
  6
CONTINUOUS
 10
-76.487312
 20
83.904137
 11
-76.487312
 21
73.891632
  0
LINE
  8
LC-003-002-----0
 62
     1
  6
CONTINUOUS
 10
-77.487312
 20
83.904137
 11
-77.487312
 21
73.891632
  0
ARC
  8
LC-003-002-----0
 62
     1
  6
CONTINUOUS
 10
-76.987312
 20
63.904137
 40
10.000000
 50
92.865984
 51
87.134014
  0
LINE
  8
LC-008-003-----0
 62
     2
  6
DASHED
 10
-64.987312
 20
80.904137
 11
-64.987312
 21
76.904137
  0
LINE
  8
LC-003-002-----0
 62
     1
  6
CONTINUOUS
 10
-105.987312
 20
-25.169910
 11
-47.987320
 21
-25.169910
  0
LINE
  8
LC-003-002-----0
 62
     1
  6
CONTINUOUS
 10
-46.987316
 20
-6.169911
 11
-46.987316
 21
-24.169910
  0
LINE
  8
LC-003-002-----0
 62
     1
  6
CONTINUOUS
 10
-105.987312
 20
-5.169911
 11
-47.987320
 21
-5.169911
  0
LINE
  8
LC-003-002-----0
 62
     1
  6
CONTINUOUS
 10
-8.252054
 20
33.904137
 11
11.747946
 21
33.904137
  0
LINE
  8
LC-003-002-----0
 62
     1
  6
CONTINUOUS
 10
11.747946
 20
33.904137
 11
11.747946
 21
82.904137
  0
LINE
  8
LC-003-002-----0
 62
     1
  6
CONTINUOUS
 10
-7.252054
 20
83.904137
 11
10.747946
 21
83.904137
  0
LINE
  8
LC-003-002-----0
 62
     1
  6
CONTINUOUS
 10
-8.252054
 20
33.904137
 11
-8.252054
 21
82.904137
  0
LINE
  8
LC-003-002-----0
 62
     1
  6
CONTINUOUS
 10
-7.252054
 20
41.904137
 11
10.747946
 21
41.904137
  0
LINE
  8
LC-005-002-RND-0
 62
     2
  6
DASHDOT
 10
-10.370064
 20
63.904137
 11
13.377383
 21
63.904137
  0
LINE
  8
LC-008-003-----0
 62
     2
  6
DASHED
 10
-8.252054
 20
53.904137
 11
12.040327
 21
53.904137
  0
LINE
  8
LC-008-003-----0
 62
     2
  6
DASHED
 10
-8.252054
 20
73.891632
 11
11.747946
 21
73.891632
  0
LINE
  8
LC-005-002-RND-0
 62
     2
  6
DASHDOT
 10
-3.069908
 20
78.904137
 11
6.699040
 21
78.904137
  0
LINE
  8
LC-005-002-RND-0
 62
     2
  6
DASHDOT
 10
1.747946
 20
74.108528
 11
1.747946
 21
83.559937
  0
CIRCLE
  8
LC-003-002-----0
 62
     1
  6
CONTINUOUS
 10
1.747946
 20
78.904137
 40
4.000000
  0
LINE
  8
LC-005-002-RND-0
 62
     2
  6
DASHDOT
 10
1.747946
 20
43.245682
 11
1.747946
 21
31.889763
  0
LINE
  8
LC-008-003-----0
 62
     2
  6
DASHED
 10
-1.002054
 20
41.904137
 11
-1.002054
 21
33.904137
  0
LINE
  8
LC-008-003-----0
 62
     2
  6
DASHED
 10
4.497946
 20
41.904137
 11
4.497946
 21
33.904137
  0
ARC
  8
LC-003-002-----0
 62
     1
  6
CONTINUOUS
 10
-7.252054
 20
82.904137
 40
1.000000
 50
90.000003
 51
180.000009
  0
ARC
  8
LC-003-002-----0
 62
     1
  6
CONTINUOUS
 10
10.747946
 20
82.904137
 40
1.000000
 50
0.000000
 51
90.000003
  0
ARC
  8
LC-003-002-----0
 62
     1
  6
CONTINUOUS
 10
-7.252054
 20
40.904137
 40
1.000000
 50
90.000003
 51
180.000009
  0
ARC
  8
LC-003-002-----0
 62
     1
  6
CONTINUOUS
 10
10.747946
 20
40.904137
 40
1.000000
 50
0.000000
 51
90.000003
  0
LINE
  8
LC-005-002-RND-0
 62
     2
  6
DASHDOT
 10
-76.987312
 20
-2.955845
 11
-76.987312
 21
-27.551117
  0
LINE
  8
LC-005-002-RND-0
 62
     2
  6
DASHDOT
 10
-54.487316
 20
-11.273430
 11
-54.487316
 21
-19.299084
  0
LINE
  8
LC-005-002-RND-0
 62
     2
  6
DASHDOT
 10
-108.817337
 20
-15.169911
 11
-44.931984
 21
-15.169911
  0
LINE
  8
LC-005-002-RND-0
 62
     2
  6
DASHDOT
 10
-99.487312
 20
-11.273430
 11
-99.487312
 21
-19.299084
  0
CIRCLE
  8
LC-003-002-----0
 62
     1
  6
CONTINUOUS
 10
-99.487312
 20
-15.169911
 40
2.750000
  0
CIRCLE
  8
LC-003-002-----0
 62
     1
  6
CONTINUOUS
 10
-54.487316
 20
-15.169911
 40
2.750000
  0
LINE
  8
LC-003-002-----0
 62
     1
  6
CONTINUOUS
 10
-77.487312
 20
-5.169911
 11
-77.487312
 21
-25.169910
  0
LINE
  8
LC-003-002-----0
 62
     1
  6
CONTINUOUS
 10
-76.487312
 20
-5.169911
 11
-76.487312
 21
-25.169910
  0
LINE
  8
LC-008-003-----0
 62
     2
  6
DASHED
 10
-86.987312
 20
-5.169911
 11
-86.987312
 21
-25.169910
  0
LINE
  8
LC-008-003-----0
 62
     2
  6
DASHED
 10
-66.987312
 20
-5.169911
 11
-66.987312
 21
-25.169910
  0
LINE
  8
LC-003-002-----0
 62
     1
  6
CONTINUOUS
 10
-92.987312
 20
-6.169911
 11
-92.987312
 21
-24.169910
  0
LINE
  8
LC-003-002-----0
 62
     1
  6
CONTINUOUS
 10
-60.987316
 20
-6.169911
 11
-60.987316
 21
-24.169910
  0
LINE
  8
LC-008-003-----0
 62
     2
  6
DASHED
 10
-92.987312
 20
-11.169911
 11
-88.487312
 21
-11.169911
  0
LINE
  8
LC-008-003-----0
 62
     2
  6
DASHED
 10
-92.987312
 20
-19.169910
 11
-88.487312
 21
-19.169910
  0
LINE
  8
LC-008-003-----0
 62
     2
  6
DASHED
 10
-88.487312
 20
-12.769911
 11
-77.487312
 21
-12.769911
  0
LINE
  8
LC-008-003-----0
 62
     2
  6
DASHED
 10
-88.487312
 20
-17.569910
 11
-77.487312
 21
-17.569910
  0
LINE
  8
LC-008-003-----0
 62
     2
  6
DASHED
 10
-88.487312
 20
-11.169911
 11
-88.487312
 21
-19.169910
  0
LINE
  8
LC-008-003-----0
 62
     2
  6
DASHED
 10
-68.751175
 20
-13.169911
 11
-64.987312
 21
-13.169911
  0
LINE
  8
LC-008-003-----0
 62
     2
  6
DASHED
 10
-68.751175
 20
-17.169910
 11
-64.987312
 21
-17.169910
  0
LINE
  8
LC-008-003-----0
 62
     2
  6
DASHED
 10
-68.488480
 20
-13.669911
 11
-60.987320
 21
-13.669911
  0
LINE
  8
LC-008-003-----0
 62
     2
  6
DASHED
 10
-68.488480
 20
-16.669910
 11
-60.987320
 21
-16.669910
  0
LINE
  8
LC-008-003-----0
 62
     2
  6
DASHED
 10
-64.987312
 20
-13.169911
 11
-64.987312
 21
-17.169910
  0
ARC
  8
LC-003-002-----0
 62
     1
  6
CONTINUOUS
 10
-91.987312
 20
-6.169911
 40
1.000000
 50
90.000003
 51
180.000009
  0
ARC
  8
LC-003-002-----0
 62
     1
  6
CONTINUOUS
 10
-61.987316
 20
-6.169911
 40
1.000000
 50
0.000000
 51
90.000003
  0
ARC
  8
LC-003-002-----0
 62
     1
  6
CONTINUOUS
 10
-61.987316
 20
-24.169910
 40
1.000000
 50
269.999997
 51
0.000000
  0
ARC
  8
LC-003-002-----0
 62
     1
  6
CONTINUOUS
 10
-91.987312
 20
-24.169910
 40
1.000000
 50
180.000009
 51
269.999997
  0
ARC
  8
LC-003-002-----0
 62
     1
  6
CONTINUOUS
 10
-105.987312
 20
-6.169911
 40
1.000000
 50
90.000003
 51
180.000009
  0
ARC
  8
LC-003-002-----0
 62
     1
  6
CONTINUOUS
 10
-105.987312
 20
-24.169910
 40
1.000000
 50
180.000009
 51
269.999997
  0
ARC
  8
LC-003-002-----0
 62
     1
  6
CONTINUOUS
 10
-47.987316
 20
-6.169911
 40
1.000000
 50
0.000000
 51
90.000003
  0
ARC
  8
LC-003-002-----0
 62
     1
  6
CONTINUOUS
 10
-47.987316
 20
-24.169910
 40
1.000000
 50
269.999997
 51
0.000000
  0
LINE
  8
LC-003-002-----0
 62
     1
  6
CONTINUOUS
 10
-76.487312
 20
83.904137
 11
-61.987320
 21
83.904137
  0
LINE
  8
LC-008-003-----0
 62
     2
  6
DASHED
 10
-76.487312
 20
80.904137
 11
-68.751175
 21
80.904137
  0
LINE
  8
LC-008-003-----0
 62
     2
  6
DASHED
 10
-88.488480
 20
76.904137
 11
-77.487312
 21
76.904137
  0
LINE
  8
LC-003-002-----0
 62
     1
  6
CONTINUOUS
 10
-77.487312
 20
76.904137
 11
-76.487312
 21
76.904137
  0
LINE
  8
LC-008-003-----0
 62
     2
  6
DASHED
 10
-76.487312
 20
76.904137
 11
-68.751175
 21
76.904137
  0
LINE
  8
LC-008-003-----0
 62
     2
  6
DASHED
 10
-68.488480
 20
80.449135
 11
-76.487312
 21
80.449135
  0
LINE
  8
LC-007-004-----0
 62
     2
  6
CONTINUOUS
 10
-76.487312
 20
80.449135
 11
-77.487312
 21
80.449135
  0
LINE
  8
LC-008-003-----0
 62
     2
  6
DASHED
 10
-77.487312
 20
80.449135
 11
-86.388481
 21
80.449135
  0
LINE
  8
LC-008-003-----0
 62
     2
  6
DASHED
 10
-68.488480
 20
77.359138
 11
-76.487312
 21
77.359138
  0
LINE
  8
LC-007-004-----0
 62
     2
  6
CONTINUOUS
 10
-76.487312
 20
77.359138
 11
-77.487312
 21
77.359138
  0
LINE
  8
LC-008-003-----0
 62
     2
  6
DASHED
 10
-77.487312
 20
77.359138
 11
-86.388481
 21
77.359138
  0
LINE
  8
LC-008-003-----0
 62
     2
  6
DASHED
 10
-88.488480
 20
-13.169911
 11
-77.487312
 21
-13.169911
  0
LINE
  8
LC-003-002-----0
 62
     1
  6
CONTINUOUS
 10
-77.487312
 20
-13.169911
 11
-76.487312
 21
-13.169911
  0
LINE
  8
LC-008-003-----0
 62
     2
  6
DASHED
 10
-76.487312
 20
-13.169911
 11
-68.751175
 21
-13.169911
  0
LINE
  8
LC-008-003-----0
 62
     2
  6
DASHED
 10
-88.488480
 20
-17.169910
 11
-77.487312
 21
-17.169910
  0
LINE
  8
LC-003-002-----0
 62
     1
  6
CONTINUOUS
 10
-77.487312
 20
-17.169910
 11
-76.487312
 21
-17.169910
  0
LINE
  8
LC-008-003-----0
 62
     2
  6
DASHED
 10
-76.487312
 20
-17.169910
 11
-68.751175
 21
-17.169910
  0
LINE
  8
LC-008-003-----0
 62
     2
  6
DASHED
 10
-68.488480
 20
-13.624911
 11
-76.487312
 21
-13.624911
  0
LINE
  8
LC-007-004-----0
 62
     2
  6
CONTINUOUS
 10
-76.487312
 20
-13.624911
 11
-77.487312
 21
-13.624911
  0
LINE
  8
LC-008-003-----0
 62
     2
  6
DASHED
 10
-77.487312
 20
-13.624911
 11
-86.388481
 21
-13.624911
  0
LINE
  8
LC-007-004-----0
 62
     2
  6
CONTINUOUS
 10
-76.487312
 20
-16.714911
 11
-77.487312
 21
-16.714911
  0
LINE
  8
LC-008-003-----0
 62
     2
  6
DASHED
 10
-77.487312
 20
-16.714911
 11
-86.388481
 21
-16.714911
  0
LINE
  8
LC-008-003-----0
 62
     2
  6
DASHED
 10
-88.488480
 20
-11.669911
 11
-88.488480
 21
-18.669910
  0
LINE
  8
LC-008-003-----0
 62
     2
  6
DASHED
 10
-91.788483
 20
-11.669911
 11
-88.488480
 21
-11.669911
  0
ARC
  8
LC-008-003-----0
 62
     2
  6
DASHED
 10
-91.788483
 20
-12.369911
 40
0.700000
 50
90.000003
 51
180.000009
  0
LINE
  8
LC-008-003-----0
 62
     2
  6
DASHED
 10
-92.488480
 20
-17.969912
 11
-92.488480
 21
-12.369910
  0
LINE
  8
LC-008-003-----0
 62
     2
  6
DASHED
 10
-91.788483
 20
-18.669910
 11
-88.488480
 21
-18.669910
  0
ARC
  8
LC-008-003-----0
 62
     2
  6
DASHED
 10
-91.788483
 20
-17.969912
 40
0.700000
 50
180.000009
 51
269.999997
  0
LINE
  8
LC-008-003-----0
 62
     2
  6
DASHED
 10
-68.751175
 20
-17.169910
 11
-68.488480
 21
-16.714911
  0
LINE
  8
LC-008-003-----0
 62
     2
  6
DASHED
 10
-68.751175
 20
-13.169911
 11
-68.488480
 21
-13.624911
  0
LINE
  8
LC-008-003-----0
 62
     2
  6
DASHED
 10
-68.488480
 20
-16.714911
 11
-76.487312
 21
-16.714911
  0
LINE
  8
LC-008-003-----0
 62
     2
  6
DASHED
 10
-88.488480
 20
82.404137
 11
-88.488480
 21
75.404137
  0
LINE
  8
LC-008-003-----0
 62
     2
  6
DASHED
 10
-91.788483
 20
82.404137
 11
-88.488480
 21
82.404137
  0
ARC
  8
LC-008-003-----0
 62
     2
  6
DASHED
 10
-91.788483
 20
81.704140
 40
0.700000
 50
90.000003
 51
180.000009
  0
LINE
  8
LC-008-003-----0
 62
     2
  6
DASHED
 10
-92.488480
 20
76.104134
 11
-92.488480
 21
81.704140
  0
LINE
  8
LC-008-003-----0
 62
     2
  6
DASHED
 10
-91.788483
 20
75.404137
 11
-88.488480
 21
75.404137
  0
ARC
  8
LC-008-003-----0
 62
     2
  6
DASHED
 10
-91.788483
 20
76.104134
 40
0.700000
 50
180.000009
 51
269.999997
  0
LINE
  8
LC-008-003-----0
 62
     2
  6
DASHED
 10
-68.751175
 20
76.904137
 11
-68.488480
 21
77.359138
  0
LINE
  8
LC-008-003-----0
 62
     2
  6
DASHED
 10
-68.751175
 20
80.904137
 11
-68.488480
 21
80.449135
  0
LINE
  8
LC-008-003-----0
 62
     2
  6
DASHED
 10
-86.388481
 20
-13.169911
 11
-86.388481
 21
-17.169910
  0
LINE
  8
LC-008-003-----0
 62
     2
  6
DASHED
 10
-68.751175
 20
-13.169911
 11
-68.751175
 21
-17.169910
  0
LINE
  8
LC-008-003-----0
 62
     2
  6
DASHED
 10
-68.488480
 20
-13.624911
 11
-68.488480
 21
-16.714911
  0
LINE
  8
LC-008-003-----0
 62
     2
  6
DASHED
 10
-68.488480
 20
80.449135
 11
-68.488480
 21
77.359138
  0
LINE
  8
LC-008-003-----0
 62
     2
  6
DASHED
 10
-68.751175
 20
80.904137
 11
-68.751175
 21
76.904137
  0
LINE
  8
LC-008-003-----0
 62
     2
  6
DASHED
 10
-86.388481
 20
80.904137
 11
-86.388481
 21
76.904137
  0
ENDSEC
  0
EOF
