  0
SECTION
  2
HEADER
  9
$LIMMIN
 10
112.475784
 20
522.585754
  9
$LIMMAX
 10
260.975830
 20
648.687744
  9
$EXTMIN
 10
112.475784
 20
522.585754
  9
$EXTMAX
 10
260.975830
 20
648.687744
  0
ENDSEC
  0
SECTION
  2
TABLES
  0
TABLE
  2
LTYPE
 70
     3
  0
LTYPE
  2
CONTINUOUS
 70
    64
  3
Ausgezogene Linie
 72
    65
 73
     0
 40
0.0
  0
LTYPE
  2
DASHED
 70
    64
  3
__ __ __ __ __ __ __ __ __ __ __ __ __ __ __
 72
    65
 73
     2
 40
0.75
 49
0.5
 49
-0.25
  0
LTYPE
  2
DASHDOT
 70
    64
  3
__ . __ . __ . __ . __ . __ . __ . __ . __ . __
 72
    65
 73
     4
 40
1.0
 49
0.5
 49
-0.25
 49
0.0
 49
-0.25
  0
ENDTAB
  0
TABLE
  2
LAYER
 70
     4
  0
LAYER
  2
LC-003-002-----0
 70
    64
 62
     7
  6
CONTINUOUS
  0
LAYER
  2
LC-005-002-RND-0
 70
    64
 62
     7
  6
CONTINUOUS
  0
LAYER
  2
LC-008-003-----0
 70
    64
 62
     7
  6
CONTINUOUS
  0
LAYER
  2
LC-007-004-----0
 70
    64
 62
     7
  6
CONTINUOUS
  0
ENDTAB
  0
TABLE
  2
STYLE
 70
     1
  0
STYLE
  2
TXT8
 70
    64
 40
0.0
 41
1.0
 50
0.0
 71
     0
 42
3.500000
  3
TXT8
  4

  0
ENDTAB
  0
ENDSEC
  0
SECTION
  2
BLOCKS
  0
ENDSEC
  0
SECTION
  2
ENTITIES
  0
LINE
  8
LC-008-003-----0
 62
     2
  6
DASHED
 10
137.055542
 20
641.828674
 11
149.856705
 21
641.828674
  0
LINE
  8
LC-003-002-----0
 62
     1
  6
CONTINUOUS
 10
113.356705
 20
587.328674
 11
187.356705
 21
587.328674
  0
LINE
  8
LC-003-002-----0
 62
     1
  6
CONTINUOUS
 10
114.356705
 20
596.328674
 11
130.356705
 21
596.328674
  0
LINE
  8
LC-003-002-----0
 62
     1
  6
CONTINUOUS
 10
132.356705
 20
645.328674
 11
149.856705
 21
645.328674
  0
LINE
  8
LC-005-002-RND-0
 62
     2
  6
DASHDOT
 10
150.356705
 20
584.806335
 11
150.356705
 21
648.687744
  0
LINE
  8
LC-003-002-----0
 62
     1
  6
CONTINUOUS
 10
169.356705
 20
597.328674
 11
169.356705
 21
644.328674
  0
LINE
  8
LC-003-002-----0
 62
     1
  6
CONTINUOUS
 10
131.356705
 20
597.328674
 11
131.356705
 21
644.328674
  0
LINE
  8
LC-005-002-RND-0
 62
     2
  6
DASHDOT
 10
180.356705
 20
584.806335
 11
180.356705
 21
598.598938
  0
LINE
  8
LC-005-002-RND-0
 62
     2
  6
DASHDOT
 10
120.356705
 20
584.806335
 11
120.356705
 21
598.598938
  0
LINE
  8
LC-003-002-----0
 62
     1
  6
CONTINUOUS
 10
187.356705
 20
587.328674
 11
187.356705
 21
595.328674
  0
LINE
  8
LC-003-002-----0
 62
     1
  6
CONTINUOUS
 10
113.356705
 20
587.328674
 11
113.356705
 21
595.328674
  0
LINE
  8
LC-005-002-RND-0
 62
     2
  6
DASHDOT
 10
135.914078
 20
622.328674
 11
164.799332
 21
622.328674
  0
LINE
  8
LC-003-002-----0
 62
     1
  6
CONTINUOUS
 10
170.356705
 20
596.328674
 11
186.356705
 21
596.328674
  0
LINE
  8
LC-003-002-----0
 62
     1
  6
CONTINUOUS
 10
150.856705
 20
634.818726
 11
150.856705
 21
645.328674
  0
LINE
  8
LC-003-002-----0
 62
     1
  6
CONTINUOUS
 10
149.856705
 20
634.818726
 11
149.856705
 21
645.328674
  0
ARC
  8
LC-003-002-----0
 62
     1
  6
CONTINUOUS
 10
150.356705
 20
622.328674
 40
12.500000
 50
92.292446
 51
87.707559
  0
LINE
  8
LC-008-003-----0
 62
     2
  6
DASHED
 10
123.656700
 20
587.328674
 11
123.656700
 21
596.328674
  0
LINE
  8
LC-008-003-----0
 62
     2
  6
DASHED
 10
117.056702
 20
587.328674
 11
117.056702
 21
596.328674
  0
LINE
  8
LC-008-003-----0
 62
     2
  6
DASHED
 10
183.656708
 20
587.328674
 11
183.656708
 21
596.328674
  0
LINE
  8
LC-008-003-----0
 62
     2
  6
DASHED
 10
177.056702
 20
587.328674
 11
177.056702
 21
596.328674
  0
ARC
  8
LC-003-002-----0
 62
     1
  6
CONTINUOUS
 10
114.356705
 20
595.328674
 40
1.000000
 50
90.000003
 51
180.000009
  0
ARC
  8
LC-003-002-----0
 62
     1
  6
CONTINUOUS
 10
130.356705
 20
597.328674
 40
1.000000
 50
269.999997
 51
0.000000
  0
ARC
  8
LC-003-002-----0
 62
     1
  6
CONTINUOUS
 10
132.356705
 20
644.328674
 40
1.000000
 50
90.000003
 51
180.000009
  0
ARC
  8
LC-003-002-----0
 62
     1
  6
CONTINUOUS
 10
168.356705
 20
644.328674
 40
1.000000
 50
0.000000
 51
90.000003
  0
ARC
  8
LC-003-002-----0
 62
     1
  6
CONTINUOUS
 10
170.356705
 20
597.328674
 40
1.000000
 50
180.000009
 51
269.999997
  0
ARC
  8
LC-003-002-----0
 62
     1
  6
CONTINUOUS
 10
186.356705
 20
595.328674
 40
1.000000
 50
0.000000
 51
90.000003
  0
LINE
  8
LC-005-002-RND-0
 62
     2
  6
DASHDOT
 10
130.003616
 20
639.328674
 11
170.259064
 21
639.328674
  0
LINE
  8
LC-008-003-----0
 62
     2
  6
DASHED
 10
131.356705
 20
644.328674
 11
137.056702
 21
644.328674
  0
LINE
  8
LC-008-003-----0
 62
     2
  6
DASHED
 10
131.356705
 20
634.328674
 11
137.056702
 21
634.328674
  0
LINE
  8
LC-008-003-----0
 62
     2
  6
DASHED
 10
137.056702
 20
642.228699
 11
149.856705
 21
642.228699
  0
LINE
  8
LC-008-003-----0
 62
     2
  6
DASHED
 10
137.056702
 20
636.428711
 11
149.856705
 21
636.428711
  0
LINE
  8
LC-008-003-----0
 62
     2
  6
DASHED
 10
137.056702
 20
634.328674
 11
137.056702
 21
644.328674
  0
LINE
  8
LC-008-003-----0
 62
     2
  6
DASHED
 10
156.755310
 20
641.828674
 11
165.356705
 21
641.828674
  0
LINE
  8
LC-008-003-----0
 62
     2
  6
DASHED
 10
156.755310
 20
636.828674
 11
165.356705
 21
636.828674
  0
LINE
  8
LC-008-003-----0
 62
     2
  6
DASHED
 10
157.055542
 20
641.328674
 11
169.356705
 21
641.328674
  0
LINE
  8
LC-008-003-----0
 62
     2
  6
DASHED
 10
157.055542
 20
637.328674
 11
169.356705
 21
637.328674
  0
LINE
  8
LC-008-003-----0
 62
     2
  6
DASHED
 10
165.356705
 20
636.828674
 11
165.356705
 21
641.828674
  0
LINE
  8
LC-003-002-----0
 62
     1
  6
CONTINUOUS
 10
113.356705
 20
549.398438
 11
113.356705
 21
526.398438
  0
LINE
  8
LC-003-002-----0
 62
     1
  6
CONTINUOUS
 10
114.356705
 20
525.398438
 11
186.356705
 21
525.398438
  0
LINE
  8
LC-003-002-----0
 62
     1
  6
CONTINUOUS
 10
187.356705
 20
549.398438
 11
187.356705
 21
526.398438
  0
LINE
  8
LC-003-002-----0
 62
     1
  6
CONTINUOUS
 10
114.356705
 20
550.398438
 11
186.356705
 21
550.398438
  0
LINE
  8
LC-005-002-RND-0
 62
     2
  6
DASHDOT
 10
150.356705
 20
552.821899
 11
150.356705
 21
522.585754
  0
LINE
  8
LC-005-002-RND-0
 62
     2
  6
DASHDOT
 10
112.475784
 20
537.898438
 11
188.443466
 21
537.898438
  0
LINE
  8
LC-005-002-RND-0
 62
     2
  6
DASHDOT
 10
120.356705
 20
542.138733
 11
120.356705
 21
533.417053
  0
CIRCLE
  8
LC-003-002-----0
 62
     1
  6
CONTINUOUS
 10
120.356705
 20
537.898438
 40
3.300000
  0
CIRCLE
  8
LC-003-002-----0
 62
     1
  6
CONTINUOUS
 10
180.356705
 20
537.898438
 40
3.300000
  0
LINE
  8
LC-005-002-RND-0
 62
     2
  6
DASHDOT
 10
180.356705
 20
542.138733
 11
180.356705
 21
533.417053
  0
LINE
  8
LC-003-002-----0
 62
     1
  6
CONTINUOUS
 10
131.356705
 20
549.398438
 11
131.356705
 21
526.398438
  0
LINE
  8
LC-003-002-----0
 62
     1
  6
CONTINUOUS
 10
169.356705
 20
549.398438
 11
169.356705
 21
526.398438
  0
LINE
  8
LC-008-003-----0
 62
     2
  6
DASHED
 10
137.856705
 20
550.398438
 11
137.856705
 21
525.398438
  0
LINE
  8
LC-008-003-----0
 62
     2
  6
DASHED
 10
162.856705
 20
550.398438
 11
162.856705
 21
525.398438
  0
LINE
  8
LC-008-003-----0
 62
     2
  6
DASHED
 10
131.356705
 20
542.898438
 11
137.056702
 21
542.898438
  0
LINE
  8
LC-008-003-----0
 62
     2
  6
DASHED
 10
131.356705
 20
532.898438
 11
137.056702
 21
532.898438
  0
LINE
  8
LC-008-003-----0
 62
     2
  6
DASHED
 10
137.056702
 20
540.798462
 11
149.856705
 21
540.798462
  0
LINE
  8
LC-008-003-----0
 62
     2
  6
DASHED
 10
137.056702
 20
534.998413
 11
149.856705
 21
534.998413
  0
LINE
  8
LC-008-003-----0
 62
     2
  6
DASHED
 10
137.056702
 20
532.898438
 11
137.056702
 21
542.898438
  0
LINE
  8
LC-008-003-----0
 62
     2
  6
DASHED
 10
156.756485
 20
540.398438
 11
165.356705
 21
540.398438
  0
LINE
  8
LC-008-003-----0
 62
     2
  6
DASHED
 10
156.756485
 20
535.398438
 11
165.356705
 21
535.398438
  0
LINE
  8
LC-008-003-----0
 62
     2
  6
DASHED
 10
157.056702
 20
539.898438
 11
169.356705
 21
539.898438
  0
LINE
  8
LC-008-003-----0
 62
     2
  6
DASHED
 10
157.056702
 20
535.898438
 11
169.356705
 21
535.898438
  0
LINE
  8
LC-008-003-----0
 62
     2
  6
DASHED
 10
165.356705
 20
535.398438
 11
165.356705
 21
540.398438
  0
LINE
  8
LC-003-002-----0
 62
     1
  6
CONTINUOUS
 10
150.856705
 20
550.398438
 11
150.856705
 21
525.398438
  0
LINE
  8
LC-003-002-----0
 62
     1
  6
CONTINUOUS
 10
149.856705
 20
550.398438
 11
149.856705
 21
525.398438
  0
LINE
  8
LC-003-002-----0
 62
     1
  6
CONTINUOUS
 10
233.777588
 20
587.328674
 11
258.777588
 21
587.328674
  0
LINE
  8
LC-003-002-----0
 62
     1
  6
CONTINUOUS
 10
258.777588
 20
587.328674
 11
258.777588
 21
644.328674
  0
LINE
  8
LC-003-002-----0
 62
     1
  6
CONTINUOUS
 10
234.777588
 20
645.328674
 11
257.777588
 21
645.328674
  0
LINE
  8
LC-005-002-RND-0
 62
     2
  6
DASHDOT
 10
246.277588
 20
633.294312
 11
246.277588
 21
645.074097
  0
LINE
  8
LC-003-002-----0
 62
     1
  6
CONTINUOUS
 10
233.777588
 20
587.328674
 11
233.777588
 21
644.328674
  0
LINE
  8
LC-005-002-RND-0
 62
     2
  6
DASHDOT
 10
231.456482
 20
622.328674
 11
260.975830
 21
622.328674
  0
LINE
  8
LC-003-002-----0
 62
     1
  6
CONTINUOUS
 10
234.777588
 20
596.328674
 11
257.777588
 21
596.328674
  0
LINE
  8
LC-005-002-RND-0
 62
     2
  6
DASHDOT
 10
240.515625
 20
639.328674
 11
251.815079
 21
639.328674
  0
LINE
  8
LC-008-003-----0
 62
     2
  6
DASHED
 10
233.777588
 20
609.828674
 11
258.777588
 21
609.828674
  0
LINE
  8
LC-008-003-----0
 62
     2
  6
DASHED
 10
233.777588
 20
634.818726
 11
258.777588
 21
634.818726
  0
LINE
  8
LC-005-002-RND-0
 62
     2
  6
DASHDOT
 10
246.277588
 20
584.806335
 11
246.277588
 21
598.598938
  0
LINE
  8
LC-008-003-----0
 62
     2
  6
DASHED
 10
249.577576
 20
587.328674
 11
249.577576
 21
596.328674
  0
LINE
  8
LC-008-003-----0
 62
     2
  6
DASHED
 10
242.977585
 20
587.328674
 11
242.977585
 21
596.328674
  0
ARC
  8
LC-003-002-----0
 62
     1
  6
CONTINUOUS
 10
234.777588
 20
644.328674
 40
1.000000
 50
90.000003
 51
180.000009
  0
CIRCLE
  8
LC-003-002-----0
 62
     1
  6
CONTINUOUS
 10
246.277588
 20
639.328674
 40
5.000000
  0
ARC
  8
LC-003-002-----0
 62
     1
  6
CONTINUOUS
 10
257.777588
 20
644.328674
 40
1.000000
 50
0.000000
 51
90.000003
  0
ARC
  8
LC-003-002-----0
 62
     1
  6
CONTINUOUS
 10
234.777588
 20
595.328674
 40
1.000000
 50
90.000003
 51
180.000009
  0
ARC
  8
LC-003-002-----0
 62
     1
  6
CONTINUOUS
 10
257.777588
 20
595.328674
 40
1.000000
 50
0.000000
 51
90.000003
  0
ARC
  8
LC-003-002-----0
 62
     1
  6
CONTINUOUS
 10
132.356705
 20
526.398438
 40
1.000000
 50
180.000009
 51
269.999997
  0
ARC
  8
LC-003-002-----0
 62
     1
  6
CONTINUOUS
 10
168.356705
 20
526.398438
 40
1.000000
 50
269.999997
 51
0.000000
  0
ARC
  8
LC-003-002-----0
 62
     1
  6
CONTINUOUS
 10
168.356705
 20
549.398438
 40
1.000000
 50
0.000000
 51
90.000003
  0
ARC
  8
LC-003-002-----0
 62
     1
  6
CONTINUOUS
 10
132.356705
 20
549.398438
 40
1.000000
 50
90.000003
 51
180.000009
  0
ARC
  8
LC-003-002-----0
 62
     1
  6
CONTINUOUS
 10
114.356705
 20
549.398438
 40
1.000000
 50
90.000003
 51
180.000009
  0
ARC
  8
LC-003-002-----0
 62
     1
  6
CONTINUOUS
 10
114.356705
 20
526.398438
 40
1.000000
 50
180.000009
 51
269.999997
  0
ARC
  8
LC-003-002-----0
 62
     1
  6
CONTINUOUS
 10
186.356705
 20
549.398438
 40
1.000000
 50
0.000000
 51
90.000003
  0
ARC
  8
LC-003-002-----0
 62
     1
  6
CONTINUOUS
 10
186.356705
 20
526.398438
 40
1.000000
 50
269.999997
 51
0.000000
  0
LINE
  8
LC-003-002-----0
 62
     1
  6
CONTINUOUS
 10
150.856705
 20
645.328674
 11
168.356705
 21
645.328674
  0
LINE
  8
LC-003-002-----0
 62
     1
  6
CONTINUOUS
 10
149.856705
 20
641.828674
 11
150.856705
 21
641.828674
  0
LINE
  8
LC-008-003-----0
 62
     2
  6
DASHED
 10
150.856705
 20
641.828674
 11
156.755310
 21
641.828674
  0
LINE
  8
LC-008-003-----0
 62
     2
  6
DASHED
 10
157.055542
 20
641.308716
 11
150.856705
 21
641.308716
  0
LINE
  8
LC-007-004-----0
 62
     2
  6
CONTINUOUS
 10
150.856705
 20
641.308716
 11
149.856705
 21
641.308716
  0
LINE
  8
LC-008-003-----0
 62
     2
  6
DASHED
 10
149.856705
 20
641.308716
 11
139.455536
 21
641.308716
  0
LINE
  8
LC-008-003-----0
 62
     2
  6
DASHED
 10
157.055542
 20
637.348694
 11
150.856705
 21
637.348694
  0
LINE
  8
LC-007-004-----0
 62
     2
  6
CONTINUOUS
 10
150.856705
 20
637.348694
 11
149.856705
 21
637.348694
  0
LINE
  8
LC-008-003-----0
 62
     2
  6
DASHED
 10
149.856705
 20
637.348694
 11
139.455536
 21
637.348694
  0
LINE
  8
LC-008-003-----0
 62
     2
  6
DASHED
 10
137.055542
 20
636.828674
 11
149.856705
 21
636.828674
  0
LINE
  8
LC-003-002-----0
 62
     1
  6
CONTINUOUS
 10
149.856705
 20
636.828674
 11
150.856705
 21
636.828674
  0
LINE
  8
LC-008-003-----0
 62
     2
  6
DASHED
 10
150.856705
 20
636.828674
 11
156.755310
 21
636.828674
  0
LINE
  8
LC-008-003-----0
 62
     2
  6
DASHED
 10
137.056702
 20
540.398438
 11
149.857864
 21
540.398438
  0
LINE
  8
LC-003-002-----0
 62
     1
  6
CONTINUOUS
 10
149.857864
 20
540.398438
 11
150.857864
 21
540.398438
  0
LINE
  8
LC-008-003-----0
 62
     2
  6
DASHED
 10
157.056702
 20
539.878418
 11
150.857864
 21
539.878418
  0
LINE
  8
LC-007-004-----0
 62
     2
  6
CONTINUOUS
 10
150.857864
 20
539.878418
 11
149.857864
 21
539.878418
  0
LINE
  8
LC-008-003-----0
 62
     2
  6
DASHED
 10
149.857864
 20
539.878418
 11
139.456696
 21
539.878418
  0
LINE
  8
LC-008-003-----0
 62
     2
  6
DASHED
 10
157.056702
 20
535.918457
 11
150.857864
 21
535.918457
  0
LINE
  8
LC-007-004-----0
 62
     2
  6
CONTINUOUS
 10
150.857864
 20
535.918457
 11
149.857864
 21
535.918457
  0
LINE
  8
LC-008-003-----0
 62
     2
  6
DASHED
 10
137.056702
 20
535.398438
 11
149.857864
 21
535.398438
  0
LINE
  8
LC-003-002-----0
 62
     1
  6
CONTINUOUS
 10
149.857864
 20
535.398438
 11
150.857864
 21
535.398438
  0
LINE
  8
LC-008-003-----0
 62
     2
  6
DASHED
 10
150.857864
 20
535.398438
 11
156.756485
 21
535.398438
  0
LINE
  8
LC-008-003-----0
 62
     2
  6
DASHED
 10
137.056702
 20
542.148438
 11
137.056702
 21
533.648438
  0
LINE
  8
LC-008-003-----0
 62
     2
  6
DASHED
 10
132.906708
 20
542.148438
 11
137.056702
 21
542.148438
  0
ARC
  8
LC-008-003-----0
 62
     2
  6
DASHED
 10
132.906708
 20
541.298462
 40
0.850000
 50
90.000003
 51
180.000009
  0
LINE
  8
LC-008-003-----0
 62
     2
  6
DASHED
 10
132.056702
 20
534.498413
 11
132.056702
 21
541.298462
  0
LINE
  8
LC-008-003-----0
 62
     2
  6
DASHED
 10
132.906708
 20
533.648438
 11
137.056702
 21
533.648438
  0
ARC
  8
LC-008-003-----0
 62
     2
  6
DASHED
 10
132.906708
 20
534.498413
 40
0.850000
 50
180.000009
 51
269.999997
  0
LINE
  8
LC-008-003-----0
 62
     2
  6
DASHED
 10
156.756485
 20
535.398438
 11
157.056702
 21
535.918457
  0
LINE
  8
LC-008-003-----0
 62
     2
  6
DASHED
 10
156.756485
 20
540.398438
 11
157.056702
 21
539.878418
  0
LINE
  8
LC-008-003-----0
 62
     2
  6
DASHED
 10
149.857864
 20
535.918457
 11
139.456696
 21
535.918457
  0
LINE
  8
LC-008-003-----0
 62
     2
  6
DASHED
 10
137.056702
 20
535.398438
 11
149.857864
 21
535.398438
  0
LINE
  8
LC-008-003-----0
 62
     2
  6
DASHED
 10
137.055542
 20
643.578674
 11
137.055542
 21
635.078674
  0
LINE
  8
LC-008-003-----0
 62
     2
  6
DASHED
 10
132.905533
 20
643.578674
 11
137.055542
 21
643.578674
  0
ARC
  8
LC-008-003-----0
 62
     2
  6
DASHED
 10
132.905533
 20
642.728699
 40
0.850000
 50
90.000003
 51
180.000009
  0
LINE
  8
LC-008-003-----0
 62
     2
  6
DASHED
 10
132.055542
 20
635.928711
 11
132.055542
 21
642.728699
  0
LINE
  8
LC-008-003-----0
 62
     2
  6
DASHED
 10
132.905533
 20
635.078674
 11
137.055542
 21
635.078674
  0
ARC
  8
LC-008-003-----0
 62
     2
  6
DASHED
 10
132.905533
 20
635.928711
 40
0.850000
 50
180.000009
 51
269.999997
  0
LINE
  8
LC-008-003-----0
 62
     2
  6
DASHED
 10
156.755310
 20
636.828674
 11
157.055542
 21
637.348694
  0
LINE
  8
LC-008-003-----0
 62
     2
  6
DASHED
 10
156.755310
 20
641.828674
 11
157.055542
 21
641.308716
  0
LINE
  8
LC-008-003-----0
 62
     2
  6
DASHED
 10
137.055542
 20
636.828674
 11
149.856705
 21
636.828674
  0
LINE
  8
LC-008-003-----0
 62
     2
  6
DASHED
 10
139.456696
 20
540.398438
 11
139.456696
 21
535.398438
  0
LINE
  8
LC-008-003-----0
 62
     2
  6
DASHED
 10
157.055542
 20
641.308716
 11
157.055542
 21
637.348694
  0
LINE
  8
LC-008-003-----0
 62
     2
  6
DASHED
 10
156.755310
 20
641.828674
 11
156.755310
 21
636.828674
  0
LINE
  8
LC-008-003-----0
 62
     2
  6
DASHED
 10
139.455536
 20
641.828674
 11
139.455536
 21
636.828674
  0
LINE
  8
LC-008-003-----0
 62
     2
  6
DASHED
 10
156.756485
 20
540.398438
 11
156.756485
 21
535.398438
  0
LINE
  8
LC-008-003-----0
 62
     2
  6
DASHED
 10
157.056702
 20
539.878418
 11
157.056702
 21
535.918457
  0
LINE
  8
LC-008-003-----0
 62
     2
  6
DASHED
 10
150.857864
 20
540.398438
 11
156.756485
 21
540.398438
  0
ENDSEC
  0
EOF
