  0
SECTION
  2
HEADER
  9
$LIMMIN
 10
106.848938
 20
259.607971
  9
$LIMMAX
 10
262.293610
 20
401.396637
  9
$EXTMIN
 10
106.848938
 20
259.607971
  9
$EXTMAX
 10
262.293610
 20
401.396637
  0
ENDSEC
  0
SECTION
  2
TABLES
  0
TABLE
  2
LTYPE
 70
     3
  0
LTYPE
  2
CONTINUOUS
 70
    64
  3
Ausgezogene Linie
 72
    65
 73
     0
 40
0.0
  0
LTYPE
  2
DASHED
 70
    64
  3
__ __ __ __ __ __ __ __ __ __ __ __ __ __ __
 72
    65
 73
     2
 40
0.75
 49
0.5
 49
-0.25
  0
LTYPE
  2
DASHDOT
 70
    64
  3
__ . __ . __ . __ . __ . __ . __ . __ . __ . __
 72
    65
 73
     4
 40
1.0
 49
0.5
 49
-0.25
 49
0.0
 49
-0.25
  0
ENDTAB
  0
TABLE
  2
LAYER
 70
     4
  0
LAYER
  2
LC-003-002-----0
 70
    64
 62
     7
  6
CONTINUOUS
  0
LAYER
  2
LC-005-002-RND-0
 70
    64
 62
     7
  6
CONTINUOUS
  0
LAYER
  2
LC-008-003-----0
 70
    64
 62
     7
  6
CONTINUOUS
  0
LAYER
  2
LC-007-004-----0
 70
    64
 62
     7
  6
CONTINUOUS
  0
ENDTAB
  0
TABLE
  2
STYLE
 70
     1
  0
STYLE
  2
TXT8
 70
    64
 40
0.0
 41
1.0
 50
0.0
 71
     0
 42
3.500000
  3
TXT8
  4

  0
ENDTAB
  0
ENDSEC
  0
SECTION
  2
BLOCKS
  0
ENDSEC
  0
SECTION
  2
ENTITIES
  0
LINE
  8
LC-005-002-RND-0
 62
     2
  6
DASHDOT
 10
125.045532
 20
391.646301
 11
175.718018
 21
391.646301
  0
LINE
  8
LC-003-002-----0
 62
     1
  6
CONTINUOUS
 10
150.856705
 20
398.646301
 11
150.856705
 21
385.637939
  0
LINE
  8
LC-003-002-----0
 62
     1
  6
CONTINUOUS
 10
149.856705
 20
398.646301
 11
149.856705
 21
385.637939
  0
LINE
  8
LC-003-002-----0
 62
     1
  6
CONTINUOUS
 10
108.356705
 20
330.646301
 11
192.356705
 21
330.646301
  0
LINE
  8
LC-005-002-RND-0
 62
     2
  6
DASHDOT
 10
150.356705
 20
401.396637
 11
150.356705
 21
328.624176
  0
LINE
  8
LC-003-002-----0
 62
     1
  6
CONTINUOUS
 10
109.356705
 20
340.646301
 11
126.856705
 21
340.646301
  0
LINE
  8
LC-003-002-----0
 62
     1
  6
CONTINUOUS
 10
128.856705
 20
398.646301
 11
149.856705
 21
398.646301
  0
LINE
  8
LC-005-002-RND-0
 62
     2
  6
DASHDOT
 10
133.340546
 20
370.646301
 11
168.120041
 21
370.646301
  0
LINE
  8
LC-005-002-RND-0
 62
     2
  6
DASHDOT
 10
184.356705
 20
342.766174
 11
184.356705
 21
328.624176
  0
LINE
  8
LC-005-002-RND-0
 62
     2
  6
DASHDOT
 10
116.356705
 20
342.766174
 11
116.356705
 21
328.624176
  0
LINE
  8
LC-003-002-----0
 62
     1
  6
CONTINUOUS
 10
192.356705
 20
339.646301
 11
192.356705
 21
330.646301
  0
LINE
  8
LC-003-002-----0
 62
     1
  6
CONTINUOUS
 10
108.356705
 20
339.646301
 11
108.356705
 21
330.646301
  0
LINE
  8
LC-003-002-----0
 62
     1
  6
CONTINUOUS
 10
172.856705
 20
397.646301
 11
172.856705
 21
341.646301
  0
LINE
  8
LC-003-002-----0
 62
     1
  6
CONTINUOUS
 10
127.856705
 20
397.646301
 11
127.856705
 21
341.646301
  0
LINE
  8
LC-003-002-----0
 62
     1
  6
CONTINUOUS
 10
173.856705
 20
340.646301
 11
191.356705
 21
340.646301
  0
LINE
  8
LC-008-003-----0
 62
     2
  6
DASHED
 10
120.856705
 20
340.646301
 11
120.856705
 21
330.646301
  0
LINE
  8
LC-008-003-----0
 62
     2
  6
DASHED
 10
111.856705
 20
340.646301
 11
111.856705
 21
330.646301
  0
LINE
  8
LC-008-003-----0
 62
     2
  6
DASHED
 10
179.856705
 20
340.646301
 11
179.856705
 21
330.646301
  0
LINE
  8
LC-008-003-----0
 62
     2
  6
DASHED
 10
188.856705
 20
340.646301
 11
188.856705
 21
330.646301
  0
ARC
  8
LC-003-002-----0
 62
     1
  6
CONTINUOUS
 10
150.356705
 20
370.646301
 40
15.000000
 50
91.910215
 51
88.089790
  0
LINE
  8
LC-008-003-----0
 62
     2
  6
DASHED
 10
134.656708
 20
397.146301
 11
134.656708
 21
386.146301
  0
LINE
  8
LC-008-003-----0
 62
     2
  6
DASHED
 10
134.656708
 20
395.146301
 11
149.856705
 21
395.146301
  0
LINE
  8
LC-008-003-----0
 62
     2
  6
DASHED
 10
134.656708
 20
388.146301
 11
149.856705
 21
388.146301
  0
LINE
  8
LC-008-003-----0
 62
     2
  6
DASHED
 10
127.856705
 20
397.146301
 11
134.656708
 21
397.146301
  0
LINE
  8
LC-008-003-----0
 62
     2
  6
DASHED
 10
127.856705
 20
386.146301
 11
134.656708
 21
386.146301
  0
LINE
  8
LC-008-003-----0
 62
     2
  6
DASHED
 10
159.280258
 20
394.646301
 11
167.856705
 21
394.646301
  0
LINE
  8
LC-008-003-----0
 62
     2
  6
DASHED
 10
159.280258
 20
388.646301
 11
167.856705
 21
388.646301
  0
LINE
  8
LC-008-003-----0
 62
     2
  6
DASHED
 10
159.655533
 20
394.146301
 11
172.856705
 21
394.146301
  0
LINE
  8
LC-008-003-----0
 62
     2
  6
DASHED
 10
159.655533
 20
389.146301
 11
172.856705
 21
389.146301
  0
LINE
  8
LC-008-003-----0
 62
     2
  6
DASHED
 10
167.856705
 20
394.646301
 11
167.856705
 21
388.646301
  0
LINE
  8
LC-003-002-----0
 62
     1
  6
CONTINUOUS
 10
108.356705
 20
289.115601
 11
108.356705
 21
263.115601
  0
LINE
  8
LC-003-002-----0
 62
     1
  6
CONTINUOUS
 10
109.356705
 20
262.115601
 11
191.356705
 21
262.115601
  0
LINE
  8
LC-003-002-----0
 62
     1
  6
CONTINUOUS
 10
192.356705
 20
289.115601
 11
192.356705
 21
263.115601
  0
LINE
  8
LC-003-002-----0
 62
     1
  6
CONTINUOUS
 10
109.356705
 20
290.115601
 11
191.356705
 21
290.115601
  0
LINE
  8
LC-005-002-RND-0
 62
     2
  6
DASHDOT
 10
106.848938
 20
276.115601
 11
194.122910
 21
276.115601
  0
LINE
  8
LC-005-002-RND-0
 62
     2
  6
DASHDOT
 10
150.356705
 20
292.520691
 11
150.356705
 21
259.607971
  0
LINE
  8
LC-005-002-RND-0
 62
     2
  6
DASHDOT
 10
116.356705
 20
281.869202
 11
116.356705
 21
270.049500
  0
CIRCLE
  8
LC-003-002-----0
 62
     1
  6
CONTINUOUS
 10
116.356705
 20
276.115601
 40
4.500000
  0
CIRCLE
  8
LC-003-002-----0
 62
     1
  6
CONTINUOUS
 10
184.356705
 20
276.115601
 40
4.500000
  0
LINE
  8
LC-005-002-RND-0
 62
     2
  6
DASHDOT
 10
184.356705
 20
281.869202
 11
184.356705
 21
270.049500
  0
LINE
  8
LC-003-002-----0
 62
     1
  6
CONTINUOUS
 10
150.856705
 20
290.115601
 11
150.856705
 21
262.115601
  0
LINE
  8
LC-003-002-----0
 62
     1
  6
CONTINUOUS
 10
149.856705
 20
290.115601
 11
149.856705
 21
262.115601
  0
LINE
  8
LC-008-003-----0
 62
     2
  6
DASHED
 10
165.356705
 20
290.115601
 11
165.356705
 21
262.115601
  0
LINE
  8
LC-008-003-----0
 62
     2
  6
DASHED
 10
135.356705
 20
290.115601
 11
135.356705
 21
262.115601
  0
LINE
  8
LC-003-002-----0
 62
     1
  6
CONTINUOUS
 10
127.856705
 20
289.115601
 11
127.856705
 21
263.115601
  0
LINE
  8
LC-003-002-----0
 62
     1
  6
CONTINUOUS
 10
172.856705
 20
289.115601
 11
172.856705
 21
263.115601
  0
LINE
  8
LC-008-003-----0
 62
     2
  6
DASHED
 10
134.656708
 20
281.615601
 11
134.656708
 21
270.615601
  0
LINE
  8
LC-008-003-----0
 62
     2
  6
DASHED
 10
134.656708
 20
279.615601
 11
149.856705
 21
279.615601
  0
LINE
  8
LC-008-003-----0
 62
     2
  6
DASHED
 10
134.656708
 20
272.615601
 11
149.856705
 21
272.615601
  0
LINE
  8
LC-008-003-----0
 62
     2
  6
DASHED
 10
127.856705
 20
281.615601
 11
134.656708
 21
281.615601
  0
LINE
  8
LC-008-003-----0
 62
     2
  6
DASHED
 10
127.856705
 20
270.615601
 11
134.656708
 21
270.615601
  0
LINE
  8
LC-008-003-----0
 62
     2
  6
DASHED
 10
159.281418
 20
279.115601
 11
167.856705
 21
279.115601
  0
LINE
  8
LC-008-003-----0
 62
     2
  6
DASHED
 10
159.281418
 20
273.115601
 11
167.856705
 21
273.115601
  0
LINE
  8
LC-008-003-----0
 62
     2
  6
DASHED
 10
159.570099
 20
278.615601
 11
172.856705
 21
278.615601
  0
LINE
  8
LC-008-003-----0
 62
     2
  6
DASHED
 10
159.570099
 20
273.615601
 11
172.856705
 21
273.615601
  0
LINE
  8
LC-008-003-----0
 62
     2
  6
DASHED
 10
167.856705
 20
279.115601
 11
167.856705
 21
273.115601
  0
ARC
  8
LC-003-002-----0
 62
     1
  6
CONTINUOUS
 10
109.356705
 20
339.646301
 40
1.000000
 50
90.000003
 51
180.000009
  0
ARC
  8
LC-003-002-----0
 62
     1
  6
CONTINUOUS
 10
126.856705
 20
341.646301
 40
1.000000
 50
269.999997
 51
0.000000
  0
ARC
  8
LC-003-002-----0
 62
     1
  6
CONTINUOUS
 10
173.856705
 20
341.646301
 40
1.000000
 50
180.000009
 51
269.999997
  0
ARC
  8
LC-003-002-----0
 62
     1
  6
CONTINUOUS
 10
191.356705
 20
339.646301
 40
1.000000
 50
0.000000
 51
90.000003
  0
ARC
  8
LC-003-002-----0
 62
     1
  6
CONTINUOUS
 10
171.856705
 20
397.646301
 40
1.000000
 50
0.000000
 51
90.000003
  0
ARC
  8
LC-003-002-----0
 62
     1
  6
CONTINUOUS
 10
128.856705
 20
397.646301
 40
1.000000
 50
90.000003
 51
180.000009
  0
ARC
  8
LC-003-002-----0
 62
     1
  6
CONTINUOUS
 10
109.356705
 20
289.115601
 40
1.000000
 50
90.000003
 51
180.000009
  0
ARC
  8
LC-003-002-----0
 62
     1
  6
CONTINUOUS
 10
109.356705
 20
263.115601
 40
1.000000
 50
180.000009
 51
269.999997
  0
ARC
  8
LC-003-002-----0
 62
     1
  6
CONTINUOUS
 10
191.356705
 20
263.115601
 40
1.000000
 50
269.999997
 51
0.000000
  0
ARC
  8
LC-003-002-----0
 62
     1
  6
CONTINUOUS
 10
191.356705
 20
289.115601
 40
1.000000
 50
0.000000
 51
90.000003
  0
ARC
  8
LC-003-002-----0
 62
     1
  6
CONTINUOUS
 10
128.856705
 20
263.115601
 40
1.000000
 50
180.000009
 51
269.999997
  0
ARC
  8
LC-003-002-----0
 62
     1
  6
CONTINUOUS
 10
128.856705
 20
289.115601
 40
1.000000
 50
90.000003
 51
180.000009
  0
ARC
  8
LC-003-002-----0
 62
     1
  6
CONTINUOUS
 10
171.856705
 20
289.115601
 40
1.000000
 50
0.000000
 51
90.000003
  0
ARC
  8
LC-003-002-----0
 62
     1
  6
CONTINUOUS
 10
171.856705
 20
263.115601
 40
1.000000
 50
269.999997
 51
0.000000
  0
LINE
  8
LC-003-002-----0
 62
     1
  6
CONTINUOUS
 10
230.777588
 20
330.646301
 11
258.777588
 21
330.646301
  0
LINE
  8
LC-003-002-----0
 62
     1
  6
CONTINUOUS
 10
258.777588
 20
397.646301
 11
258.777588
 21
330.646301
  0
LINE
  8
LC-003-002-----0
 62
     1
  6
CONTINUOUS
 10
231.777588
 20
398.646301
 11
257.777588
 21
398.646301
  0
LINE
  8
LC-005-002-RND-0
 62
     2
  6
DASHDOT
 10
227.515778
 20
370.646301
 11
262.293610
 21
370.646301
  0
LINE
  8
LC-003-002-----0
 62
     1
  6
CONTINUOUS
 10
231.777588
 20
340.646301
 11
257.777588
 21
340.646301
  0
LINE
  8
LC-003-002-----0
 62
     1
  6
CONTINUOUS
 10
230.777588
 20
397.646301
 11
230.777588
 21
330.646301
  0
LINE
  8
LC-005-002-RND-0
 62
     2
  6
DASHDOT
 10
238.207108
 20
391.646301
 11
251.410202
 21
391.646301
  0
LINE
  8
LC-005-002-RND-0
 62
     2
  6
DASHDOT
 10
244.777588
 20
398.150421
 11
244.777588
 21
385.342712
  0
LINE
  8
LC-008-003-----0
 62
     2
  6
DASHED
 10
230.777588
 20
355.646301
 11
258.777588
 21
355.646301
  0
LINE
  8
LC-008-003-----0
 62
     2
  6
DASHED
 10
230.777588
 20
385.637939
 11
258.777588
 21
385.637939
  0
LINE
  8
LC-005-002-RND-0
 62
     2
  6
DASHDOT
 10
244.777588
 20
342.766174
 11
244.777588
 21
328.624176
  0
LINE
  8
LC-008-003-----0
 62
     2
  6
DASHED
 10
240.277588
 20
340.646301
 11
240.277588
 21
330.646301
  0
CIRCLE
  8
LC-003-002-----0
 62
     1
  6
CONTINUOUS
 10
244.777588
 20
391.646301
 40
5.500000
  0
LINE
  8
LC-008-003-----0
 62
     2
  6
DASHED
 10
249.277588
 20
340.646301
 11
249.277588
 21
330.646301
  0
ARC
  8
LC-003-002-----0
 62
     1
  6
CONTINUOUS
 10
231.777588
 20
339.646301
 40
1.000000
 50
90.000003
 51
180.000009
  0
ARC
  8
LC-003-002-----0
 62
     1
  6
CONTINUOUS
 10
257.777588
 20
339.646301
 40
1.000000
 50
0.000000
 51
90.000003
  0
LINE
  8
LC-003-002-----0
 62
     1
  6
CONTINUOUS
 10
150.856705
 20
398.646301
 11
171.856705
 21
398.646301
  0
ARC
  8
LC-003-002-----0
 62
     1
  6
CONTINUOUS
 10
231.777588
 20
397.646301
 40
1.000000
 50
90.000003
 51
180.000009
  0
ARC
  8
LC-003-002-----0
 62
     1
  6
CONTINUOUS
 10
257.777588
 20
397.646301
 40
1.000000
 50
0.000000
 51
90.000003
  0
LINE
  8
LC-008-003-----0
 62
     2
  6
DASHED
 10
134.655533
 20
394.646301
 11
149.856705
 21
394.646301
  0
LINE
  8
LC-003-002-----0
 62
     1
  6
CONTINUOUS
 10
149.856705
 20
394.646301
 11
150.856705
 21
394.646301
  0
LINE
  8
LC-008-003-----0
 62
     2
  6
DASHED
 10
150.856705
 20
394.646301
 11
159.280258
 21
394.646301
  0
LINE
  8
LC-008-003-----0
 62
     2
  6
DASHED
 10
134.655533
 20
388.646301
 11
149.856705
 21
388.646301
  0
LINE
  8
LC-003-002-----0
 62
     1
  6
CONTINUOUS
 10
149.856705
 20
388.646301
 11
150.856705
 21
388.646301
  0
LINE
  8
LC-008-003-----0
 62
     2
  6
DASHED
 10
150.856705
 20
388.646301
 11
159.280258
 21
388.646301
  0
LINE
  8
LC-008-003-----0
 62
     2
  6
DASHED
 10
159.655533
 20
393.996277
 11
150.856705
 21
393.996277
  0
LINE
  8
LC-007-004-----0
 62
     2
  6
CONTINUOUS
 10
150.856705
 20
393.996277
 11
149.856705
 21
393.996277
  0
LINE
  8
LC-008-003-----0
 62
     2
  6
DASHED
 10
149.856705
 20
393.996277
 11
137.655533
 21
393.996277
  0
LINE
  8
LC-008-003-----0
 62
     2
  6
DASHED
 10
159.655533
 20
389.296295
 11
150.856705
 21
389.296295
  0
LINE
  8
LC-007-004-----0
 62
     2
  6
CONTINUOUS
 10
150.856705
 20
389.296295
 11
149.856705
 21
389.296295
  0
LINE
  8
LC-008-003-----0
 62
     2
  6
DASHED
 10
149.856705
 20
389.296295
 11
137.655533
 21
389.296295
  0
LINE
  8
LC-008-003-----0
 62
     2
  6
DASHED
 10
134.656708
 20
279.115601
 11
149.857864
 21
279.115601
  0
LINE
  8
LC-003-002-----0
 62
     1
  6
CONTINUOUS
 10
149.857864
 20
279.115601
 11
150.857864
 21
279.115601
  0
LINE
  8
LC-008-003-----0
 62
     2
  6
DASHED
 10
150.857864
 20
279.115601
 11
159.281418
 21
279.115601
  0
LINE
  8
LC-008-003-----0
 62
     2
  6
DASHED
 10
134.656708
 20
273.115601
 11
149.857864
 21
273.115601
  0
LINE
  8
LC-003-002-----0
 62
     1
  6
CONTINUOUS
 10
149.857864
 20
273.115601
 11
150.857864
 21
273.115601
  0
LINE
  8
LC-008-003-----0
 62
     2
  6
DASHED
 10
150.857864
 20
273.115601
 11
159.281418
 21
273.115601
  0
LINE
  8
LC-008-003-----0
 62
     2
  6
DASHED
 10
159.656708
 20
278.465607
 11
150.857864
 21
278.465607
  0
LINE
  8
LC-007-004-----0
 62
     2
  6
CONTINUOUS
 10
150.857864
 20
278.465607
 11
149.857864
 21
278.465607
  0
LINE
  8
LC-008-003-----0
 62
     2
  6
DASHED
 10
149.857864
 20
278.465607
 11
137.656708
 21
278.465607
  0
LINE
  8
LC-008-003-----0
 62
     2
  6
DASHED
 10
159.656708
 20
273.765625
 11
150.857864
 21
273.765625
  0
LINE
  8
LC-007-004-----0
 62
     2
  6
CONTINUOUS
 10
150.857864
 20
273.765625
 11
149.857864
 21
273.765625
  0
LINE
  8
LC-008-003-----0
 62
     2
  6
DASHED
 10
134.656708
 20
281.115601
 11
134.656708
 21
271.115601
  0
LINE
  8
LC-008-003-----0
 62
     2
  6
DASHED
 10
129.656708
 20
281.115601
 11
134.656708
 21
281.115601
  0
ARC
  8
LC-008-003-----0
 62
     2
  6
DASHED
 10
129.656708
 20
280.115601
 40
1.000000
 50
90.000003
 51
180.000009
  0
LINE
  8
LC-008-003-----0
 62
     2
  6
DASHED
 10
128.656708
 20
272.115601
 11
128.656708
 21
280.115601
  0
LINE
  8
LC-008-003-----0
 62
     2
  6
DASHED
 10
129.656708
 20
271.115601
 11
134.656708
 21
271.115601
  0
ARC
  8
LC-008-003-----0
 62
     2
  6
DASHED
 10
129.656708
 20
272.115601
 40
1.000000
 50
180.000009
 51
269.999997
  0
LINE
  8
LC-008-003-----0
 62
     2
  6
DASHED
 10
159.281418
 20
273.115601
 11
159.656708
 21
273.765625
  0
LINE
  8
LC-008-003-----0
 62
     2
  6
DASHED
 10
159.281418
 20
279.115601
 11
159.656708
 21
278.465607
  0
LINE
  8
LC-008-003-----0
 62
     2
  6
DASHED
 10
149.857864
 20
273.765625
 11
137.656708
 21
273.765625
  0
LINE
  8
LC-008-003-----0
 62
     2
  6
DASHED
 10
134.655533
 20
396.646301
 11
134.655533
 21
386.646301
  0
LINE
  8
LC-008-003-----0
 62
     2
  6
DASHED
 10
129.655533
 20
396.646301
 11
134.655533
 21
396.646301
  0
ARC
  8
LC-008-003-----0
 62
     2
  6
DASHED
 10
129.655533
 20
395.646301
 40
1.000000
 50
90.000003
 51
180.000009
  0
LINE
  8
LC-008-003-----0
 62
     2
  6
DASHED
 10
128.655533
 20
387.646301
 11
128.655533
 21
395.646301
  0
LINE
  8
LC-008-003-----0
 62
     2
  6
DASHED
 10
129.655533
 20
386.646301
 11
134.655533
 21
386.646301
  0
ARC
  8
LC-008-003-----0
 62
     2
  6
DASHED
 10
129.655533
 20
387.646301
 40
1.000000
 50
180.000009
 51
269.999997
  0
LINE
  8
LC-008-003-----0
 62
     2
  6
DASHED
 10
159.280258
 20
388.646301
 11
159.655533
 21
389.296295
  0
LINE
  8
LC-008-003-----0
 62
     2
  6
DASHED
 10
159.280258
 20
394.646301
 11
159.655533
 21
393.996277
  0
LINE
  8
LC-008-003-----0
 62
     2
  6
DASHED
 10
137.656708
 20
279.115601
 11
137.656708
 21
273.115601
  0
LINE
  8
LC-008-003-----0
 62
     2
  6
DASHED
 10
159.281418
 20
279.115601
 11
159.281418
 21
273.115601
  0
LINE
  8
LC-008-003-----0
 62
     2
  6
DASHED
 10
159.656708
 20
278.465607
 11
159.656708
 21
273.765625
  0
LINE
  8
LC-008-003-----0
 62
     2
  6
DASHED
 10
159.655533
 20
393.996277
 11
159.655533
 21
389.296295
  0
LINE
  8
LC-008-003-----0
 62
     2
  6
DASHED
 10
159.280258
 20
394.646301
 11
159.280258
 21
388.646301
  0
LINE
  8
LC-008-003-----0
 62
     2
  6
DASHED
 10
137.655533
 20
394.646301
 11
137.655533
 21
388.646301
  0
ENDSEC
  0
EOF
