  0
SECTION
  2
HEADER
  9
$LIMMIN
 10
103.974365
 20
-40.013577
  9
$LIMMAX
 10
291.530518
 20
134.166946
  9
$EXTMIN
 10
103.974365
 20
-40.013577
  9
$EXTMAX
 10
291.530518
 20
134.166946
  0
ENDSEC
  0
SECTION
  2
TABLES
  0
TABLE
  2
LTYPE
 70
     3
  0
LTYPE
  2
CONTINUOUS
 70
    64
  3
Ausgezogene Linie
 72
    65
 73
     0
 40
0.0
  0
LTYPE
  2
DASHED
 70
    64
  3
__ __ __ __ __ __ __ __ __ __ __ __ __ __ __
 72
    65
 73
     2
 40
0.75
 49
0.5
 49
-0.25
  0
LTYPE
  2
DASHDOT
 70
    64
  3
__ . __ . __ . __ . __ . __ . __ . __ . __ . __
 72
    65
 73
     4
 40
1.0
 49
0.5
 49
-0.25
 49
0.0
 49
-0.25
  0
ENDTAB
  0
TABLE
  2
LAYER
 70
     4
  0
LAYER
  2
LC-003-002-----0
 70
    64
 62
     7
  6
CONTINUOUS
  0
LAYER
  2
LC-005-002-RND-0
 70
    64
 62
     7
  6
CONTINUOUS
  0
LAYER
  2
LC-008-003-----0
 70
    64
 62
     7
  6
CONTINUOUS
  0
LAYER
  2
LC-007-004-----0
 70
    64
 62
     7
  6
CONTINUOUS
  0
ENDTAB
  0
TABLE
  2
STYLE
 70
     1
  0
STYLE
  2
TXT8
 70
    64
 40
0.0
 41
1.0
 50
0.0
 71
     0
 42
3.500000
  3
TXT8
  4

  0
ENDTAB
  0
ENDSEC
  0
SECTION
  2
BLOCKS
  0
ENDSEC
  0
SECTION
  2
ENTITIES
  0
LINE
  8
LC-008-003-----0
 62
     2
  6
DASHED
 10
141.355530
 20
126.466446
 11
159.356705
 21
126.466446
  0
LINE
  8
LC-003-002-----0
 62
     1
  6
CONTINUOUS
 10
159.356705
 20
126.466446
 11
161.356705
 21
126.466446
  0
LINE
  8
LC-008-003-----0
 62
     2
  6
DASHED
 10
161.356705
 20
126.466446
 11
170.886444
 21
126.466446
  0
LINE
  8
LC-003-002-----0
 62
     1
  6
CONTINUOUS
 10
106.356705
 20
44.966450
 11
214.356705
 21
44.966450
  0
LINE
  8
LC-003-002-----0
 62
     1
  6
CONTINUOUS
 10
107.356705
 20
56.966450
 11
131.356705
 21
56.966450
  0
LINE
  8
LC-003-002-----0
 62
     1
  6
CONTINUOUS
 10
133.356705
 20
130.966446
 11
159.356705
 21
130.966446
  0
LINE
  8
LC-008-003-----0
 62
     2
  6
DASHED
 10
141.355530
 20
118.466446
 11
159.356705
 21
118.466446
  0
LINE
  8
LC-003-002-----0
 62
     1
  6
CONTINUOUS
 10
159.356705
 20
118.466446
 11
161.356705
 21
118.466446
  0
LINE
  8
LC-003-002-----0
 62
     1
  6
CONTINUOUS
 10
188.356705
 20
129.966446
 11
188.356705
 21
57.966454
  0
LINE
  8
LC-003-002-----0
 62
     1
  6
CONTINUOUS
 10
132.356705
 20
129.966446
 11
132.356705
 21
57.966454
  0
LINE
  8
LC-005-002-RND-0
 62
     2
  6
DASHDOT
 10
203.356705
 20
59.410374
 11
203.356705
 21
41.587608
  0
LINE
  8
LC-005-002-RND-0
 62
     2
  6
DASHDOT
 10
117.356705
 20
59.410374
 11
117.356705
 21
41.587608
  0
LINE
  8
LC-003-002-----0
 62
     1
  6
CONTINUOUS
 10
214.356705
 20
55.966450
 11
214.356705
 21
44.966450
  0
LINE
  8
LC-003-002-----0
 62
     1
  6
CONTINUOUS
 10
106.356705
 20
55.966450
 11
106.356705
 21
44.966450
  0
LINE
  8
LC-003-002-----0
 62
     1
  6
CONTINUOUS
 10
189.356705
 20
56.966450
 11
213.356705
 21
56.966450
  0
LINE
  8
LC-008-003-----0
 62
     2
  6
DASHED
 10
122.856705
 20
56.966450
 11
122.856705
 21
44.966450
  0
LINE
  8
LC-008-003-----0
 62
     2
  6
DASHED
 10
111.856705
 20
56.966450
 11
111.856705
 21
44.966450
  0
LINE
  8
LC-008-003-----0
 62
     2
  6
DASHED
 10
208.856705
 20
56.966450
 11
208.856705
 21
44.966450
  0
LINE
  8
LC-008-003-----0
 62
     2
  6
DASHED
 10
197.856705
 20
56.966450
 11
197.856705
 21
44.966450
  0
LINE
  8
LC-005-002-RND-0
 62
     2
  6
DASHDOT
 10
128.726242
 20
122.466446
 11
190.870499
 21
122.466446
  0
ARC
  8
LC-003-002-----0
 62
     1
  6
CONTINUOUS
 10
160.356705
 20
94.966446
 40
20.000000
 50
92.863300
 51
87.136698
  0
LINE
  8
LC-003-002-----0
 62
     1
  6
CONTINUOUS
 10
161.356705
 20
130.966446
 11
161.356705
 21
114.960197
  0
LINE
  8
LC-003-002-----0
 62
     1
  6
CONTINUOUS
 10
159.356705
 20
130.966446
 11
159.356705
 21
114.941437
  0
LINE
  8
LC-008-003-----0
 62
     2
  6
DASHED
 10
141.356705
 20
129.966446
 11
141.356705
 21
114.966446
  0
LINE
  8
LC-008-003-----0
 62
     2
  6
DASHED
 10
141.356705
 20
126.966446
 11
159.356705
 21
126.966446
  0
LINE
  8
LC-008-003-----0
 62
     2
  6
DASHED
 10
141.356705
 20
117.966446
 11
159.356705
 21
117.966446
  0
LINE
  8
LC-008-003-----0
 62
     2
  6
DASHED
 10
132.356705
 20
129.966446
 11
141.356705
 21
129.966446
  0
LINE
  8
LC-008-003-----0
 62
     2
  6
DASHED
 10
132.356705
 20
114.966446
 11
141.356705
 21
114.966446
  0
LINE
  8
LC-008-003-----0
 62
     2
  6
DASHED
 10
170.886444
 20
126.466446
 11
182.356705
 21
126.466446
  0
LINE
  8
LC-008-003-----0
 62
     2
  6
DASHED
 10
170.886444
 20
118.466446
 11
182.356705
 21
118.466446
  0
LINE
  8
LC-008-003-----0
 62
     2
  6
DASHED
 10
171.175110
 20
118.966446
 11
188.356705
 21
118.966446
  0
LINE
  8
LC-008-003-----0
 62
     2
  6
DASHED
 10
171.175110
 20
125.966446
 11
188.356705
 21
125.966446
  0
ARC
  8
LC-003-002-----0
 62
     1
  6
CONTINUOUS
 10
131.356705
 20
57.966450
 40
1.000000
 50
269.999997
 51
0.000000
  0
LINE
  8
LC-008-003-----0
 62
     2
  6
DASHED
 10
182.356705
 20
126.466446
 11
182.356705
 21
118.466446
  0
ARC
  8
LC-003-002-----0
 62
     1
  6
CONTINUOUS
 10
107.356705
 20
55.966450
 40
1.000000
 50
90.000003
 51
180.000009
  0
ARC
  8
LC-003-002-----0
 62
     1
  6
CONTINUOUS
 10
133.356705
 20
129.966446
 40
1.000000
 50
90.000003
 51
180.000009
  0
ARC
  8
LC-003-002-----0
 62
     1
  6
CONTINUOUS
 10
187.356705
 20
129.966446
 40
1.000000
 50
0.000000
 51
90.000003
  0
ARC
  8
LC-003-002-----0
 62
     1
  6
CONTINUOUS
 10
189.356705
 20
57.966450
 40
1.000000
 50
180.000009
 51
269.999997
  0
ARC
  8
LC-003-002-----0
 62
     1
  6
CONTINUOUS
 10
213.356705
 20
55.966450
 40
1.000000
 50
0.000000
 51
90.000003
  0
LINE
  8
LC-003-002-----0
 62
     1
  6
CONTINUOUS
 10
106.356705
 20
-5.433971
 11
106.356705
 21
-35.433971
  0
LINE
  8
LC-003-002-----0
 62
     1
  6
CONTINUOUS
 10
107.356705
 20
-36.433971
 11
213.356705
 21
-36.433971
  0
LINE
  8
LC-003-002-----0
 62
     1
  6
CONTINUOUS
 10
214.356705
 20
-5.433971
 11
214.356705
 21
-35.433971
  0
LINE
  8
LC-003-002-----0
 62
     1
  6
CONTINUOUS
 10
107.356705
 20
-4.433971
 11
213.356705
 21
-4.433971
  0
LINE
  8
LC-005-002-RND-0
 62
     2
  6
DASHDOT
 10
103.974365
 20
-20.433971
 11
214.356705
 21
-20.433971
  0
LINE
  8
LC-005-002-RND-0
 62
     2
  6
DASHDOT
 10
117.356705
 20
-13.069946
 11
117.356705
 21
-28.637314
  0
LINE
  8
LC-005-002-RND-0
 62
     2
  6
DASHDOT
 10
160.356705
 20
-1.831108
 11
160.356705
 21
-40.013577
  0
CIRCLE
  8
LC-003-002-----0
 62
     1
  6
CONTINUOUS
 10
117.356705
 20
-20.433971
 40
5.500000
  0
LINE
  8
LC-005-002-RND-0
 62
     2
  6
DASHDOT
 10
203.356705
 20
-13.069946
 11
203.356705
 21
-28.637314
  0
CIRCLE
  8
LC-003-002-----0
 62
     1
  6
CONTINUOUS
 10
203.356705
 20
-20.433971
 40
5.500000
  0
LINE
  8
LC-003-002-----0
 62
     1
  6
CONTINUOUS
 10
132.356705
 20
-4.433971
 11
132.356705
 21
-36.433971
  0
LINE
  8
LC-003-002-----0
 62
     1
  6
CONTINUOUS
 10
188.356705
 20
-4.433971
 11
188.356705
 21
-36.433971
  0
LINE
  8
LC-008-003-----0
 62
     2
  6
DASHED
 10
140.356705
 20
-4.433971
 11
140.356705
 21
-36.433971
  0
LINE
  8
LC-008-003-----0
 62
     2
  6
DASHED
 10
180.356705
 20
-4.433971
 11
180.356705
 21
-36.433971
  0
LINE
  8
LC-003-002-----0
 62
     1
  6
CONTINUOUS
 10
161.356705
 20
-4.433971
 11
161.356705
 21
-36.433971
  0
LINE
  8
LC-003-002-----0
 62
     1
  6
CONTINUOUS
 10
159.356705
 20
-4.433971
 11
159.356705
 21
-36.433971
  0
LINE
  8
LC-008-003-----0
 62
     2
  6
DASHED
 10
141.356705
 20
-12.933971
 11
141.356705
 21
-27.933971
  0
LINE
  8
LC-008-003-----0
 62
     2
  6
DASHED
 10
141.356705
 20
-15.933971
 11
159.356705
 21
-15.933971
  0
LINE
  8
LC-008-003-----0
 62
     2
  6
DASHED
 10
141.356705
 20
-24.933971
 11
159.356705
 21
-24.933971
  0
LINE
  8
LC-008-003-----0
 62
     2
  6
DASHED
 10
132.356705
 20
-12.933971
 11
141.356705
 21
-12.933971
  0
LINE
  8
LC-008-003-----0
 62
     2
  6
DASHED
 10
132.356705
 20
-27.933971
 11
141.356705
 21
-27.933971
  0
LINE
  8
LC-008-003-----0
 62
     2
  6
DASHED
 10
170.886444
 20
-16.433971
 11
182.356705
 21
-16.433971
  0
LINE
  8
LC-008-003-----0
 62
     2
  6
DASHED
 10
170.886444
 20
-24.433971
 11
182.356705
 21
-24.433971
  0
LINE
  8
LC-008-003-----0
 62
     2
  6
DASHED
 10
171.175110
 20
-23.933971
 11
188.356705
 21
-23.933971
  0
LINE
  8
LC-008-003-----0
 62
     2
  6
DASHED
 10
171.175110
 20
-16.933971
 11
188.356705
 21
-16.933971
  0
LINE
  8
LC-008-003-----0
 62
     2
  6
DASHED
 10
182.356705
 20
-16.433971
 11
182.356705
 21
-24.433971
  0
LINE
  8
LC-003-002-----0
 62
     1
  6
CONTINUOUS
 10
256.777588
 20
44.966450
 11
288.777588
 21
44.966450
  0
LINE
  8
LC-003-002-----0
 62
     1
  6
CONTINUOUS
 10
256.777588
 20
129.966446
 11
256.777588
 21
44.966454
  0
LINE
  8
LC-003-002-----0
 62
     1
  6
CONTINUOUS
 10
257.777588
 20
130.966446
 11
287.777588
 21
130.966446
  0
LINE
  8
LC-003-002-----0
 62
     1
  6
CONTINUOUS
 10
288.777588
 20
129.966446
 11
288.777588
 21
44.966454
  0
LINE
  8
LC-005-002-RND-0
 62
     2
  6
DASHDOT
 10
272.777588
 20
130.691299
 11
272.777588
 21
113.684868
  0
LINE
  8
LC-003-002-----0
 62
     1
  6
CONTINUOUS
 10
257.777588
 20
56.966450
 11
287.777588
 21
56.966450
  0
LINE
  8
LC-005-002-RND-0
 62
     2
  6
DASHDOT
 10
253.851212
 20
94.966446
 11
291.530518
 21
94.966446
  0
LINE
  8
LC-005-002-RND-0
 62
     2
  6
DASHDOT
 10
263.832672
 20
122.466446
 11
281.661224
 21
122.466446
  0
LINE
  8
LC-008-003-----0
 62
     2
  6
DASHED
 10
256.777588
 20
114.941437
 11
288.777588
 21
114.941437
  0
LINE
  8
LC-008-003-----0
 62
     2
  6
DASHED
 10
256.777588
 20
74.966446
 11
288.777588
 21
74.966446
  0
LINE
  8
LC-005-002-RND-0
 62
     2
  6
DASHDOT
 10
272.777588
 20
59.410374
 11
272.777588
 21
41.587608
  0
LINE
  8
LC-008-003-----0
 62
     2
  6
DASHED
 10
278.277588
 20
56.966450
 11
278.277588
 21
44.966450
  0
LINE
  8
LC-008-003-----0
 62
     2
  6
DASHED
 10
267.277588
 20
56.966450
 11
267.277588
 21
44.966450
  0
CIRCLE
  8
LC-003-002-----0
 62
     1
  6
CONTINUOUS
 10
272.777588
 20
122.466446
 40
7.500000
  0
ARC
  8
LC-003-002-----0
 62
     1
  6
CONTINUOUS
 10
257.777588
 20
55.966450
 40
1.000000
 50
90.000003
 51
180.000009
  0
ARC
  8
LC-003-002-----0
 62
     1
  6
CONTINUOUS
 10
287.777588
 20
55.966450
 40
1.000000
 50
0.000000
 51
90.000003
  0
LINE
  8
LC-003-002-----0
 62
     1
  6
CONTINUOUS
 10
161.356705
 20
130.966446
 11
187.356705
 21
130.966446
  0
LINE
  8
LC-005-002-RND-0
 62
     2
  6
DASHDOT
 10
132.560837
 20
94.966446
 11
183.688538
 21
94.966446
  0
LINE
  8
LC-005-002-RND-0
 62
     2
  6
DASHDOT
 10
160.356705
 20
134.166946
 11
160.356705
 21
41.587601
  0
ARC
  8
LC-003-002-----0
 62
     1
  6
CONTINUOUS
 10
287.777588
 20
129.966446
 40
1.000000
 50
0.000000
 51
90.000003
  0
ARC
  8
LC-003-002-----0
 62
     1
  6
CONTINUOUS
 10
257.777588
 20
129.966446
 40
1.000000
 50
90.000003
 51
180.000009
  0
ARC
  8
LC-003-002-----0
 62
     1
  6
CONTINUOUS
 10
213.356705
 20
-5.433971
 40
1.000000
 50
0.000000
 51
90.000003
  0
ARC
  8
LC-003-002-----0
 62
     1
  6
CONTINUOUS
 10
213.356705
 20
-35.433971
 40
1.000000
 50
269.999997
 51
0.000000
  0
ARC
  8
LC-003-002-----0
 62
     1
  6
CONTINUOUS
 10
107.356705
 20
-35.433971
 40
1.000000
 50
180.000009
 51
269.999997
  0
ARC
  8
LC-003-002-----0
 62
     1
  6
CONTINUOUS
 10
107.356705
 20
-5.433971
 40
1.000000
 50
90.000003
 51
180.000009
  0
LINE
  8
LC-008-003-----0
 62
     2
  6
DASHED
 10
161.356705
 20
118.466446
 11
170.886444
 21
118.466446
  0
LINE
  8
LC-008-003-----0
 62
     2
  6
DASHED
 10
171.355530
 20
125.653946
 11
161.356705
 21
125.653946
  0
LINE
  8
LC-007-004-----0
 62
     2
  6
CONTINUOUS
 10
161.356705
 20
125.653946
 11
159.356705
 21
125.653946
  0
LINE
  8
LC-008-003-----0
 62
     2
  6
DASHED
 10
159.356705
 20
125.653946
 11
145.105530
 21
125.653946
  0
LINE
  8
LC-008-003-----0
 62
     2
  6
DASHED
 10
171.355530
 20
119.278946
 11
161.356705
 21
119.278946
  0
LINE
  8
LC-007-004-----0
 62
     2
  6
CONTINUOUS
 10
161.356705
 20
119.278946
 11
159.356705
 21
119.278946
  0
LINE
  8
LC-008-003-----0
 62
     2
  6
DASHED
 10
159.356705
 20
119.278946
 11
145.105530
 21
119.278946
  0
LINE
  8
LC-008-003-----0
 62
     2
  6
DASHED
 10
141.355530
 20
-16.433971
 11
159.356705
 21
-16.433971
  0
LINE
  8
LC-003-002-----0
 62
     1
  6
CONTINUOUS
 10
159.356705
 20
-16.433971
 11
161.356705
 21
-16.433971
  0
LINE
  8
LC-008-003-----0
 62
     2
  6
DASHED
 10
161.356705
 20
-16.433971
 11
170.886444
 21
-16.433971
  0
LINE
  8
LC-008-003-----0
 62
     2
  6
DASHED
 10
141.355530
 20
-24.433971
 11
159.356705
 21
-24.433971
  0
LINE
  8
LC-003-002-----0
 62
     1
  6
CONTINUOUS
 10
159.356705
 20
-24.433971
 11
161.356705
 21
-24.433971
  0
LINE
  8
LC-008-003-----0
 62
     2
  6
DASHED
 10
161.356705
 20
-24.433971
 11
170.886444
 21
-24.433971
  0
LINE
  8
LC-008-003-----0
 62
     2
  6
DASHED
 10
171.355530
 20
-17.246471
 11
161.356705
 21
-17.246471
  0
LINE
  8
LC-007-004-----0
 62
     2
  6
CONTINUOUS
 10
161.356705
 20
-17.246471
 11
159.356705
 21
-17.246471
  0
LINE
  8
LC-008-003-----0
 62
     2
  6
DASHED
 10
159.356705
 20
-17.246471
 11
145.105530
 21
-17.246471
  0
LINE
  8
LC-007-004-----0
 62
     2
  6
CONTINUOUS
 10
161.356705
 20
-23.621471
 11
159.356705
 21
-23.621471
  0
LINE
  8
LC-008-003-----0
 62
     2
  6
DASHED
 10
159.356705
 20
-23.621471
 11
145.105530
 21
-23.621471
  0
LINE
  8
LC-008-003-----0
 62
     2
  6
DASHED
 10
141.355530
 20
-13.933971
 11
141.355530
 21
-26.933971
  0
LINE
  8
LC-008-003-----0
 62
     2
  6
DASHED
 10
134.655533
 20
-13.933971
 11
141.355530
 21
-13.933971
  0
ARC
  8
LC-008-003-----0
 62
     2
  6
DASHED
 10
134.655533
 20
-15.233971
 40
1.300000
 50
90.000003
 51
180.000009
  0
LINE
  8
LC-008-003-----0
 62
     2
  6
DASHED
 10
133.355530
 20
-25.633970
 11
133.355530
 21
-15.233972
  0
LINE
  8
LC-008-003-----0
 62
     2
  6
DASHED
 10
134.655533
 20
-26.933971
 11
141.355530
 21
-26.933971
  0
ARC
  8
LC-008-003-----0
 62
     2
  6
DASHED
 10
134.655533
 20
-25.633970
 40
1.300000
 50
180.000009
 51
269.999997
  0
LINE
  8
LC-008-003-----0
 62
     2
  6
DASHED
 10
170.886444
 20
-24.433971
 11
171.355530
 21
-23.621471
  0
LINE
  8
LC-008-003-----0
 62
     2
  6
DASHED
 10
170.886444
 20
-16.433971
 11
171.355530
 21
-17.246471
  0
LINE
  8
LC-008-003-----0
 62
     2
  6
DASHED
 10
171.355530
 20
-23.621471
 11
161.356705
 21
-23.621471
  0
LINE
  8
LC-008-003-----0
 62
     2
  6
DASHED
 10
141.355530
 20
128.966446
 11
141.355530
 21
115.966446
  0
LINE
  8
LC-008-003-----0
 62
     2
  6
DASHED
 10
134.655533
 20
128.966446
 11
141.355530
 21
128.966446
  0
ARC
  8
LC-008-003-----0
 62
     2
  6
DASHED
 10
134.655533
 20
127.666451
 40
1.300000
 50
90.000003
 51
180.000009
  0
LINE
  8
LC-008-003-----0
 62
     2
  6
DASHED
 10
133.355530
 20
117.266449
 11
133.355530
 21
127.666451
  0
LINE
  8
LC-008-003-----0
 62
     2
  6
DASHED
 10
134.655533
 20
115.966446
 11
141.355530
 21
115.966446
  0
ARC
  8
LC-008-003-----0
 62
     2
  6
DASHED
 10
134.655533
 20
117.266449
 40
1.300000
 50
180.000009
 51
269.999997
  0
LINE
  8
LC-008-003-----0
 62
     2
  6
DASHED
 10
170.886444
 20
118.466446
 11
171.355530
 21
119.278946
  0
LINE
  8
LC-008-003-----0
 62
     2
  6
DASHED
 10
170.886444
 20
126.466446
 11
171.355530
 21
125.653946
  0
LINE
  8
LC-008-003-----0
 62
     2
  6
DASHED
 10
145.105530
 20
-16.433971
 11
145.105530
 21
-24.433971
  0
LINE
  8
LC-008-003-----0
 62
     2
  6
DASHED
 10
170.886444
 20
-16.433971
 11
170.886444
 21
-24.433971
  0
LINE
  8
LC-008-003-----0
 62
     2
  6
DASHED
 10
171.355530
 20
-17.246471
 11
171.355530
 21
-23.621471
  0
LINE
  8
LC-008-003-----0
 62
     2
  6
DASHED
 10
171.355530
 20
125.653946
 11
171.355530
 21
119.278946
  0
LINE
  8
LC-008-003-----0
 62
     2
  6
DASHED
 10
170.886444
 20
126.466446
 11
170.886444
 21
118.466446
  0
LINE
  8
LC-008-003-----0
 62
     2
  6
DASHED
 10
145.105530
 20
126.466446
 11
145.105530
 21
118.466446
  0
ENDSEC
  0
EOF
