  0
SECTION
  2
HEADER
  9
$LIMMIN
 10
482.436829
 20
-48.087219
  9
$LIMMAX
 10
807.451477
 20
242.144897
  9
$EXTMIN
 10
482.436829
 20
-48.087219
  9
$EXTMAX
 10
807.451477
 20
242.144897
  0
ENDSEC
  0
SECTION
  2
TABLES
  0
TABLE
  2
LTYPE
 70
     3
  0
LTYPE
  2
CONTINUOUS
 70
    64
  3
Ausgezogene Linie
 72
    65
 73
     0
 40
0.0
  0
LTYPE
  2
DASHED
 70
    64
  3
__ __ __ __ __ __ __ __ __ __ __ __ __ __ __
 72
    65
 73
     2
 40
0.75
 49
0.5
 49
-0.25
  0
LTYPE
  2
DASHDOT
 70
    64
  3
__ . __ . __ . __ . __ . __ . __ . __ . __ . __
 72
    65
 73
     4
 40
1.0
 49
0.5
 49
-0.25
 49
0.0
 49
-0.25
  0
ENDTAB
  0
TABLE
  2
LAYER
 70
     4
  0
LAYER
  2
LC-003-002-----0
 70
    64
 62
     7
  6
CONTINUOUS
  0
LAYER
  2
LC-005-002-RND-0
 70
    64
 62
     7
  6
CONTINUOUS
  0
LAYER
  2
LC-008-003-----0
 70
    64
 62
     7
  6
CONTINUOUS
  0
LAYER
  2
LC-007-004-----0
 70
    64
 62
     7
  6
CONTINUOUS
  0
ENDTAB
  0
TABLE
  2
STYLE
 70
     1
  0
STYLE
  2
TXT8
 70
    64
 40
0.0
 41
1.0
 50
0.0
 71
     0
 42
3.500000
  3
TXT8
  4

  0
ENDTAB
  0
ENDSEC
  0
SECTION
  2
BLOCKS
  0
ENDSEC
  0
SECTION
  2
ENTITIES
  0
LINE
  8
LC-008-003-----0
 62
     2
  6
DASHED
 10
533.993347
 20
231.261154
 11
584.994507
 21
231.261154
  0
LINE
  8
LC-003-002-----0
 62
     1
  6
CONTINUOUS
 10
485.994507
 20
76.261147
 11
685.994507
 21
76.261147
  0
LINE
  8
LC-003-002-----0
 62
     1
  6
CONTINUOUS
 10
584.994507
 20
231.261154
 11
586.994507
 21
231.261154
  0
LINE
  8
LC-005-002-RND-0
 62
     2
  6
DASHDOT
 10
585.994507
 20
72.705177
 11
585.994507
 21
242.144897
  0
LINE
  8
LC-003-002-----0
 62
     1
  6
CONTINUOUS
 10
521.994507
 20
236.261154
 11
584.994507
 21
236.261154
  0
LINE
  8
LC-003-002-----0
 62
     1
  6
CONTINUOUS
 10
486.994507
 20
98.261147
 11
519.994507
 21
98.261147
  0
LINE
  8
LC-003-002-----0
 62
     1
  6
CONTINUOUS
 10
650.994507
 20
99.261147
 11
650.994507
 21
235.261154
  0
LINE
  8
LC-003-002-----0
 62
     1
  6
CONTINUOUS
 10
520.994507
 20
99.261147
 11
520.994507
 21
235.261154
  0
LINE
  8
LC-005-002-RND-0
 62
     2
  6
DASHDOT
 10
670.994507
 20
72.705177
 11
670.994507
 21
102.262856
  0
LINE
  8
LC-005-002-RND-0
 62
     2
  6
DASHDOT
 10
500.994507
 20
72.705177
 11
500.994507
 21
102.262856
  0
LINE
  8
LC-003-002-----0
 62
     1
  6
CONTINUOUS
 10
485.994507
 20
76.261147
 11
485.994507
 21
97.261147
  0
LINE
  8
LC-003-002-----0
 62
     1
  6
CONTINUOUS
 10
685.994507
 20
76.261147
 11
685.994507
 21
97.261147
  0
LINE
  8
LC-003-002-----0
 62
     1
  6
CONTINUOUS
 10
651.994507
 20
98.261147
 11
684.994507
 21
98.261147
  0
LINE
  8
LC-008-003-----0
 62
     2
  6
DASHED
 10
509.744507
 20
76.261147
 11
509.744507
 21
98.261147
  0
LINE
  8
LC-008-003-----0
 62
     2
  6
DASHED
 10
492.244507
 20
76.261147
 11
492.244507
 21
98.261147
  0
LINE
  8
LC-008-003-----0
 62
     2
  6
DASHED
 10
679.744507
 20
76.261147
 11
679.744507
 21
98.261147
  0
LINE
  8
LC-008-003-----0
 62
     2
  6
DASHED
 10
662.244507
 20
76.261147
 11
662.244507
 21
98.261147
  0
ARC
  8
LC-003-002-----0
 62
     1
  6
CONTINUOUS
 10
521.994507
 20
235.261154
 40
1.000000
 50
90.000003
 51
180.000009
  0
ARC
  8
LC-003-002-----0
 62
     1
  6
CONTINUOUS
 10
649.994507
 20
235.261154
 40
1.000000
 50
0.000000
 51
90.000003
  0
ARC
  8
LC-003-002-----0
 62
     1
  6
CONTINUOUS
 10
651.994507
 20
99.261147
 40
1.000000
 50
180.000009
 51
269.999997
  0
ARC
  8
LC-003-002-----0
 62
     1
  6
CONTINUOUS
 10
519.994507
 20
99.261147
 40
1.000000
 50
269.999997
 51
0.000000
  0
ARC
  8
LC-003-002-----0
 62
     1
  6
CONTINUOUS
 10
486.994507
 20
97.261147
 40
1.000000
 50
90.000003
 51
180.000009
  0
ARC
  8
LC-003-002-----0
 62
     1
  6
CONTINUOUS
 10
684.994507
 20
97.261147
 40
1.000000
 50
0.000000
 51
90.000003
  0
LINE
  8
LC-003-002-----0
 62
     1
  6
CONTINUOUS
 10
485.994507
 20
15.926711
 11
485.994507
 21
-42.073288
  0
LINE
  8
LC-003-002-----0
 62
     1
  6
CONTINUOUS
 10
486.994507
 20
-43.073288
 11
684.994507
 21
-43.073288
  0
LINE
  8
LC-003-002-----0
 62
     1
  6
CONTINUOUS
 10
685.994507
 20
15.926711
 11
685.994507
 21
-42.073288
  0
LINE
  8
LC-003-002-----0
 62
     1
  6
CONTINUOUS
 10
486.994507
 20
16.926710
 11
684.994507
 21
16.926710
  0
ARC
  8
LC-003-002-----0
 62
     1
  6
CONTINUOUS
 10
486.994507
 20
15.926711
 40
1.000000
 50
90.000003
 51
180.000009
  0
LINE
  8
LC-005-002-RND-0
 62
     2
  6
DASHDOT
 10
585.994507
 20
23.110577
 11
585.994507
 21
-48.087219
  0
LINE
  8
LC-005-002-RND-0
 62
     2
  6
DASHDOT
 10
500.994507
 20
-1.101384
 11
500.994507
 21
-24.905170
  0
CIRCLE
  8
LC-003-002-----0
 62
     1
  6
CONTINUOUS
 10
500.994507
 20
-13.073289
 40
8.750000
  0
LINE
  8
LC-003-002-----0
 62
     1
  6
CONTINUOUS
 10
586.994507
 20
16.926710
 11
586.994507
 21
-43.073288
  0
LINE
  8
LC-003-002-----0
 62
     1
  6
CONTINUOUS
 10
584.994507
 20
16.926710
 11
584.994507
 21
-43.073288
  0
CIRCLE
  8
LC-003-002-----0
 62
     1
  6
CONTINUOUS
 10
670.994507
 20
-13.073289
 40
8.750000
  0
LINE
  8
LC-005-002-RND-0
 62
     2
  6
DASHDOT
 10
670.994507
 20
-1.101384
 11
670.994507
 21
-24.905170
  0
LINE
  8
LC-003-002-----0
 62
     1
  6
CONTINUOUS
 10
520.994507
 20
15.926711
 11
520.994507
 21
-42.073288
  0
LINE
  8
LC-003-002-----0
 62
     1
  6
CONTINUOUS
 10
650.994507
 20
15.926711
 11
650.994507
 21
-42.073288
  0
LINE
  8
LC-008-003-----0
 62
     2
  6
DASHED
 10
625.994507
 20
16.926710
 11
625.994507
 21
-43.073288
  0
LINE
  8
LC-008-003-----0
 62
     2
  6
DASHED
 10
545.994507
 20
16.926710
 11
545.994507
 21
-43.073288
  0
LINE
  8
LC-003-002-----0
 62
     1
  6
CONTINUOUS
 10
743.250061
 20
76.261147
 11
803.250061
 21
76.261147
  0
LINE
  8
LC-003-002-----0
 62
     1
  6
CONTINUOUS
 10
803.250061
 20
76.261147
 11
803.250061
 21
235.261154
  0
LINE
  8
LC-003-002-----0
 62
     1
  6
CONTINUOUS
 10
744.250061
 20
236.261154
 11
802.250061
 21
236.261154
  0
LINE
  8
LC-003-002-----0
 62
     1
  6
CONTINUOUS
 10
743.250061
 20
76.261147
 11
743.250061
 21
235.261154
  0
LINE
  8
LC-003-002-----0
 62
     1
  6
CONTINUOUS
 10
744.250061
 20
98.261147
 11
802.250061
 21
98.261147
  0
LINE
  8
LC-005-002-RND-0
 62
     2
  6
DASHDOT
 10
737.077454
 20
176.261154
 11
807.451477
 21
176.261154
  0
LINE
  8
LC-008-003-----0
 62
     2
  6
DASHED
 10
743.250061
 20
136.261154
 11
803.250061
 21
136.261154
  0
LINE
  8
LC-008-003-----0
 62
     2
  6
DASHED
 10
743.250061
 20
216.261154
 11
803.250061
 21
216.261154
  0
LINE
  8
LC-005-002-RND-0
 62
     2
  6
DASHDOT
 10
518.932678
 20
225.261154
 11
654.676208
 21
225.261154
  0
LINE
  8
LC-008-003-----0
 62
     2
  6
DASHED
 10
533.994507
 20
215.261154
 11
533.994507
 21
235.261154
  0
LINE
  8
LC-008-003-----0
 62
     2
  6
DASHED
 10
520.994507
 20
235.261154
 11
533.994507
 21
235.261154
  0
LINE
  8
LC-008-003-----0
 62
     2
  6
DASHED
 10
520.994507
 20
215.261154
 11
533.994507
 21
215.261154
  0
LINE
  8
LC-008-003-----0
 62
     2
  6
DASHED
 10
533.994507
 20
232.011154
 11
584.994507
 21
232.011154
  0
LINE
  8
LC-008-003-----0
 62
     2
  6
DASHED
 10
533.994507
 20
218.511154
 11
584.994507
 21
218.511154
  0
LINE
  8
LC-003-002-----0
 62
     1
  6
CONTINUOUS
 10
586.994507
 20
216.248642
 11
586.994507
 21
236.261154
  0
LINE
  8
LC-003-002-----0
 62
     1
  6
CONTINUOUS
 10
584.994507
 20
216.248642
 11
584.994507
 21
236.261154
  0
ARC
  8
LC-003-002-----0
 62
     1
  6
CONTINUOUS
 10
585.994507
 20
176.261154
 40
40.000000
 50
91.432546
 51
88.567459
  0
LINE
  8
LC-003-002-----0
 62
     1
  6
CONTINUOUS
 10
586.994507
 20
236.261154
 11
649.994507
 21
236.261154
  0
LINE
  8
LC-008-003-----0
 62
     2
  6
DASHED
 10
603.336609
 20
231.261154
 11
650.994507
 21
231.261154
  0
LINE
  8
LC-008-003-----0
 62
     2
  6
DASHED
 10
603.336609
 20
219.261154
 11
650.994507
 21
219.261154
  0
LINE
  8
LC-008-003-----0
 62
     2
  6
DASHED
 10
603.913940
 20
230.261154
 11
650.994507
 21
230.261154
  0
LINE
  8
LC-008-003-----0
 62
     2
  6
DASHED
 10
603.913940
 20
220.261154
 11
650.994507
 21
220.261154
  0
LINE
  8
LC-005-002-RND-0
 62
     2
  6
DASHDOT
 10
773.250061
 20
213.793228
 11
773.250061
 21
236.099579
  0
LINE
  8
LC-005-002-RND-0
 62
     2
  6
DASHDOT
 10
773.250061
 20
72.705177
 11
773.250061
 21
102.262856
  0
LINE
  8
LC-008-003-----0
 62
     2
  6
DASHED
 10
782.000061
 20
76.261147
 11
782.000061
 21
98.261147
  0
LINE
  8
LC-008-003-----0
 62
     2
  6
DASHED
 10
764.500061
 20
76.261147
 11
764.500061
 21
98.261147
  0
LINE
  8
LC-005-002-RND-0
 62
     2
  6
DASHDOT
 10
761.787231
 20
225.261154
 11
784.479675
 21
225.261154
  0
LINE
  8
LC-005-002-RND-0
 62
     2
  6
DASHDOT
 10
482.436829
 20
-13.073289
 11
688.971680
 21
-13.073289
  0
LINE
  8
LC-008-003-----0
 62
     2
  6
DASHED
 10
533.994507
 20
-23.073290
 11
533.994507
 21
-3.073288
  0
LINE
  8
LC-008-003-----0
 62
     2
  6
DASHED
 10
520.994507
 20
-3.073289
 11
533.994507
 21
-3.073289
  0
CIRCLE
  8
LC-003-002-----0
 62
     1
  6
CONTINUOUS
 10
773.250061
 20
225.261154
 40
10.000000
  0
LINE
  8
LC-008-003-----0
 62
     2
  6
DASHED
 10
520.994507
 20
-23.073290
 11
533.994507
 21
-23.073290
  0
LINE
  8
LC-008-003-----0
 62
     2
  6
DASHED
 10
533.994507
 20
-6.323289
 11
584.994507
 21
-6.323289
  0
LINE
  8
LC-008-003-----0
 62
     2
  6
DASHED
 10
533.994507
 20
-19.823290
 11
584.994507
 21
-19.823290
  0
LINE
  8
LC-008-003-----0
 62
     2
  6
DASHED
 10
603.336609
 20
-7.073289
 11
650.994507
 21
-7.073289
  0
LINE
  8
LC-008-003-----0
 62
     2
  6
DASHED
 10
603.336609
 20
-19.073290
 11
650.994507
 21
-19.073290
  0
LINE
  8
LC-008-003-----0
 62
     2
  6
DASHED
 10
603.913940
 20
-8.073289
 11
650.994507
 21
-8.073289
  0
LINE
  8
LC-008-003-----0
 62
     2
  6
DASHED
 10
603.913940
 20
-18.073290
 11
650.994507
 21
-18.073290
  0
ARC
  8
LC-003-002-----0
 62
     1
  6
CONTINUOUS
 10
486.994507
 20
-42.073288
 40
1.000000
 50
180.000009
 51
269.999997
  0
ARC
  8
LC-003-002-----0
 62
     1
  6
CONTINUOUS
 10
684.994507
 20
15.926711
 40
1.000000
 50
0.000000
 51
90.000003
  0
ARC
  8
LC-003-002-----0
 62
     1
  6
CONTINUOUS
 10
684.994507
 20
-42.073288
 40
1.000000
 50
269.999997
 51
0.000000
  0
ARC
  8
LC-003-002-----0
 62
     1
  6
CONTINUOUS
 10
744.250061
 20
235.261154
 40
1.000000
 50
90.000003
 51
180.000009
  0
ARC
  8
LC-003-002-----0
 62
     1
  6
CONTINUOUS
 10
802.250061
 20
235.261154
 40
1.000000
 50
0.000000
 51
90.000003
  0
ARC
  8
LC-003-002-----0
 62
     1
  6
CONTINUOUS
 10
802.250061
 20
97.261147
 40
1.000000
 50
0.000000
 51
90.000003
  0
ARC
  8
LC-003-002-----0
 62
     1
  6
CONTINUOUS
 10
744.250061
 20
97.261147
 40
1.000000
 50
90.000003
 51
180.000009
  0
ARC
  8
LC-003-002-----0
 62
     1
  6
CONTINUOUS
 10
521.994507
 20
15.926711
 40
1.000000
 50
90.000003
 51
180.000009
  0
ARC
  8
LC-003-002-----0
 62
     1
  6
CONTINUOUS
 10
521.994507
 20
-42.073288
 40
1.000000
 50
180.000009
 51
269.999997
  0
ARC
  8
LC-003-002-----0
 62
     1
  6
CONTINUOUS
 10
649.994507
 20
15.926711
 40
1.000000
 50
0.000000
 51
90.000003
  0
ARC
  8
LC-003-002-----0
 62
     1
  6
CONTINUOUS
 10
649.994507
 20
-42.073288
 40
1.000000
 50
269.999997
 51
0.000000
  0
LINE
  8
LC-008-003-----0
 62
     2
  6
DASHED
 10
586.994507
 20
231.261154
 11
603.336609
 21
231.261154
  0
LINE
  8
LC-005-002-RND-0
 62
     2
  6
DASHDOT
 10
541.646301
 20
176.261154
 11
630.509338
 21
176.261154
  0
LINE
  8
LC-008-003-----0
 62
     2
  6
DASHED
 10
533.993347
 20
219.261154
 11
584.994507
 21
219.261154
  0
LINE
  8
LC-003-002-----0
 62
     1
  6
CONTINUOUS
 10
584.994507
 20
219.261154
 11
586.994507
 21
219.261154
  0
LINE
  8
LC-008-003-----0
 62
     2
  6
DASHED
 10
586.994507
 20
219.261154
 11
603.336609
 21
219.261154
  0
LINE
  8
LC-008-003-----0
 62
     2
  6
DASHED
 10
603.993347
 20
230.123642
 11
586.994507
 21
230.123642
  0
LINE
  8
LC-007-004-----0
 62
     2
  6
CONTINUOUS
 10
586.994507
 20
230.123642
 11
584.994507
 21
230.123642
  0
LINE
  8
LC-008-003-----0
 62
     2
  6
DASHED
 10
584.994507
 20
230.123642
 11
567.993347
 21
230.123642
  0
LINE
  8
LC-008-003-----0
 62
     2
  6
DASHED
 10
603.993347
 20
220.398651
 11
586.994507
 21
220.398651
  0
LINE
  8
LC-007-004-----0
 62
     2
  6
CONTINUOUS
 10
586.994507
 20
220.398651
 11
584.994507
 21
220.398651
  0
LINE
  8
LC-008-003-----0
 62
     2
  6
DASHED
 10
584.994507
 20
220.398651
 11
567.993347
 21
220.398651
  0
LINE
  8
LC-008-003-----0
 62
     2
  6
DASHED
 10
533.993347
 20
-7.073289
 11
584.994507
 21
-7.073289
  0
LINE
  8
LC-003-002-----0
 62
     1
  6
CONTINUOUS
 10
584.994507
 20
-7.073289
 11
586.994507
 21
-7.073289
  0
LINE
  8
LC-008-003-----0
 62
     2
  6
DASHED
 10
586.994507
 20
-7.073289
 11
603.336609
 21
-7.073289
  0
LINE
  8
LC-008-003-----0
 62
     2
  6
DASHED
 10
533.993347
 20
-19.073290
 11
584.994507
 21
-19.073290
  0
LINE
  8
LC-003-002-----0
 62
     1
  6
CONTINUOUS
 10
584.994507
 20
-19.073290
 11
586.994507
 21
-19.073290
  0
LINE
  8
LC-008-003-----0
 62
     2
  6
DASHED
 10
586.994507
 20
-19.073290
 11
603.336609
 21
-19.073290
  0
LINE
  8
LC-008-003-----0
 62
     2
  6
DASHED
 10
603.993347
 20
-8.210789
 11
586.994507
 21
-8.210789
  0
LINE
  8
LC-007-004-----0
 62
     2
  6
CONTINUOUS
 10
586.994507
 20
-8.210789
 11
584.994507
 21
-8.210789
  0
LINE
  8
LC-008-003-----0
 62
     2
  6
DASHED
 10
584.994507
 20
-8.210789
 11
567.993347
 21
-8.210789
  0
LINE
  8
LC-007-004-----0
 62
     2
  6
CONTINUOUS
 10
586.994507
 20
-17.935789
 11
584.994507
 21
-17.935789
  0
LINE
  8
LC-008-003-----0
 62
     2
  6
DASHED
 10
584.994507
 20
-17.935789
 11
567.993347
 21
-17.935789
  0
LINE
  8
LC-008-003-----0
 62
     2
  6
DASHED
 10
533.993347
 20
-4.073289
 11
533.993347
 21
-22.073290
  0
LINE
  8
LC-008-003-----0
 62
     2
  6
DASHED
 10
523.793335
 20
-4.073289
 11
533.993347
 21
-4.073289
  0
ARC
  8
LC-008-003-----0
 62
     2
  6
DASHED
 10
523.793335
 20
-5.873289
 40
1.800000
 50
90.000003
 51
180.000009
  0
LINE
  8
LC-008-003-----0
 62
     2
  6
DASHED
 10
521.993347
 20
-20.273289
 11
521.993347
 21
-5.873290
  0
LINE
  8
LC-008-003-----0
 62
     2
  6
DASHED
 10
523.793335
 20
-22.073290
 11
533.993347
 21
-22.073290
  0
ARC
  8
LC-008-003-----0
 62
     2
  6
DASHED
 10
523.793335
 20
-20.273289
 40
1.800000
 50
180.000009
 51
269.999997
  0
LINE
  8
LC-008-003-----0
 62
     2
  6
DASHED
 10
603.336609
 20
-19.073290
 11
603.993347
 21
-17.935789
  0
LINE
  8
LC-008-003-----0
 62
     2
  6
DASHED
 10
603.336609
 20
-7.073289
 11
603.993347
 21
-8.210789
  0
LINE
  8
LC-008-003-----0
 62
     2
  6
DASHED
 10
603.993347
 20
-17.935789
 11
586.994507
 21
-17.935789
  0
LINE
  8
LC-008-003-----0
 62
     2
  6
DASHED
 10
533.993347
 20
234.261154
 11
533.993347
 21
216.261154
  0
LINE
  8
LC-008-003-----0
 62
     2
  6
DASHED
 10
523.793335
 20
234.261154
 11
533.993347
 21
234.261154
  0
ARC
  8
LC-008-003-----0
 62
     2
  6
DASHED
 10
523.793335
 20
232.461151
 40
1.800000
 50
90.000003
 51
180.000009
  0
LINE
  8
LC-008-003-----0
 62
     2
  6
DASHED
 10
521.993347
 20
218.061142
 11
521.993347
 21
232.461151
  0
LINE
  8
LC-008-003-----0
 62
     2
  6
DASHED
 10
523.793335
 20
216.261154
 11
533.993347
 21
216.261154
  0
ARC
  8
LC-008-003-----0
 62
     2
  6
DASHED
 10
523.793335
 20
218.061142
 40
1.800000
 50
180.000009
 51
269.999997
  0
LINE
  8
LC-008-003-----0
 62
     2
  6
DASHED
 10
603.336609
 20
219.261154
 11
603.993347
 21
220.398651
  0
LINE
  8
LC-008-003-----0
 62
     2
  6
DASHED
 10
603.336609
 20
231.261154
 11
603.993347
 21
230.123642
  0
LINE
  8
LC-008-003-----0
 62
     2
  6
DASHED
 10
567.993347
 20
-7.073289
 11
567.993347
 21
-19.073290
  0
LINE
  8
LC-008-003-----0
 62
     2
  6
DASHED
 10
603.336609
 20
-7.073289
 11
603.336609
 21
-19.073290
  0
LINE
  8
LC-008-003-----0
 62
     2
  6
DASHED
 10
603.993347
 20
-8.210789
 11
603.993347
 21
-17.935789
  0
LINE
  8
LC-008-003-----0
 62
     2
  6
DASHED
 10
603.993347
 20
230.123642
 11
603.993347
 21
220.398651
  0
LINE
  8
LC-008-003-----0
 62
     2
  6
DASHED
 10
603.336609
 20
231.261154
 11
603.336609
 21
219.261154
  0
LINE
  8
LC-008-003-----0
 62
     2
  6
DASHED
 10
567.993347
 20
231.261154
 11
567.993347
 21
219.261154
  0
ENDSEC
  0
EOF
