  0
SECTION
  2
HEADER
  9
$LIMMIN
 10
-111.154938
 20
575.298950
  9
$LIMMAX
 10
325.483490
 20
605.072998
  9
$EXTMIN
 10
-111.154938
 20
575.298950
  9
$EXTMAX
 10
325.483490
 20
605.072998
  0
ENDSEC
  0
SECTION
  2
TABLES
  0
TABLE
  2
LTYPE
 70
     3
  0
LTYPE
  2
CONTINUOUS
 70
    64
  3
Ausgezogene Linie
 72
    65
 73
     0
 40
0.0
  0
LTYPE
  2
DASHED
 70
    64
  3
__ __ __ __ __ __ __ __ __ __ __ __ __ __ __
 72
    65
 73
     2
 40
0.75
 49
0.5
 49
-0.25
  0
LTYPE
  2
DASHDOT
 70
    64
  3
__ . __ . __ . __ . __ . __ . __ . __ . __ . __
 72
    65
 73
     4
 40
1.0
 49
0.5
 49
-0.25
 49
0.0
 49
-0.25
  0
ENDTAB
  0
TABLE
  2
LAYER
 70
     5
  0
LAYER
  2
LC-INFO-1-1-MM-A0-0
 70
    64
 62
     7
  6
CONTINUOUS
  0
LAYER
  2
LC-003-002-----0
 70
    64
 62
     7
  6
CONTINUOUS
  0
LAYER
  2
LC-001-150-----0
 70
    64
 62
     7
  6
CONTINUOUS
  0
LAYER
  2
LC-003-150-MLN-0
 70
    64
 62
     7
  6
CONTINUOUS
  0
LAYER
  2
LC-004-160-----0
 70
    64
 62
     7
  6
CONTINUOUS
  0
ENDTAB
  0
TABLE
  2
STYLE
 70
     1
  0
STYLE
  2
TXT8
 70
    64
 40
0.0
 41
1.0
 50
0.0
 71
     0
 42
3.500000
  3
TXT8
  4

  0
ENDTAB
  0
ENDSEC
  0
SECTION
  2
BLOCKS
  0
ENDSEC
  0
SECTION
  2
ENTITIES
  0
LINE
  8
LC-004-160-----0
 62
     2
  6
CONTINUOUS
 10
137.623306
 20
603.589905
 11
136.826752
 21
602.202332
  0
LINE
  8
LC-004-160-----0
 62
     2
  6
CONTINUOUS
 10
136.826752
 20
602.202332
 11
135.733536
 21
599.428528
  0
LINE
  8
LC-004-160-----0
 62
     2
  6
CONTINUOUS
 10
135.733536
 20
599.428528
 11
135.898163
 21
596.374146
  0
LINE
  8
LC-004-160-----0
 62
     2
  6
CONTINUOUS
 10
135.898163
 20
596.374146
 11
136.315002
 21
593.710266
  0
LINE
  8
LC-004-160-----0
 62
     2
  6
CONTINUOUS
 10
136.315002
 20
593.710266
 11
136.315002
 21
593.710266
  0
LINE
  8
LC-004-160-----0
 62
     2
  6
CONTINUOUS
 10
136.315002
 20
593.710266
 11
135.733536
 21
590.961121
  0
LINE
  8
LC-004-160-----0
 62
     2
  6
CONTINUOUS
 10
135.733536
 20
590.961121
 11
135.733536
 21
590.961121
  0
LINE
  8
LC-004-160-----0
 62
     2
  6
CONTINUOUS
 10
135.733536
 20
590.961121
 11
136.315002
 21
587.589905
  0
LINE
  8
LC-004-160-----0
 62
     2
  6
CONTINUOUS
 10
136.315002
 20
587.589905
 11
136.315002
 21
587.589905
  0
LINE
  8
LC-004-160-----0
 62
     2
  6
CONTINUOUS
 10
136.315002
 20
587.589905
 11
136.605728
 21
586.589905
  0
LINE
  8
LC-004-160-----0
 62
     2
  6
CONTINUOUS
 10
136.605728
 20
586.589905
 11
137.393448
 21
584.094910
  0
LINE
  8
LC-004-160-----0
 62
     2
  6
CONTINUOUS
 10
137.393448
 20
584.094910
 11
137.623306
 21
581.723877
  0
LINE
  8
LC-004-160-----0
 62
     2
  6
CONTINUOUS
 10
137.623306
 20
581.723877
 11
137.623306
 21
581.723877
  0
LINE
  8
LC-004-160-----0
 62
     2
  6
CONTINUOUS
 10
137.623306
 20
581.723877
 11
136.896469
 21
579.084717
  0
LINE
  8
LC-004-160-----0
 62
     2
  6
CONTINUOUS
 10
136.896469
 20
579.084717
 11
136.896469
 21
579.084717
  0
LINE
  8
LC-004-160-----0
 62
     2
  6
CONTINUOUS
 10
136.896469
 20
579.084717
 11
136.896469
 21
576.589905
  0
LINE
  8
LC-004-160-----0
 62
     2
  6
CONTINUOUS
 10
133.116913
 20
603.589905
 11
132.320358
 21
602.202332
  0
LINE
  8
LC-004-160-----0
 62
     2
  6
CONTINUOUS
 10
132.320358
 20
602.202332
 11
131.227142
 21
599.428528
  0
LINE
  8
LC-004-160-----0
 62
     2
  6
CONTINUOUS
 10
131.227142
 20
599.428528
 11
131.391785
 21
596.374146
  0
LINE
  8
LC-004-160-----0
 62
     2
  6
CONTINUOUS
 10
131.391785
 20
596.374146
 11
131.808609
 21
593.710266
  0
LINE
  8
LC-004-160-----0
 62
     2
  6
CONTINUOUS
 10
131.808609
 20
593.710266
 11
131.808609
 21
593.710266
  0
LINE
  8
LC-004-160-----0
 62
     2
  6
CONTINUOUS
 10
131.808609
 20
593.710266
 11
131.227142
 21
590.961121
  0
LINE
  8
LC-004-160-----0
 62
     2
  6
CONTINUOUS
 10
131.227142
 20
590.961121
 11
131.227142
 21
590.961121
  0
LINE
  8
LC-004-160-----0
 62
     2
  6
CONTINUOUS
 10
131.227142
 20
590.961121
 11
131.808609
 21
587.589905
  0
LINE
  8
LC-004-160-----0
 62
     2
  6
CONTINUOUS
 10
131.808609
 20
587.589905
 11
131.808609
 21
587.589905
  0
LINE
  8
LC-004-160-----0
 62
     2
  6
CONTINUOUS
 10
131.808609
 20
587.589905
 11
132.099350
 21
586.589905
  0
LINE
  8
LC-004-160-----0
 62
     2
  6
CONTINUOUS
 10
132.099350
 20
586.589905
 11
132.887054
 21
584.094910
  0
LINE
  8
LC-004-160-----0
 62
     2
  6
CONTINUOUS
 10
132.887054
 20
584.094910
 11
133.116913
 21
581.723877
  0
LINE
  8
LC-004-160-----0
 62
     2
  6
CONTINUOUS
 10
133.116913
 20
581.723877
 11
133.116913
 21
581.723877
  0
LINE
  8
LC-004-160-----0
 62
     2
  6
CONTINUOUS
 10
133.116913
 20
581.723877
 11
132.390076
 21
579.084717
  0
LINE
  8
LC-004-160-----0
 62
     2
  6
CONTINUOUS
 10
132.390076
 20
579.084717
 11
132.390076
 21
579.084717
  0
LINE
  8
LC-004-160-----0
 62
     2
  6
CONTINUOUS
 10
132.390076
 20
579.084717
 11
132.390076
 21
576.589905
  0
LINE
  8
LC-003-002-----0
 62
     1
  6
CONTINUOUS
 10
-107.908501
 20
576.589905
 11
-95.908501
 21
576.589905
  0
LINE
  8
LC-003-002-----0
 62
     1
  6
CONTINUOUS
 10
-107.908501
 20
576.589905
 11
-107.908501
 21
586.589905
  0
LINE
  8
LC-003-002-----0
 62
     1
  6
CONTINUOUS
 10
-95.908501
 20
576.589905
 11
-95.908501
 21
586.589905
  0
LINE
  8
LC-003-002-----0
 62
     1
  6
CONTINUOUS
 10
-97.705383
 20
588.808838
 11
-95.908501
 21
586.589905
  0
LINE
  8
LC-001-150-----0
 62
     2
  6
DASHDOT
 10
-111.154938
 20
595.589905
 11
-92.975014
 21
595.589905
  0
LINE
  8
LC-001-150-----0
 62
     2
  6
DASHDOT
 10
-101.908501
 20
575.605164
 11
-101.908501
 21
604.747681
  0
CIRCLE
  8
LC-003-002-----0
 62
     1
  6
CONTINUOUS
 10
-101.908501
 20
595.589905
 40
8.000000
  0
LINE
  8
LC-003-002-----0
 62
     1
  6
CONTINUOUS
 10
-106.111618
 20
588.808838
 11
-107.908501
 21
586.589905
  0
CIRCLE
  8
LC-003-002-----0
 62
     1
  6
CONTINUOUS
 10
-101.908501
 20
595.589905
 40
7.500000
  0
LINE
  8
LC-003-002-----0
 62
     1
  6
CONTINUOUS
 10
-53.348427
 20
576.589905
 11
132.390076
 21
576.589905
  0
LINE
  8
LC-003-002-----0
 62
     1
  6
CONTINUOUS
 10
-52.848427
 20
603.589905
 11
133.116913
 21
603.589905
  0
LINE
  8
LC-003-002-----0
 62
     1
  6
CONTINUOUS
 10
-53.348427
 20
576.589905
 11
-53.348427
 21
588.791626
  0
LINE
  8
LC-001-150-----0
 62
     2
  6
DASHDOT
 10
-54.771038
 20
595.589905
 11
136.778839
 21
595.589905
  0
LINE
  8
LC-003-002-----0
 62
     1
  6
CONTINUOUS
 10
-53.348427
 20
603.089905
 11
-52.848427
 21
603.589905
  0
LINE
  8
LC-003-002-----0
 62
     1
  6
CONTINUOUS
 10
-52.848427
 20
603.589905
 11
-52.848427
 21
588.791626
  0
LINE
  8
LC-003-002-----0
 62
     1
  6
CONTINUOUS
 10
324.060883
 20
576.589905
 11
324.060883
 21
588.791626
  0
LINE
  8
LC-003-002-----0
 62
     1
  6
CONTINUOUS
 10
-53.348427
 20
586.589905
 11
132.099350
 21
586.589905
  0
LINE
  8
LC-001-150-----0
 62
     2
  6
DASHDOT
 10
-43.348427
 20
575.298950
 11
-43.348427
 21
605.072998
  0
LINE
  8
LC-001-150-----0
 62
     2
  6
DASHDOT
 10
106.651573
 20
575.298950
 11
106.651573
 21
605.072998
  0
LINE
  8
LC-003-002-----0
 62
     1
  6
CONTINUOUS
 10
324.060883
 20
576.589905
 11
136.896469
 21
576.589905
  0
LINE
  8
LC-003-002-----0
 62
     1
  6
CONTINUOUS
 10
323.560883
 20
603.589905
 11
137.623306
 21
603.589905
  0
LINE
  8
LC-003-002-----0
 62
     1
  6
CONTINUOUS
 10
324.060883
 20
588.791626
 11
324.060883
 21
603.089905
  0
LINE
  8
LC-001-150-----0
 62
     2
  6
DASHDOT
 10
325.483490
 20
595.589905
 11
133.933640
 21
595.589905
  0
LINE
  8
LC-003-002-----0
 62
     1
  6
CONTINUOUS
 10
324.060883
 20
603.089905
 11
323.560883
 21
603.589905
  0
LINE
  8
LC-003-002-----0
 62
     1
  6
CONTINUOUS
 10
323.560883
 20
603.589905
 11
323.560883
 21
588.791626
  0
LINE
  8
LC-003-002-----0
 62
     1
  6
CONTINUOUS
 10
324.060883
 20
586.589905
 11
136.605728
 21
586.589905
  0
LINE
  8
LC-001-150-----0
 62
     2
  6
DASHDOT
 10
314.060883
 20
575.298950
 11
314.060883
 21
605.072998
  0
LINE
  8
LC-001-150-----0
 62
     2
  6
DASHDOT
 10
164.060883
 20
575.298950
 11
164.060883
 21
605.072998
  0
LINE
  8
LC-003-002-----0
 62
     1
  6
CONTINUOUS
 10
136.104691
 20
588.791626
 11
324.060883
 21
588.791626
  0
LINE
  8
LC-003-150-MLN-0
 62
     2
  6
DASHED
 10
108.631577
 20
594.288147
 11
108.631577
 21
597.988159
  0
LINE
  8
LC-003-150-MLN-0
 62
     2
  6
DASHED
 10
102.401573
 20
584.288147
 11
110.901573
 21
584.288147
  0
LINE
  8
LC-003-150-MLN-0
 62
     2
  6
DASHED
 10
102.401573
 20
580.138123
 11
102.401573
 21
584.288147
  0
ARC
  8
LC-003-150-MLN-0
 62
     2
  6
DASHED
 10
103.251572
 20
580.138123
 40
0.850000
 50
180.000009
 51
269.999997
  0
LINE
  8
LC-003-150-MLN-0
 62
     2
  6
DASHED
 10
110.051575
 20
579.288147
 11
103.251572
 21
579.288147
  0
LINE
  8
LC-003-150-MLN-0
 62
     2
  6
DASHED
 10
110.901573
 20
580.138123
 11
110.901573
 21
584.288147
  0
ARC
  8
LC-003-150-MLN-0
 62
     2
  6
DASHED
 10
110.051575
 20
580.138123
 40
0.850000
 50
269.999997
 51
0.000000
  0
LINE
  8
LC-003-150-MLN-0
 62
     2
  6
DASHED
 10
109.151573
 20
593.987915
 11
108.631577
 21
594.288147
  0
LINE
  8
LC-003-150-MLN-0
 62
     2
  6
DASHED
 10
104.671577
 20
594.288147
 11
108.631577
 21
594.288147
  0
LINE
  8
LC-003-150-MLN-0
 62
     2
  6
DASHED
 10
104.151573
 20
593.987915
 11
104.671577
 21
594.288147
  0
LINE
  8
LC-003-150-MLN-0
 62
     2
  6
DASHED
 10
104.151573
 20
584.288147
 11
104.151573
 21
593.987915
  0
LINE
  8
LC-003-150-MLN-0
 62
     2
  6
DASHED
 10
109.151573
 20
584.288147
 11
109.151573
 21
593.987915
  0
LINE
  8
LC-003-150-MLN-0
 62
     2
  6
DASHED
 10
103.901573
 20
584.288147
 11
103.901573
 21
588.788147
  0
LINE
  8
LC-003-150-MLN-0
 62
     2
  6
DASHED
 10
104.151573
 20
586.688110
 11
109.151573
 21
586.688110
  0
LINE
  8
LC-003-150-MLN-0
 62
     2
  6
DASHED
 10
104.151573
 20
593.987915
 11
109.151573
 21
593.987915
  0
LINE
  8
LC-003-150-MLN-0
 62
     2
  6
DASHED
 10
109.401573
 20
584.288147
 11
109.401573
 21
588.788147
  0
LINE
  8
LC-003-150-MLN-0
 62
     2
  6
DASHED
 10
108.631577
 20
597.988159
 11
106.651573
 21
599.131287
  0
LINE
  8
LC-003-150-MLN-0
 62
     2
  6
DASHED
 10
104.671577
 20
597.988159
 11
106.651573
 21
599.131287
  0
LINE
  8
LC-003-150-MLN-0
 62
     2
  6
DASHED
 10
104.671577
 20
594.288147
 11
104.671577
 21
597.988159
  0
LINE
  8
LC-003-150-MLN-0
 62
     2
  6
DASHED
 10
-106.158501
 20
584.289856
 11
-97.658501
 21
584.289856
  0
LINE
  8
LC-003-150-MLN-0
 62
     2
  6
DASHED
 10
104.671577
 20
597.988159
 11
108.631577
 21
597.988159
  0
LINE
  8
LC-003-150-MLN-0
 62
     2
  6
DASHED
 10
104.671577
 20
594.288147
 11
104.671577
 21
586.688110
  0
LINE
  8
LC-003-150-MLN-0
 62
     2
  6
DASHED
 10
108.631577
 20
594.288147
 11
108.631577
 21
586.688110
  0
LINE
  8
LC-003-150-MLN-0
 62
     2
  6
DASHED
 10
101.651573
 20
576.588135
 11
101.651573
 21
584.288147
  0
LINE
  8
LC-003-150-MLN-0
 62
     2
  6
DASHED
 10
111.651573
 20
576.588135
 11
111.651573
 21
584.288147
  0
LINE
  8
LC-003-150-MLN-0
 62
     2
  6
DASHED
 10
166.040894
 20
594.288147
 11
166.040894
 21
597.988159
  0
LINE
  8
LC-003-150-MLN-0
 62
     2
  6
DASHED
 10
159.810883
 20
584.288147
 11
168.310883
 21
584.288147
  0
LINE
  8
LC-003-150-MLN-0
 62
     2
  6
DASHED
 10
159.810883
 20
580.138123
 11
159.810883
 21
584.288147
  0
ARC
  8
LC-003-150-MLN-0
 62
     2
  6
DASHED
 10
160.660889
 20
580.138123
 40
0.850000
 50
180.000009
 51
269.999997
  0
LINE
  8
LC-003-150-MLN-0
 62
     2
  6
DASHED
 10
167.460892
 20
579.288147
 11
160.660889
 21
579.288147
  0
LINE
  8
LC-003-150-MLN-0
 62
     2
  6
DASHED
 10
168.310883
 20
580.138123
 11
168.310883
 21
584.288147
  0
ARC
  8
LC-003-150-MLN-0
 62
     2
  6
DASHED
 10
167.460892
 20
580.138123
 40
0.850000
 50
269.999997
 51
0.000000
  0
LINE
  8
LC-003-150-MLN-0
 62
     2
  6
DASHED
 10
166.560883
 20
593.987915
 11
166.040894
 21
594.288147
  0
LINE
  8
LC-003-150-MLN-0
 62
     2
  6
DASHED
 10
162.080887
 20
594.288147
 11
166.040894
 21
594.288147
  0
LINE
  8
LC-003-150-MLN-0
 62
     2
  6
DASHED
 10
161.560883
 20
593.987915
 11
162.080887
 21
594.288147
  0
LINE
  8
LC-003-150-MLN-0
 62
     2
  6
DASHED
 10
161.560883
 20
584.288147
 11
161.560883
 21
593.987915
  0
LINE
  8
LC-003-150-MLN-0
 62
     2
  6
DASHED
 10
166.560883
 20
584.288147
 11
166.560883
 21
593.987915
  0
LINE
  8
LC-003-150-MLN-0
 62
     2
  6
DASHED
 10
161.310883
 20
584.288147
 11
161.310883
 21
588.788147
  0
LINE
  8
LC-003-150-MLN-0
 62
     2
  6
DASHED
 10
161.560883
 20
586.688110
 11
166.560883
 21
586.688110
  0
LINE
  8
LC-003-150-MLN-0
 62
     2
  6
DASHED
 10
161.560883
 20
593.987915
 11
166.560883
 21
593.987915
  0
LINE
  8
LC-003-150-MLN-0
 62
     2
  6
DASHED
 10
166.810883
 20
584.288147
 11
166.810883
 21
588.788147
  0
LINE
  8
LC-003-150-MLN-0
 62
     2
  6
DASHED
 10
166.040894
 20
597.988159
 11
164.060883
 21
599.131287
  0
LINE
  8
LC-003-150-MLN-0
 62
     2
  6
DASHED
 10
162.080887
 20
597.988159
 11
164.060883
 21
599.131287
  0
LINE
  8
LC-003-150-MLN-0
 62
     2
  6
DASHED
 10
162.080887
 20
594.288147
 11
162.080887
 21
597.988159
  0
LINE
  8
LC-003-002-----0
 62
     1
  6
CONTINUOUS
 10
-53.348427
 20
588.791626
 11
-53.348427
 21
603.089905
  0
LINE
  8
LC-003-150-MLN-0
 62
     2
  6
DASHED
 10
162.080887
 20
597.988159
 11
166.040894
 21
597.988159
  0
LINE
  8
LC-003-150-MLN-0
 62
     2
  6
DASHED
 10
162.080887
 20
594.288147
 11
162.080887
 21
586.688110
  0
LINE
  8
LC-003-150-MLN-0
 62
     2
  6
DASHED
 10
166.040894
 20
594.288147
 11
166.040894
 21
586.688110
  0
LINE
  8
LC-003-150-MLN-0
 62
     2
  6
DASHED
 10
-41.368427
 20
594.288147
 11
-41.368427
 21
597.988159
  0
LINE
  8
LC-003-150-MLN-0
 62
     2
  6
DASHED
 10
-47.598427
 20
584.288147
 11
-39.098427
 21
584.288147
  0
LINE
  8
LC-003-150-MLN-0
 62
     2
  6
DASHED
 10
-47.598427
 20
580.138123
 11
-47.598427
 21
584.288147
  0
ARC
  8
LC-003-150-MLN-0
 62
     2
  6
DASHED
 10
-46.748425
 20
580.138123
 40
0.850000
 50
180.000009
 51
269.999997
  0
LINE
  8
LC-003-150-MLN-0
 62
     2
  6
DASHED
 10
-39.948425
 20
579.288147
 11
-46.748425
 21
579.288147
  0
LINE
  8
LC-003-150-MLN-0
 62
     2
  6
DASHED
 10
-39.098427
 20
580.138123
 11
-39.098427
 21
584.288147
  0
ARC
  8
LC-003-150-MLN-0
 62
     2
  6
DASHED
 10
-39.948425
 20
580.138123
 40
0.850000
 50
269.999997
 51
0.000000
  0
LINE
  8
LC-003-150-MLN-0
 62
     2
  6
DASHED
 10
-40.848427
 20
593.987915
 11
-41.368427
 21
594.288147
  0
LINE
  8
LC-003-150-MLN-0
 62
     2
  6
DASHED
 10
-45.328426
 20
594.288147
 11
-41.368427
 21
594.288147
  0
LINE
  8
LC-003-150-MLN-0
 62
     2
  6
DASHED
 10
-45.848427
 20
593.987915
 11
-45.328426
 21
594.288147
  0
LINE
  8
LC-003-150-MLN-0
 62
     2
  6
DASHED
 10
-45.848427
 20
584.288147
 11
-45.848427
 21
593.987915
  0
LINE
  8
LC-003-150-MLN-0
 62
     2
  6
DASHED
 10
-40.848427
 20
584.288147
 11
-40.848427
 21
593.987915
  0
LINE
  8
LC-003-150-MLN-0
 62
     2
  6
DASHED
 10
-46.098427
 20
584.288147
 11
-46.098427
 21
588.788147
  0
LINE
  8
LC-003-150-MLN-0
 62
     2
  6
DASHED
 10
-45.848427
 20
586.688110
 11
-40.848427
 21
586.688110
  0
LINE
  8
LC-003-150-MLN-0
 62
     2
  6
DASHED
 10
-45.848427
 20
593.987915
 11
-40.848427
 21
593.987915
  0
LINE
  8
LC-003-150-MLN-0
 62
     2
  6
DASHED
 10
-40.598427
 20
584.288147
 11
-40.598427
 21
588.788147
  0
LINE
  8
LC-003-150-MLN-0
 62
     2
  6
DASHED
 10
-41.368427
 20
597.988159
 11
-43.348427
 21
599.131287
  0
LINE
  8
LC-003-150-MLN-0
 62
     2
  6
DASHED
 10
-45.328426
 20
597.988159
 11
-43.348427
 21
599.131287
  0
LINE
  8
LC-003-150-MLN-0
 62
     2
  6
DASHED
 10
-45.328426
 20
594.288147
 11
-45.328426
 21
597.988159
  0
LINE
  8
LC-003-002-----0
 62
     1
  6
CONTINUOUS
 10
-53.348427
 20
588.791626
 11
131.599762
 21
588.791626
  0
LINE
  8
LC-003-150-MLN-0
 62
     2
  6
DASHED
 10
-45.328426
 20
597.988159
 11
-41.368427
 21
597.988159
  0
LINE
  8
LC-003-150-MLN-0
 62
     2
  6
DASHED
 10
-45.328426
 20
594.288147
 11
-45.328426
 21
586.688110
  0
LINE
  8
LC-003-150-MLN-0
 62
     2
  6
DASHED
 10
-41.368427
 20
594.288147
 11
-41.368427
 21
586.688110
  0
LINE
  8
LC-003-150-MLN-0
 62
     2
  6
DASHED
 10
-48.348427
 20
576.588135
 11
-48.348427
 21
584.288147
  0
LINE
  8
LC-003-150-MLN-0
 62
     2
  6
DASHED
 10
-38.348427
 20
576.588135
 11
-38.348427
 21
584.288147
  0
LINE
  8
LC-003-150-MLN-0
 62
     2
  6
DASHED
 10
159.060883
 20
576.588135
 11
159.060883
 21
584.288147
  0
LINE
  8
LC-003-150-MLN-0
 62
     2
  6
DASHED
 10
169.060883
 20
576.588135
 11
169.060883
 21
584.288147
  0
LINE
  8
LC-003-150-MLN-0
 62
     2
  6
DASHED
 10
316.040894
 20
594.288147
 11
316.040894
 21
597.988159
  0
LINE
  8
LC-003-150-MLN-0
 62
     2
  6
DASHED
 10
309.810883
 20
584.288147
 11
318.310883
 21
584.288147
  0
LINE
  8
LC-003-150-MLN-0
 62
     2
  6
DASHED
 10
309.810883
 20
580.138123
 11
309.810883
 21
584.288147
  0
ARC
  8
LC-003-150-MLN-0
 62
     2
  6
DASHED
 10
310.660889
 20
580.138123
 40
0.850000
 50
180.000009
 51
269.999997
  0
LINE
  8
LC-003-150-MLN-0
 62
     2
  6
DASHED
 10
317.460876
 20
579.288147
 11
310.660889
 21
579.288147
  0
LINE
  8
LC-003-150-MLN-0
 62
     2
  6
DASHED
 10
318.310883
 20
580.138123
 11
318.310883
 21
584.288147
  0
ARC
  8
LC-003-150-MLN-0
 62
     2
  6
DASHED
 10
317.460876
 20
580.138123
 40
0.850000
 50
269.999997
 51
0.000000
  0
LINE
  8
LC-003-150-MLN-0
 62
     2
  6
DASHED
 10
316.560883
 20
593.987915
 11
316.040894
 21
594.288147
  0
LINE
  8
LC-003-150-MLN-0
 62
     2
  6
DASHED
 10
312.080902
 20
594.288147
 11
316.040894
 21
594.288147
  0
LINE
  8
LC-003-150-MLN-0
 62
     2
  6
DASHED
 10
311.560883
 20
593.987915
 11
312.080902
 21
594.288147
  0
LINE
  8
LC-003-150-MLN-0
 62
     2
  6
DASHED
 10
311.560883
 20
584.288147
 11
311.560883
 21
593.987915
  0
LINE
  8
LC-003-150-MLN-0
 62
     2
  6
DASHED
 10
316.560883
 20
584.288147
 11
316.560883
 21
593.987915
  0
LINE
  8
LC-003-150-MLN-0
 62
     2
  6
DASHED
 10
311.310883
 20
584.288147
 11
311.310883
 21
588.788147
  0
LINE
  8
LC-003-150-MLN-0
 62
     2
  6
DASHED
 10
311.560883
 20
586.688110
 11
316.560883
 21
586.688110
  0
LINE
  8
LC-003-150-MLN-0
 62
     2
  6
DASHED
 10
311.560883
 20
593.987915
 11
316.560883
 21
593.987915
  0
LINE
  8
LC-003-150-MLN-0
 62
     2
  6
DASHED
 10
316.810883
 20
584.288147
 11
316.810883
 21
588.788147
  0
LINE
  8
LC-003-150-MLN-0
 62
     2
  6
DASHED
 10
316.040894
 20
597.988159
 11
314.060883
 21
599.131287
  0
LINE
  8
LC-003-150-MLN-0
 62
     2
  6
DASHED
 10
312.080902
 20
597.988159
 11
314.060883
 21
599.131287
  0
LINE
  8
LC-003-150-MLN-0
 62
     2
  6
DASHED
 10
312.080902
 20
594.288147
 11
312.080902
 21
597.988159
  0
LINE
  8
LC-003-150-MLN-0
 62
     2
  6
DASHED
 10
312.080902
 20
597.988159
 11
316.040894
 21
597.988159
  0
LINE
  8
LC-003-150-MLN-0
 62
     2
  6
DASHED
 10
312.080902
 20
594.288147
 11
312.080902
 21
586.688110
  0
LINE
  8
LC-003-150-MLN-0
 62
     2
  6
DASHED
 10
316.040894
 20
594.288147
 11
316.040894
 21
586.688110
  0
LINE
  8
LC-003-150-MLN-0
 62
     2
  6
DASHED
 10
309.060883
 20
576.588135
 11
309.060883
 21
584.288147
  0
LINE
  8
LC-003-150-MLN-0
 62
     2
  6
DASHED
 10
319.060883
 20
576.588135
 11
319.060883
 21
584.288147
  0
LINE
  8
LC-003-150-MLN-0
 62
     2
  6
DASHED
 10
-99.928497
 20
594.289856
 11
-99.928497
 21
597.989868
  0
LINE
  8
LC-003-150-MLN-0
 62
     2
  6
DASHED
 10
-106.158501
 20
580.139893
 11
-106.158501
 21
584.289856
  0
ARC
  8
LC-003-150-MLN-0
 62
     2
  6
DASHED
 10
-105.308502
 20
580.139893
 40
0.850000
 50
180.000009
 51
269.999997
  0
LINE
  8
LC-003-150-MLN-0
 62
     2
  6
DASHED
 10
-98.508499
 20
579.289856
 11
-105.308502
 21
579.289856
  0
LINE
  8
LC-003-150-MLN-0
 62
     2
  6
DASHED
 10
-97.658501
 20
580.139893
 11
-97.658501
 21
584.289856
  0
ARC
  8
LC-003-150-MLN-0
 62
     2
  6
DASHED
 10
-98.508499
 20
580.139893
 40
0.850000
 50
269.999997
 51
0.000000
  0
LINE
  8
LC-003-150-MLN-0
 62
     2
  6
DASHED
 10
-99.408501
 20
593.989685
 11
-99.928497
 21
594.289856
  0
LINE
  8
LC-003-150-MLN-0
 62
     2
  6
DASHED
 10
-103.888504
 20
594.289856
 11
-99.928497
 21
594.289856
  0
LINE
  8
LC-003-150-MLN-0
 62
     2
  6
DASHED
 10
-104.408501
 20
593.989685
 11
-103.888504
 21
594.289856
  0
LINE
  8
LC-003-150-MLN-0
 62
     2
  6
DASHED
 10
-104.408501
 20
584.289856
 11
-104.408501
 21
593.989685
  0
LINE
  8
LC-003-150-MLN-0
 62
     2
  6
DASHED
 10
-99.408501
 20
584.289856
 11
-99.408501
 21
593.989685
  0
LINE
  8
LC-003-150-MLN-0
 62
     2
  6
DASHED
 10
-104.658501
 20
584.289856
 11
-104.658501
 21
588.077393
  0
LINE
  8
LC-003-150-MLN-0
 62
     2
  6
DASHED
 10
-104.408501
 20
586.689880
 11
-99.408501
 21
586.689880
  0
LINE
  8
LC-003-150-MLN-0
 62
     2
  6
DASHED
 10
-104.408501
 20
593.989685
 11
-99.408501
 21
593.989685
  0
LINE
  8
LC-003-150-MLN-0
 62
     2
  6
DASHED
 10
-99.158501
 20
584.289856
 11
-99.158501
 21
588.077393
  0
LINE
  8
LC-003-150-MLN-0
 62
     2
  6
DASHED
 10
-99.928497
 20
597.989868
 11
-101.908501
 21
599.133057
  0
LINE
  8
LC-003-150-MLN-0
 62
     2
  6
DASHED
 10
-103.888504
 20
597.989868
 11
-101.908501
 21
599.133057
  0
LINE
  8
LC-003-150-MLN-0
 62
     2
  6
DASHED
 10
-103.888504
 20
594.289856
 11
-103.888504
 21
597.989868
  0
LINE
  8
LC-003-150-MLN-0
 62
     2
  6
DASHED
 10
-103.888504
 20
597.989868
 11
-99.928497
 21
597.989868
  0
LINE
  8
LC-003-150-MLN-0
 62
     2
  6
DASHED
 10
-103.888504
 20
594.289856
 11
-103.888504
 21
586.689880
  0
LINE
  8
LC-003-150-MLN-0
 62
     2
  6
DASHED
 10
-99.928497
 20
594.289856
 11
-99.928497
 21
586.689880
  0
LINE
  8
LC-003-150-MLN-0
 62
     2
  6
DASHED
 10
-106.908501
 20
576.589905
 11
-106.908501
 21
584.289856
  0
LINE
  8
LC-003-150-MLN-0
 62
     2
  6
DASHED
 10
-96.908501
 20
576.589905
 11
-96.908501
 21
584.289856
  0
ENDSEC
  0
EOF
