  0
SECTION
  2
HEADER
  9
$LIMMIN
 10
236.079315
 20
425.097748
  9
$LIMMAX
 10
480.460144
 20
505.591705
  9
$EXTMIN
 10
236.079315
 20
425.097748
  9
$EXTMAX
 10
480.460144
 20
505.591705
  0
ENDSEC
  0
SECTION
  2
TABLES
  0
TABLE
  2
LTYPE
 70
     4
  0
LTYPE
  2
CONTINUOUS
 70
    64
  3
Ausgezogene Linie
 72
    65
 73
     0
 40
0.0
  0
LTYPE
  2
DASHED
 70
    64
  3
__ __ __ __ __ __ __ __ __ __ __ __ __ __ __
 72
    65
 73
     2
 40
0.75
 49
0.5
 49
-0.25
  0
LTYPE
  2
DASHDOT
 70
    64
  3
__ . __ . __ . __ . __ . __ . __ . __ . __ . __
 72
    65
 73
     4
 40
1.0
 49
0.5
 49
-0.25
 49
0.0
 49
-0.25
  0
LTYPE
  2
DIVIDE
 70
    64
  3
__ . . __ . . __ . . __ . . __ . . __ . . __
 72
    65
 73
     6
 40
1.25
 49
0.5
 49
-0.25
 49
0.0
 49
-0.25
 49
0.0
 49
-0.25
  0
ENDTAB
  0
TABLE
  2
LAYER
 70
     4
  0
LAYER
  2
LC-003-002-----0
 70
    64
 62
     7
  6
CONTINUOUS
  0
LAYER
  2
LC-004-006-----0
 70
    64
 62
     7
  6
CONTINUOUS
  0
LAYER
  2
LC-006-012-----0
 70
    64
 62
     7
  6
CONTINUOUS
  0
LAYER
  2
LC-008-003-----0
 70
    64
 62
     7
  6
CONTINUOUS
  0
ENDTAB
  0
TABLE
  2
STYLE
 70
     1
  0
STYLE
  2
TXT8
 70
    64
 40
0.0
 41
1.0
 50
0.0
 71
     0
 42
3.500000
  3
TXT8
  4

  0
ENDTAB
  0
ENDSEC
  0
SECTION
  2
BLOCKS
  0
ENDSEC
  0
SECTION
  2
ENTITIES
  0
LINE
  8
LC-003-002-----0
 62
     1
  6
CONTINUOUS
 10
260.901245
 20
428.942719
 11
260.901245
 21
469.497650
  0
LINE
  8
LC-003-002-----0
 62
     1
  6
CONTINUOUS
 10
240.901245
 20
428.942719
 11
260.901245
 21
428.942719
  0
LINE
  8
LC-003-002-----0
 62
     1
  6
CONTINUOUS
 10
240.901245
 20
428.942719
 11
240.901245
 21
469.497650
  0
LINE
  8
LC-004-006-----0
 62
     2
  6
DASHDOT
 10
236.079315
 20
490.942719
 11
265.639160
 21
490.942719
  0
LINE
  8
LC-004-006-----0
 62
     2
  6
DASHDOT
 10
250.901245
 20
425.097778
 11
250.901245
 21
505.591705
  0
CIRCLE
  8
LC-008-003-----0
 62
     2
  6
DIVIDE
 10
250.901245
 20
490.942719
 40
12.500000
  0
LINE
  8
LC-003-002-----0
 62
     1
  6
CONTINUOUS
 10
245.618530
 20
479.613861
 11
240.901245
 21
469.497650
  0
LINE
  8
LC-003-002-----0
 62
     1
  6
CONTINUOUS
 10
256.183990
 20
479.613861
 11
260.901245
 21
469.497650
  0
LINE
  8
LC-003-002-----0
 62
     1
  6
CONTINUOUS
 10
245.618530
 20
479.613861
 11
250.901245
 21
477.948242
  0
LINE
  8
LC-003-002-----0
 62
     1
  6
CONTINUOUS
 10
256.183990
 20
479.613861
 11
250.901245
 21
477.948242
  0
LINE
  8
LC-006-012-----0
 62
     2
  6
DASHED
 10
243.401245
 20
428.942719
 11
243.401245
 21
442.942719
  0
LINE
  8
LC-006-012-----0
 62
     2
  6
DASHED
 10
258.401245
 20
428.942719
 11
258.401245
 21
442.942719
  0
LINE
  8
LC-006-012-----0
 62
     2
  6
DASHED
 10
243.401245
 20
442.942719
 11
258.401245
 21
442.942719
  0
LINE
  8
LC-006-012-----0
 62
     2
  6
DASHED
 10
246.401245
 20
442.942719
 11
246.401245
 21
479.280823
  0
LINE
  8
LC-006-012-----0
 62
     2
  6
DASHED
 10
255.401245
 20
442.942719
 11
255.401245
 21
479.280823
  0
LINE
  8
LC-004-006-----0
 62
     2
  6
DASHDOT
 10
236.868134
 20
438.942719
 11
264.347534
 21
438.942719
  0
LINE
  8
LC-006-012-----0
 62
     2
  6
DASHED
 10
240.901245
 20
446.442719
 11
251.901245
 21
446.442719
  0
LINE
  8
LC-006-012-----0
 62
     2
  6
DASHED
 10
240.901245
 20
431.442719
 11
251.901245
 21
431.442719
  0
LINE
  8
LC-006-012-----0
 62
     2
  6
DASHED
 10
251.901245
 20
431.442719
 11
251.901245
 21
446.442719
  0
LINE
  8
LC-006-012-----0
 62
     2
  6
DASHED
 10
251.901245
 20
443.442719
 11
260.901245
 21
443.442719
  0
LINE
  8
LC-006-012-----0
 62
     2
  6
DASHED
 10
251.901245
 20
434.442719
 11
260.901245
 21
434.442719
  0
LINE
  8
LC-006-012-----0
 62
     2
  6
DASHED
 10
240.901245
 20
462.442719
 11
251.901245
 21
462.442719
  0
LINE
  8
LC-006-012-----0
 62
     2
  6
DASHED
 10
251.901245
 20
459.442719
 11
260.901245
 21
459.442719
  0
LINE
  8
LC-004-006-----0
 62
     2
  6
DASHDOT
 10
236.868134
 20
454.942719
 11
264.347534
 21
454.942719
  0
LINE
  8
LC-006-012-----0
 62
     2
  6
DASHED
 10
251.901245
 20
450.442719
 11
260.901245
 21
450.442719
  0
LINE
  8
LC-006-012-----0
 62
     2
  6
DASHED
 10
251.901245
 20
447.442719
 11
251.901245
 21
462.442719
  0
LINE
  8
LC-006-012-----0
 62
     2
  6
DASHED
 10
240.901245
 20
447.442719
 11
251.901245
 21
447.442719
  0
LINE
  8
LC-003-002-----0
 62
     1
  6
CONTINUOUS
 10
330.460144
 20
428.942719
 11
480.460144
 21
428.942719
  0
LINE
  8
LC-003-002-----0
 62
     1
  6
CONTINUOUS
 10
330.460144
 20
428.942719
 11
330.460144
 21
479.613861
  0
LINE
  8
LC-003-002-----0
 62
     1
  6
CONTINUOUS
 10
330.460144
 20
479.613861
 11
480.460144
 21
479.613861
  0
LINE
  8
LC-004-006-----0
 62
     2
  6
DASHDOT
 10
367.960144
 20
425.097748
 11
367.960144
 21
484.991577
  0
LINE
  8
LC-006-012-----0
 62
     2
  6
DASHED
 10
363.460144
 20
442.942719
 11
363.460144
 21
479.613861
  0
LINE
  8
LC-006-012-----0
 62
     2
  6
DASHED
 10
372.460144
 20
442.942719
 11
372.460144
 21
479.613861
  0
LINE
  8
LC-006-012-----0
 62
     2
  6
DASHED
 10
360.460144
 20
442.942719
 11
375.460144
 21
442.942719
  0
LINE
  8
LC-006-012-----0
 62
     2
  6
DASHED
 10
360.460144
 20
428.942719
 11
360.460144
 21
442.942719
  0
LINE
  8
LC-006-012-----0
 62
     2
  6
DASHED
 10
375.460144
 20
428.942719
 11
375.460144
 21
442.942719
  0
LINE
  8
LC-004-006-----0
 62
     2
  6
DASHDOT
 10
442.960144
 20
425.097748
 11
442.960144
 21
484.991577
  0
LINE
  8
LC-006-012-----0
 62
     2
  6
DASHED
 10
438.460144
 20
442.942719
 11
438.460144
 21
479.613861
  0
LINE
  8
LC-006-012-----0
 62
     2
  6
DASHED
 10
447.460144
 20
442.942719
 11
447.460144
 21
479.613861
  0
LINE
  8
LC-006-012-----0
 62
     2
  6
DASHED
 10
435.460144
 20
442.942719
 11
450.460144
 21
442.942719
  0
LINE
  8
LC-006-012-----0
 62
     2
  6
DASHED
 10
435.460144
 20
428.942719
 11
435.460144
 21
442.942719
  0
LINE
  8
LC-006-012-----0
 62
     2
  6
DASHED
 10
450.460144
 20
428.942719
 11
450.460144
 21
442.942719
  0
LINE
  8
LC-003-002-----0
 62
     1
  6
CONTINUOUS
 10
330.460144
 20
469.497650
 11
480.460144
 21
469.497650
  0
LINE
  8
LC-006-012-----0
 62
     2
  6
DASHED
 10
330.460144
 20
477.948212
 11
363.460144
 21
477.948212
  0
LINE
  8
LC-006-012-----0
 62
     2
  6
DASHED
 10
447.460144
 20
477.948212
 11
480.460144
 21
477.948212
  0
LINE
  8
LC-006-012-----0
 62
     2
  6
DASHED
 10
372.460144
 20
477.948212
 11
438.460144
 21
477.948212
  0
LINE
  8
LC-004-006-----0
 62
     2
  6
DASHDOT
 10
349.210144
 20
430.011292
 11
349.210144
 21
448.752838
  0
LINE
  8
LC-004-006-----0
 62
     2
  6
DASHDOT
 10
386.710144
 20
445.619232
 11
386.710144
 21
463.921692
  0
CIRCLE
  8
LC-003-002-----0
 62
     1
  6
CONTINUOUS
 10
349.210144
 20
438.942719
 40
7.500000
  0
LINE
  8
LC-004-006-----0
 62
     2
  6
DASHDOT
 10
339.222504
 20
438.942719
 11
359.170258
 21
438.942719
  0
LINE
  8
LC-004-006-----0
 62
     2
  6
DASHDOT
 10
461.710144
 20
445.619232
 11
461.710144
 21
463.921692
  0
LINE
  8
LC-004-006-----0
 62
     2
  6
DASHDOT
 10
376.941193
 20
454.942719
 11
396.544983
 21
454.942719
  0
LINE
  8
LC-004-006-----0
 62
     2
  6
DASHDOT
 10
451.941193
 20
454.942719
 11
471.544983
 21
454.942719
  0
CIRCLE
  8
LC-003-002-----0
 62
     1
  6
CONTINUOUS
 10
349.210144
 20
438.942719
 40
4.500000
  0
CIRCLE
  8
LC-003-002-----0
 62
     1
  6
CONTINUOUS
 10
386.710144
 20
454.942719
 40
7.500000
  0
CIRCLE
  8
LC-003-002-----0
 62
     1
  6
CONTINUOUS
 10
386.710144
 20
454.942719
 40
4.500000
  0
CIRCLE
  8
LC-003-002-----0
 62
     1
  6
CONTINUOUS
 10
461.710144
 20
454.942719
 40
7.500000
  0
CIRCLE
  8
LC-003-002-----0
 62
     1
  6
CONTINUOUS
 10
461.710144
 20
454.942719
 40
4.500000
  0
LINE
  8
LC-004-006-----0
 62
     2
  6
DASHDOT
 10
424.210144
 20
430.011292
 11
424.210144
 21
448.752838
  0
CIRCLE
  8
LC-003-002-----0
 62
     1
  6
CONTINUOUS
 10
424.210144
 20
438.942719
 40
7.500000
  0
LINE
  8
LC-004-006-----0
 62
     2
  6
DASHDOT
 10
414.222504
 20
438.942719
 11
434.006653
 21
438.942719
  0
CIRCLE
  8
LC-003-002-----0
 62
     1
  6
CONTINUOUS
 10
424.210144
 20
438.942719
 40
4.500000
  0
LINE
  8
LC-003-002-----0
 62
     1
  6
CONTINUOUS
 10
480.460144
 20
428.942719
 11
480.460144
 21
479.613861
  0
ENDSEC
  0
EOF
