  0
SECTION
  2
HEADER
  9
$LIMMIN
 10
570.350647
 20
390.689636
  9
$LIMMAX
 10
866.997986
 20
507.951233
  9
$EXTMIN
 10
570.350647
 20
390.689636
  9
$EXTMAX
 10
866.997986
 20
507.951233
  0
ENDSEC
  0
SECTION
  2
TABLES
  0
TABLE
  2
LTYPE
 70
     4
  0
LTYPE
  2
CONTINUOUS
 70
    64
  3
Ausgezogene Linie
 72
    65
 73
     0
 40
0.0
  0
LTYPE
  2
DASHED
 70
    64
  3
__ __ __ __ __ __ __ __ __ __ __ __ __ __ __
 72
    65
 73
     2
 40
0.75
 49
0.5
 49
-0.25
  0
LTYPE
  2
DASHDOT
 70
    64
  3
__ . __ . __ . __ . __ . __ . __ . __ . __ . __
 72
    65
 73
     4
 40
1.0
 49
0.5
 49
-0.25
 49
0.0
 49
-0.25
  0
LTYPE
  2
DIVIDE
 70
    64
  3
__ . . __ . . __ . . __ . . __ . . __ . . __
 72
    65
 73
     6
 40
1.25
 49
0.5
 49
-0.25
 49
0.0
 49
-0.25
 49
0.0
 49
-0.25
  0
ENDTAB
  0
TABLE
  2
LAYER
 70
     4
  0
LAYER
  2
LC-003-002-----0
 70
    64
 62
     7
  6
CONTINUOUS
  0
LAYER
  2
LC-004-006-----0
 70
    64
 62
     7
  6
CONTINUOUS
  0
LAYER
  2
LC-006-012-----0
 70
    64
 62
     7
  6
CONTINUOUS
  0
LAYER
  2
LC-008-003-----0
 70
    64
 62
     7
  6
CONTINUOUS
  0
ENDTAB
  0
TABLE
  2
STYLE
 70
     1
  0
STYLE
  2
TXT8
 70
    64
 40
0.0
 41
1.0
 50
0.0
 71
     0
 42
3.500000
  3
TXT8
  4

  0
ENDTAB
  0
ENDSEC
  0
SECTION
  2
BLOCKS
  0
ENDSEC
  0
SECTION
  2
ENTITIES
  0
LINE
  8
LC-003-002-----0
 62
     1
  6
CONTINUOUS
 10
611.439087
 20
395.736206
 11
611.439087
 21
451.568604
  0
LINE
  8
LC-003-002-----0
 62
     1
  6
CONTINUOUS
 10
581.439087
 20
395.736206
 11
611.439087
 21
395.736206
  0
LINE
  8
LC-003-002-----0
 62
     1
  6
CONTINUOUS
 10
581.439087
 20
395.736206
 11
581.439087
 21
451.568604
  0
LINE
  8
LC-004-006-----0
 62
     2
  6
DASHDOT
 10
570.350647
 20
483.736206
 11
621.820435
 21
483.736206
  0
LINE
  8
LC-004-006-----0
 62
     2
  6
DASHDOT
 10
596.439087
 20
390.689636
 11
596.439087
 21
507.951233
  0
CIRCLE
  8
LC-008-003-----0
 62
     2
  6
DIVIDE
 10
596.439087
 20
483.736206
 40
20.000000
  0
LINE
  8
LC-003-002-----0
 62
     1
  6
CONTINUOUS
 10
587.986694
 20
465.610046
 11
581.439087
 21
451.568604
  0
LINE
  8
LC-003-002-----0
 62
     1
  6
CONTINUOUS
 10
604.891418
 20
465.610046
 11
611.439087
 21
451.568604
  0
LINE
  8
LC-003-002-----0
 62
     1
  6
CONTINUOUS
 10
587.986694
 20
465.610046
 11
596.439087
 21
462.945007
  0
LINE
  8
LC-003-002-----0
 62
     1
  6
CONTINUOUS
 10
604.891418
 20
465.610046
 11
596.439087
 21
462.945007
  0
LINE
  8
LC-006-012-----0
 62
     2
  6
DASHED
 10
586.439087
 20
395.736206
 11
586.439087
 21
412.736206
  0
LINE
  8
LC-006-012-----0
 62
     2
  6
DASHED
 10
606.439087
 20
395.736206
 11
606.439087
 21
412.736206
  0
LINE
  8
LC-006-012-----0
 62
     2
  6
DASHED
 10
586.439087
 20
412.736206
 11
606.439087
 21
412.736206
  0
LINE
  8
LC-006-012-----0
 62
     2
  6
DASHED
 10
589.689087
 20
412.736206
 11
589.689087
 21
465.073303
  0
LINE
  8
LC-006-012-----0
 62
     2
  6
DASHED
 10
603.189087
 20
412.736206
 11
603.189087
 21
465.073303
  0
LINE
  8
LC-006-012-----0
 62
     2
  6
DASHED
 10
581.439087
 20
417.736206
 11
597.439087
 21
417.736206
  0
LINE
  8
LC-006-012-----0
 62
     2
  6
DASHED
 10
597.439087
 20
417.736206
 11
597.439087
 21
397.736206
  0
LINE
  8
LC-006-012-----0
 62
     2
  6
DASHED
 10
581.439087
 20
397.736206
 11
597.439087
 21
397.736206
  0
LINE
  8
LC-006-012-----0
 62
     2
  6
DASHED
 10
597.439087
 20
414.486206
 11
611.439087
 21
414.486206
  0
LINE
  8
LC-006-012-----0
 62
     2
  6
DASHED
 10
597.439087
 20
400.986206
 11
611.439087
 21
400.986206
  0
LINE
  8
LC-004-006-----0
 62
     2
  6
DASHDOT
 10
577.458008
 20
407.736206
 11
615.968811
 21
407.736206
  0
LINE
  8
LC-006-012-----0
 62
     2
  6
DASHED
 10
581.439087
 20
443.736206
 11
597.439087
 21
443.736206
  0
LINE
  8
LC-006-012-----0
 62
     2
  6
DASHED
 10
597.439087
 20
440.486206
 11
611.439087
 21
440.486206
  0
LINE
  8
LC-004-006-----0
 62
     2
  6
DASHDOT
 10
577.458008
 20
433.736206
 11
615.968811
 21
433.736206
  0
LINE
  8
LC-006-012-----0
 62
     2
  6
DASHED
 10
597.439087
 20
426.986206
 11
611.439087
 21
426.986206
  0
LINE
  8
LC-006-012-----0
 62
     2
  6
DASHED
 10
581.439087
 20
423.736206
 11
597.439087
 21
423.736206
  0
LINE
  8
LC-006-012-----0
 62
     2
  6
DASHED
 10
597.439087
 20
443.736206
 11
597.439087
 21
423.736206
  0
LINE
  8
LC-003-002-----0
 62
     1
  6
CONTINUOUS
 10
666.997986
 20
395.736206
 11
666.997986
 21
465.610046
  0
LINE
  8
LC-003-002-----0
 62
     1
  6
CONTINUOUS
 10
666.997986
 20
395.736206
 11
866.997986
 21
395.736206
  0
LINE
  8
LC-003-002-----0
 62
     1
  6
CONTINUOUS
 10
666.997986
 20
465.610046
 11
866.997986
 21
465.610046
  0
LINE
  8
LC-006-012-----0
 62
     2
  6
DASHED
 10
666.997986
 20
462.945007
 11
710.247986
 21
462.945007
  0
LINE
  8
LC-003-002-----0
 62
     1
  6
CONTINUOUS
 10
666.997986
 20
451.568604
 11
866.997986
 21
451.568604
  0
LINE
  8
LC-004-006-----0
 62
     2
  6
DASHDOT
 10
716.997986
 20
390.689636
 11
716.997986
 21
470.789063
  0
LINE
  8
LC-006-012-----0
 62
     2
  6
DASHED
 10
710.247986
 20
412.736206
 11
710.247986
 21
465.610046
  0
LINE
  8
LC-006-012-----0
 62
     2
  6
DASHED
 10
723.747986
 20
412.736206
 11
723.747986
 21
465.610046
  0
LINE
  8
LC-006-012-----0
 62
     2
  6
DASHED
 10
726.997986
 20
395.736206
 11
726.997986
 21
412.736206
  0
LINE
  8
LC-006-012-----0
 62
     2
  6
DASHED
 10
706.997986
 20
395.736206
 11
706.997986
 21
412.736206
  0
LINE
  8
LC-006-012-----0
 62
     2
  6
DASHED
 10
706.997986
 20
412.736206
 11
726.997986
 21
412.736206
  0
LINE
  8
LC-004-006-----0
 62
     2
  6
DASHDOT
 10
678.338257
 20
407.736206
 11
705.534973
 21
407.736206
  0
LINE
  8
LC-004-006-----0
 62
     2
  6
DASHDOT
 10
691.997986
 20
394.078369
 11
691.997986
 21
420.558289
  0
CIRCLE
  8
LC-003-002-----0
 62
     1
  6
CONTINUOUS
 10
691.997986
 20
407.736206
 40
10.000000
  0
CIRCLE
  8
LC-003-002-----0
 62
     1
  6
CONTINUOUS
 10
691.997986
 20
407.736206
 40
6.750000
  0
LINE
  8
LC-004-006-----0
 62
     2
  6
DASHDOT
 10
728.534058
 20
433.736206
 11
755.918457
 21
433.736206
  0
LINE
  8
LC-004-006-----0
 62
     2
  6
DASHDOT
 10
816.997986
 20
390.689636
 11
816.997986
 21
470.789063
  0
LINE
  8
LC-004-006-----0
 62
     2
  6
DASHDOT
 10
741.997986
 20
421.180786
 11
741.997986
 21
446.085571
  0
LINE
  8
LC-006-012-----0
 62
     2
  6
DASHED
 10
810.247986
 20
412.736206
 11
810.247986
 21
465.610046
  0
CIRCLE
  8
LC-003-002-----0
 62
     1
  6
CONTINUOUS
 10
741.997986
 20
433.736206
 40
10.000000
  0
CIRCLE
  8
LC-003-002-----0
 62
     1
  6
CONTINUOUS
 10
741.997986
 20
433.736206
 40
6.750000
  0
LINE
  8
LC-006-012-----0
 62
     2
  6
DASHED
 10
823.747925
 20
412.736206
 11
823.747925
 21
465.610046
  0
LINE
  8
LC-006-012-----0
 62
     2
  6
DASHED
 10
826.997925
 20
395.736206
 11
826.997925
 21
412.736206
  0
LINE
  8
LC-006-012-----0
 62
     2
  6
DASHED
 10
806.997986
 20
395.736206
 11
806.997986
 21
412.736206
  0
LINE
  8
LC-006-012-----0
 62
     2
  6
DASHED
 10
806.997986
 20
412.736206
 11
826.997925
 21
412.736206
  0
LINE
  8
LC-004-006-----0
 62
     2
  6
DASHDOT
 10
791.997986
 20
394.078369
 11
791.997986
 21
420.558289
  0
CIRCLE
  8
LC-003-002-----0
 62
     1
  6
CONTINUOUS
 10
791.997986
 20
407.736206
 40
10.000000
  0
CIRCLE
  8
LC-003-002-----0
 62
     1
  6
CONTINUOUS
 10
791.997986
 20
407.736206
 40
6.750000
  0
LINE
  8
LC-004-006-----0
 62
     2
  6
DASHDOT
 10
828.534058
 20
433.736206
 11
855.918457
 21
433.736206
  0
LINE
  8
LC-004-006-----0
 62
     2
  6
DASHDOT
 10
841.997925
 20
421.180786
 11
841.997925
 21
447.026245
  0
CIRCLE
  8
LC-003-002-----0
 62
     1
  6
CONTINUOUS
 10
841.997925
 20
433.736206
 40
10.000000
  0
CIRCLE
  8
LC-003-002-----0
 62
     1
  6
CONTINUOUS
 10
841.997925
 20
433.736206
 40
6.750000
  0
LINE
  8
LC-004-006-----0
 62
     2
  6
DASHDOT
 10
778.338257
 20
407.736206
 11
805.534973
 21
407.736206
  0
LINE
  8
LC-006-012-----0
 62
     2
  6
DASHED
 10
723.747986
 20
462.945007
 11
810.247986
 21
462.945007
  0
LINE
  8
LC-006-012-----0
 62
     2
  6
DASHED
 10
823.747925
 20
462.945007
 11
866.997986
 21
462.945007
  0
LINE
  8
LC-003-002-----0
 62
     1
  6
CONTINUOUS
 10
866.997986
 20
395.736206
 11
866.997986
 21
465.610046
  0
ENDSEC
  0
EOF
