  0
SECTION
  2
HEADER
  9
$LIMMIN
 10
763.719238
 20
368.765137
  9
$LIMMAX
 10
1062.241211
 20
510.522400
  9
$EXTMIN
 10
763.719238
 20
368.765137
  9
$EXTMAX
 10
1062.241211
 20
510.522400
  0
ENDSEC
  0
SECTION
  2
TABLES
  0
TABLE
  2
LTYPE
 70
     4
  0
LTYPE
  2
CONTINUOUS
 70
    64
  3
Ausgezogene Linie
 72
    65
 73
     0
 40
0.0
  0
LTYPE
  2
DASHED
 70
    64
  3
__ __ __ __ __ __ __ __ __ __ __ __ __ __ __
 72
    65
 73
     2
 40
0.75
 49
0.5
 49
-0.25
  0
LTYPE
  2
DASHDOT
 70
    64
  3
__ . __ . __ . __ . __ . __ . __ . __ . __ . __
 72
    65
 73
     4
 40
1.0
 49
0.5
 49
-0.25
 49
0.0
 49
-0.25
  0
LTYPE
  2
DIVIDE
 70
    64
  3
__ . . __ . . __ . . __ . . __ . . __ . . __
 72
    65
 73
     6
 40
1.25
 49
0.5
 49
-0.25
 49
0.0
 49
-0.25
 49
0.0
 49
-0.25
  0
ENDTAB
  0
TABLE
  2
LAYER
 70
     4
  0
LAYER
  2
LC-003-002-----0
 70
    64
 62
     7
  6
CONTINUOUS
  0
LAYER
  2
LC-004-006-----0
 70
    64
 62
     7
  6
CONTINUOUS
  0
LAYER
  2
LC-006-012-----0
 70
    64
 62
     7
  6
CONTINUOUS
  0
LAYER
  2
LC-008-003-----0
 70
    64
 62
     7
  6
CONTINUOUS
  0
ENDTAB
  0
TABLE
  2
STYLE
 70
     1
  0
STYLE
  2
TXT8
 70
    64
 40
0.0
 41
1.0
 50
0.0
 71
     0
 42
3.500000
  3
TXT8
  4

  0
ENDTAB
  0
ENDSEC
  0
SECTION
  2
BLOCKS
  0
ENDSEC
  0
SECTION
  2
ENTITIES
  0
LINE
  8
LC-003-002-----0
 62
     1
  6
CONTINUOUS
 10
776.682251
 20
374.572510
 11
776.682251
 21
442.043640
  0
LINE
  8
LC-003-002-----0
 62
     1
  6
CONTINUOUS
 10
776.682251
 20
374.572510
 11
811.682251
 21
374.572510
  0
LINE
  8
LC-003-002-----0
 62
     1
  6
CONTINUOUS
 10
811.682251
 20
374.572510
 11
811.682251
 21
442.043640
  0
LINE
  8
LC-004-006-----0
 62
     2
  6
DASHDOT
 10
763.719238
 20
479.572510
 11
824.120178
 21
479.572510
  0
LINE
  8
LC-004-006-----0
 62
     2
  6
DASHDOT
 10
794.182251
 20
368.765137
 11
794.182251
 21
510.522400
  0
CIRCLE
  8
LC-008-003-----0
 62
     2
  6
DIVIDE
 10
794.182251
 20
479.572510
 40
25.000000
  0
LINE
  8
LC-003-002-----0
 62
     1
  6
CONTINUOUS
 10
804.747742
 20
456.914795
 11
811.682251
 21
442.043640
  0
LINE
  8
LC-003-002-----0
 62
     1
  6
CONTINUOUS
 10
783.616821
 20
456.914795
 11
776.682251
 21
442.043640
  0
LINE
  8
LC-003-002-----0
 62
     1
  6
CONTINUOUS
 10
783.616821
 20
456.914795
 11
794.182251
 21
453.583557
  0
LINE
  8
LC-003-002-----0
 62
     1
  6
CONTINUOUS
 10
804.747742
 20
456.914795
 11
794.182251
 21
453.583557
  0
LINE
  8
LC-006-012-----0
 62
     2
  6
DASHED
 10
782.682251
 20
374.572510
 11
782.682251
 21
395.572510
  0
LINE
  8
LC-006-012-----0
 62
     2
  6
DASHED
 10
805.682251
 20
374.572510
 11
805.682251
 21
395.572510
  0
LINE
  8
LC-006-012-----0
 62
     2
  6
DASHED
 10
782.682251
 20
395.572510
 11
805.682251
 21
395.572510
  0
LINE
  8
LC-006-012-----0
 62
     2
  6
DASHED
 10
786.432251
 20
395.572510
 11
786.432251
 21
456.027100
  0
LINE
  8
LC-006-012-----0
 62
     2
  6
DASHED
 10
801.932251
 20
395.572510
 11
801.932251
 21
455.804077
  0
LINE
  8
LC-004-006-----0
 62
     2
  6
DASHDOT
 10
771.010071
 20
389.572510
 11
816.265686
 21
389.572510
  0
LINE
  8
LC-006-012-----0
 62
     2
  6
DASHED
 10
776.682251
 20
401.072510
 11
797.682251
 21
401.072510
  0
LINE
  8
LC-006-012-----0
 62
     2
  6
DASHED
 10
776.682251
 20
378.072510
 11
797.682251
 21
378.072510
  0
LINE
  8
LC-006-012-----0
 62
     2
  6
DASHED
 10
797.682251
 20
401.072510
 11
797.682251
 21
378.072510
  0
LINE
  8
LC-006-012-----0
 62
     2
  6
DASHED
 10
776.682251
 20
431.072510
 11
797.682251
 21
431.072510
  0
LINE
  8
LC-006-012-----0
 62
     2
  6
DASHED
 10
797.682251
 20
397.322510
 11
811.682251
 21
397.322510
  0
LINE
  8
LC-006-012-----0
 62
     2
  6
DASHED
 10
797.682251
 20
381.822510
 11
811.682251
 21
381.822510
  0
LINE
  8
LC-006-012-----0
 62
     2
  6
DASHED
 10
797.682251
 20
431.072510
 11
797.682251
 21
408.072510
  0
LINE
  8
LC-006-012-----0
 62
     2
  6
DASHED
 10
797.682251
 20
427.322510
 11
811.682251
 21
427.322510
  0
LINE
  8
LC-004-006-----0
 62
     2
  6
DASHDOT
 10
771.010071
 20
419.572510
 11
816.265686
 21
419.572510
  0
LINE
  8
LC-006-012-----0
 62
     2
  6
DASHED
 10
797.682251
 20
411.822510
 11
811.682251
 21
411.822510
  0
LINE
  8
LC-006-012-----0
 62
     2
  6
DASHED
 10
776.682251
 20
408.072510
 11
797.682251
 21
408.072510
  0
LINE
  8
LC-003-002-----0
 62
     1
  6
CONTINUOUS
 10
862.241150
 20
374.572510
 11
862.241150
 21
456.914795
  0
LINE
  8
LC-003-002-----0
 62
     1
  6
CONTINUOUS
 10
862.241150
 20
374.572510
 11
1062.241211
 21
374.572510
  0
LINE
  8
LC-003-002-----0
 62
     1
  6
CONTINUOUS
 10
862.241150
 20
456.914795
 11
1062.241211
 21
456.914795
  0
LINE
  8
LC-006-012-----0
 62
     2
  6
DASHED
 10
862.241150
 20
453.583557
 11
904.491150
 21
453.583557
  0
LINE
  8
LC-004-006-----0
 62
     2
  6
DASHDOT
 10
912.241150
 20
368.765137
 11
912.241150
 21
465.265198
  0
LINE
  8
LC-006-012-----0
 62
     2
  6
DASHED
 10
919.991150
 20
395.572510
 11
919.991150
 21
456.914795
  0
LINE
  8
LC-006-012-----0
 62
     2
  6
DASHED
 10
904.491150
 20
395.572510
 11
904.491150
 21
456.914795
  0
LINE
  8
LC-006-012-----0
 62
     2
  6
DASHED
 10
900.741150
 20
395.572510
 11
923.741150
 21
395.572510
  0
LINE
  8
LC-006-012-----0
 62
     2
  6
DASHED
 10
900.741150
 20
374.572510
 11
900.741150
 21
395.572510
  0
LINE
  8
LC-006-012-----0
 62
     2
  6
DASHED
 10
923.741150
 20
374.572510
 11
923.741150
 21
395.572510
  0
LINE
  8
LC-004-006-----0
 62
     2
  6
DASHDOT
 10
1012.241150
 20
368.765137
 11
1012.241150
 21
465.265198
  0
LINE
  8
LC-006-012-----0
 62
     2
  6
DASHED
 10
1019.991150
 20
395.572510
 11
1019.991150
 21
456.914795
  0
LINE
  8
LC-006-012-----0
 62
     2
  6
DASHED
 10
1004.491150
 20
395.572510
 11
1004.491150
 21
456.914795
  0
LINE
  8
LC-006-012-----0
 62
     2
  6
DASHED
 10
1000.741150
 20
395.572510
 11
1023.741150
 21
395.572510
  0
LINE
  8
LC-006-012-----0
 62
     2
  6
DASHED
 10
1000.741150
 20
374.572510
 11
1000.741150
 21
395.572510
  0
LINE
  8
LC-006-012-----0
 62
     2
  6
DASHED
 10
1023.741150
 20
374.572510
 11
1023.741150
 21
395.572510
  0
LINE
  8
LC-004-006-----0
 62
     2
  6
DASHDOT
 10
871.700317
 20
389.572510
 11
902.803223
 21
389.572510
  0
LINE
  8
LC-004-006-----0
 62
     2
  6
DASHDOT
 10
887.241150
 20
372.852417
 11
887.241150
 21
404.799866
  0
LINE
  8
LC-004-006-----0
 62
     2
  6
DASHDOT
 10
922.415771
 20
419.572510
 11
953.243164
 21
419.572510
  0
LINE
  8
LC-004-006-----0
 62
     2
  6
DASHDOT
 10
937.241150
 20
403.804504
 11
937.241150
 21
435.129822
  0
CIRCLE
  8
LC-003-002-----0
 62
     1
  6
CONTINUOUS
 10
887.241150
 20
389.572510
 40
7.750000
  0
CIRCLE
  8
LC-003-002-----0
 62
     1
  6
CONTINUOUS
 10
887.241150
 20
389.572510
 40
11.500000
  0
CIRCLE
  8
LC-003-002-----0
 62
     1
  6
CONTINUOUS
 10
937.241150
 20
419.572510
 40
7.750000
  0
CIRCLE
  8
LC-003-002-----0
 62
     1
  6
CONTINUOUS
 10
937.241150
 20
419.572510
 40
11.500000
  0
LINE
  8
LC-004-006-----0
 62
     2
  6
DASHDOT
 10
1022.415771
 20
419.572510
 11
1053.243164
 21
419.572510
  0
LINE
  8
LC-004-006-----0
 62
     2
  6
DASHDOT
 10
1037.241211
 20
403.804504
 11
1037.241211
 21
435.129822
  0
CIRCLE
  8
LC-003-002-----0
 62
     1
  6
CONTINUOUS
 10
1037.241211
 20
419.572510
 40
7.750000
  0
CIRCLE
  8
LC-003-002-----0
 62
     1
  6
CONTINUOUS
 10
1037.241211
 20
419.572510
 40
11.500000
  0
LINE
  8
LC-004-006-----0
 62
     2
  6
DASHDOT
 10
971.700317
 20
389.572510
 11
1002.803223
 21
389.572510
  0
LINE
  8
LC-004-006-----0
 62
     2
  6
DASHDOT
 10
987.241150
 20
372.852417
 11
987.241150
 21
404.799866
  0
CIRCLE
  8
LC-003-002-----0
 62
     1
  6
CONTINUOUS
 10
987.241150
 20
389.572510
 40
7.750000
  0
CIRCLE
  8
LC-003-002-----0
 62
     1
  6
CONTINUOUS
 10
987.241150
 20
389.572510
 40
11.500000
  0
LINE
  8
LC-006-012-----0
 62
     2
  6
DASHED
 10
919.991150
 20
453.583557
 11
1004.491150
 21
453.583557
  0
LINE
  8
LC-006-012-----0
 62
     2
  6
DASHED
 10
1019.991150
 20
453.583557
 11
1062.241211
 21
453.583557
  0
LINE
  8
LC-003-002-----0
 62
     1
  6
CONTINUOUS
 10
1062.241211
 20
374.572510
 11
1062.241211
 21
456.914795
  0
ENDSEC
  0
EOF
