  0
SECTION
  2
HEADER
  9
$LIMMIN
 10
101.549011
 20
452.687195
  9
$LIMMAX
 10
280.460144
 20
519.263550
  9
$EXTMIN
 10
101.549011
 20
452.687195
  9
$EXTMAX
 10
280.460144
 20
519.263550
  0
ENDSEC
  0
SECTION
  2
TABLES
  0
TABLE
  2
LTYPE
 70
     4
  0
LTYPE
  2
CONTINUOUS
 70
    64
  3
Ausgezogene Linie
 72
    65
 73
     0
 40
0.0
  0
LTYPE
  2
DASHED
 70
    64
  3
__ __ __ __ __ __ __ __ __ __ __ __ __ __ __
 72
    65
 73
     2
 40
0.75
 49
0.5
 49
-0.25
  0
LTYPE
  2
DASHDOT
 70
    64
  3
__ . __ . __ . __ . __ . __ . __ . __ . __ . __
 72
    65
 73
     4
 40
1.0
 49
0.5
 49
-0.25
 49
0.0
 49
-0.25
  0
LTYPE
  2
DIVIDE
 70
    64
  3
__ . . __ . . __ . . __ . . __ . . __ . . __
 72
    65
 73
     6
 40
1.25
 49
0.5
 49
-0.25
 49
0.0
 49
-0.25
 49
0.0
 49
-0.25
  0
ENDTAB
  0
TABLE
  2
LAYER
 70
     4
  0
LAYER
  2
LC-003-002-----0
 70
    64
 62
     7
  6
CONTINUOUS
  0
LAYER
  2
LC-004-006-----0
 70
    64
 62
     7
  6
CONTINUOUS
  0
LAYER
  2
LC-006-012-----0
 70
    64
 62
     7
  6
CONTINUOUS
  0
LAYER
  2
LC-008-003-----0
 70
    64
 62
     7
  6
CONTINUOUS
  0
ENDTAB
  0
TABLE
  2
STYLE
 70
     1
  0
STYLE
  2
TXT8
 70
    64
 40
0.0
 41
1.0
 50
0.0
 71
     0
 42
3.500000
  3
TXT8
  4

  0
ENDTAB
  0
ENDSEC
  0
SECTION
  2
BLOCKS
  0
ENDSEC
  0
SECTION
  2
ENTITIES
  0
LINE
  8
LC-003-002-----0
 62
     1
  6
CONTINUOUS
 10
105.901245
 20
455.353760
 11
120.901245
 21
455.353760
  0
LINE
  8
LC-003-002-----0
 62
     1
  6
CONTINUOUS
 10
120.901245
 20
455.353760
 11
120.901245
 21
491.269958
  0
LINE
  8
LC-003-002-----0
 62
     1
  6
CONTINUOUS
 10
105.901245
 20
455.353760
 11
105.901245
 21
491.269958
  0
LINE
  8
LC-004-006-----0
 62
     2
  6
DASHDOT
 10
101.549011
 20
507.353760
 11
125.027283
 21
507.353760
  0
LINE
  8
LC-004-006-----0
 62
     2
  6
DASHDOT
 10
103.028748
 20
470.353760
 11
123.251312
 21
470.353760
  0
CIRCLE
  8
LC-008-003-----0
 62
     2
  6
DIVIDE
 10
113.401245
 20
507.353760
 40
10.000000
  0
LINE
  8
LC-003-002-----0
 62
     1
  6
CONTINUOUS
 10
109.175079
 20
498.290680
 11
105.901245
 21
491.269958
  0
LINE
  8
LC-003-002-----0
 62
     1
  6
CONTINUOUS
 10
117.627441
 20
498.290680
 11
120.901245
 21
491.269958
  0
LINE
  8
LC-003-002-----0
 62
     1
  6
CONTINUOUS
 10
109.175079
 20
498.290680
 11
113.401245
 21
496.958160
  0
LINE
  8
LC-003-002-----0
 62
     1
  6
CONTINUOUS
 10
117.627441
 20
498.290680
 11
113.401245
 21
496.958160
  0
LINE
  8
LC-004-006-----0
 62
     2
  6
DASHDOT
 10
113.401245
 20
519.263550
 11
113.401245
 21
452.687225
  0
LINE
  8
LC-006-012-----0
 62
     2
  6
DASHED
 10
107.901245
 20
463.853760
 11
107.901245
 21
455.353760
  0
LINE
  8
LC-006-012-----0
 62
     2
  6
DASHED
 10
118.901245
 20
463.853760
 11
118.901245
 21
455.353760
  0
LINE
  8
LC-006-012-----0
 62
     2
  6
DASHED
 10
107.901245
 20
463.853760
 11
118.901245
 21
463.853760
  0
LINE
  8
LC-006-012-----0
 62
     2
  6
DASHED
 10
109.901245
 20
497.986237
 11
109.901245
 21
463.853760
  0
LINE
  8
LC-006-012-----0
 62
     2
  6
DASHED
 10
116.901245
 20
498.061707
 11
116.901245
 21
463.853760
  0
LINE
  8
LC-006-012-----0
 62
     2
  6
DASHED
 10
114.401245
 20
475.853760
 11
105.901245
 21
475.853760
  0
LINE
  8
LC-006-012-----0
 62
     2
  6
DASHED
 10
114.401245
 20
464.853760
 11
105.901245
 21
464.853760
  0
LINE
  8
LC-006-012-----0
 62
     2
  6
DASHED
 10
114.401245
 20
475.853760
 11
114.401245
 21
464.853760
  0
LINE
  8
LC-006-012-----0
 62
     2
  6
DASHED
 10
120.901245
 20
473.853760
 11
114.401245
 21
473.853760
  0
LINE
  8
LC-006-012-----0
 62
     2
  6
DASHED
 10
120.901245
 20
466.853760
 11
114.401245
 21
466.853760
  0
LINE
  8
LC-006-012-----0
 62
     2
  6
DASHED
 10
233.960144
 20
496.958160
 11
280.460144
 21
496.958160
  0
LINE
  8
LC-003-002-----0
 62
     1
  6
CONTINUOUS
 10
180.460144
 20
455.353760
 11
280.460144
 21
455.353760
  0
LINE
  8
LC-003-002-----0
 62
     1
  6
CONTINUOUS
 10
180.460144
 20
498.290680
 11
280.460144
 21
498.290680
  0
LINE
  8
LC-003-002-----0
 62
     1
  6
CONTINUOUS
 10
180.460144
 20
455.353760
 11
180.460144
 21
498.290680
  0
LINE
  8
LC-006-012-----0
 62
     2
  6
DASHED
 10
235.960144
 20
463.853760
 11
235.960144
 21
455.353760
  0
LINE
  8
LC-006-012-----0
 62
     2
  6
DASHED
 10
224.960144
 20
463.853760
 11
224.960144
 21
455.353760
  0
LINE
  8
LC-006-012-----0
 62
     2
  6
DASHED
 10
224.960144
 20
463.853760
 11
235.960144
 21
463.853760
  0
LINE
  8
LC-006-012-----0
 62
     2
  6
DASHED
 10
226.960144
 20
498.290680
 11
226.960144
 21
463.853760
  0
LINE
  8
LC-006-012-----0
 62
     2
  6
DASHED
 10
233.960144
 20
498.290680
 11
233.960144
 21
463.853760
  0
LINE
  8
LC-004-006-----0
 62
     2
  6
DASHDOT
 10
230.460144
 20
502.538727
 11
230.460144
 21
452.687195
  0
LINE
  8
LC-004-006-----0
 62
     2
  6
DASHDOT
 10
198.135437
 20
470.353760
 11
213.293671
 21
470.353760
  0
LINE
  8
LC-004-006-----0
 62
     2
  6
DASHDOT
 10
205.460144
 20
463.786316
 11
205.460144
 21
478.423615
  0
CIRCLE
  8
LC-003-002-----0
 62
     1
  6
CONTINUOUS
 10
205.460144
 20
470.353760
 40
5.500000
  0
CIRCLE
  8
LC-003-002-----0
 62
     1
  6
CONTINUOUS
 10
205.460144
 20
470.353760
 40
3.500000
  0
LINE
  8
LC-004-006-----0
 62
     2
  6
DASHDOT
 10
248.135437
 20
470.353760
 11
263.293671
 21
470.353760
  0
LINE
  8
LC-004-006-----0
 62
     2
  6
DASHDOT
 10
255.460144
 20
463.786316
 11
255.460144
 21
478.423615
  0
CIRCLE
  8
LC-003-002-----0
 62
     1
  6
CONTINUOUS
 10
255.460144
 20
470.353760
 40
5.500000
  0
CIRCLE
  8
LC-003-002-----0
 62
     1
  6
CONTINUOUS
 10
255.460144
 20
470.353760
 40
3.500000
  0
LINE
  8
LC-006-012-----0
 62
     2
  6
DASHED
 10
180.460144
 20
496.958160
 11
226.960144
 21
496.958160
  0
LINE
  8
LC-003-002-----0
 62
     1
  6
CONTINUOUS
 10
180.460144
 20
491.269958
 11
280.460144
 21
491.269958
  0
LINE
  8
LC-003-002-----0
 62
     1
  6
CONTINUOUS
 10
280.460144
 20
455.353760
 11
280.460144
 21
498.290680
  0
ENDSEC
  0
EOF
