  0
SECTION
  2
HEADER
  9
$LIMMIN
 10
241.079285
 20
440.097748
  9
$LIMMAX
 10
445.460144
 20
520.591736
  9
$EXTMIN
 10
241.079285
 20
440.097748
  9
$EXTMAX
 10
445.460144
 20
520.591736
  0
ENDSEC
  0
SECTION
  2
TABLES
  0
TABLE
  2
LTYPE
 70
     4
  0
LTYPE
  2
CONTINUOUS
 70
    64
  3
Ausgezogene Linie
 72
    65
 73
     0
 40
0.0
  0
LTYPE
  2
DASHED
 70
    64
  3
__ __ __ __ __ __ __ __ __ __ __ __ __ __ __
 72
    65
 73
     2
 40
0.75
 49
0.5
 49
-0.25
  0
LTYPE
  2
DASHDOT
 70
    64
  3
__ . __ . __ . __ . __ . __ . __ . __ . __ . __
 72
    65
 73
     4
 40
1.0
 49
0.5
 49
-0.25
 49
0.0
 49
-0.25
  0
LTYPE
  2
DIVIDE
 70
    64
  3
__ . . __ . . __ . . __ . . __ . . __ . . __
 72
    65
 73
     6
 40
1.25
 49
0.5
 49
-0.25
 49
0.0
 49
-0.25
 49
0.0
 49
-0.25
  0
ENDTAB
  0
TABLE
  2
LAYER
 70
     4
  0
LAYER
  2
LC-003-002-----0
 70
    64
 62
     7
  6
CONTINUOUS
  0
LAYER
  2
LC-004-006-----0
 70
    64
 62
     7
  6
CONTINUOUS
  0
LAYER
  2
LC-006-012-----0
 70
    64
 62
     7
  6
CONTINUOUS
  0
LAYER
  2
LC-008-003-----0
 70
    64
 62
     7
  6
CONTINUOUS
  0
ENDTAB
  0
TABLE
  2
STYLE
 70
     1
  0
STYLE
  2
TXT8
 70
    64
 40
0.0
 41
1.0
 50
0.0
 71
     0
 42
3.500000
  3
TXT8
  4

  0
ENDTAB
  0
ENDSEC
  0
SECTION
  2
BLOCKS
  0
ENDSEC
  0
SECTION
  2
ENTITIES
  0
LINE
  8
LC-004-006-----0
 62
     2
  6
DASHDOT
 10
415.460144
 20
453.011292
 11
415.460144
 21
471.752838
  0
CIRCLE
  8
LC-003-002-----0
 62
     1
  6
CONTINUOUS
 10
415.460144
 20
461.942719
 40
7.500000
  0
LINE
  8
LC-004-006-----0
 62
     2
  6
DASHDOT
 10
405.472504
 20
461.942719
 11
425.420258
 21
461.942719
  0
CIRCLE
  8
LC-003-002-----0
 62
     1
  6
CONTINUOUS
 10
415.460144
 20
461.942719
 40
4.500000
  0
LINE
  8
LC-006-012-----0
 62
     2
  6
DASHED
 10
389.960144
 20
492.948212
 11
445.460144
 21
492.948212
  0
LINE
  8
LC-003-002-----0
 62
     1
  6
CONTINUOUS
 10
265.901245
 20
443.942719
 11
265.901245
 21
484.497650
  0
LINE
  8
LC-003-002-----0
 62
     1
  6
CONTINUOUS
 10
245.901245
 20
443.942719
 11
265.901245
 21
443.942719
  0
LINE
  8
LC-003-002-----0
 62
     1
  6
CONTINUOUS
 10
245.901245
 20
443.942719
 11
245.901245
 21
484.497650
  0
LINE
  8
LC-004-006-----0
 62
     2
  6
DASHDOT
 10
241.079285
 20
505.942719
 11
270.639191
 21
505.942719
  0
LINE
  8
LC-004-006-----0
 62
     2
  6
DASHDOT
 10
255.901245
 20
440.097778
 11
255.901245
 21
520.591736
  0
CIRCLE
  8
LC-008-003-----0
 62
     2
  6
DIVIDE
 10
255.901245
 20
505.942719
 40
12.500000
  0
LINE
  8
LC-003-002-----0
 62
     1
  6
CONTINUOUS
 10
250.618530
 20
494.613861
 11
245.901245
 21
484.497650
  0
LINE
  8
LC-003-002-----0
 62
     1
  6
CONTINUOUS
 10
261.183990
 20
494.613861
 11
265.901245
 21
484.497650
  0
LINE
  8
LC-003-002-----0
 62
     1
  6
CONTINUOUS
 10
250.618530
 20
494.613861
 11
255.901245
 21
492.948242
  0
LINE
  8
LC-003-002-----0
 62
     1
  6
CONTINUOUS
 10
261.183990
 20
494.613861
 11
255.901245
 21
492.948242
  0
LINE
  8
LC-006-012-----0
 62
     2
  6
DASHED
 10
248.401245
 20
443.942719
 11
248.401245
 21
457.942719
  0
LINE
  8
LC-006-012-----0
 62
     2
  6
DASHED
 10
263.401245
 20
443.942719
 11
263.401245
 21
457.942719
  0
LINE
  8
LC-006-012-----0
 62
     2
  6
DASHED
 10
248.401245
 20
457.942719
 11
263.401245
 21
457.942719
  0
LINE
  8
LC-006-012-----0
 62
     2
  6
DASHED
 10
251.401245
 20
457.942719
 11
251.401245
 21
494.280823
  0
LINE
  8
LC-006-012-----0
 62
     2
  6
DASHED
 10
260.401245
 20
457.942719
 11
260.401245
 21
494.280823
  0
LINE
  8
LC-004-006-----0
 62
     2
  6
DASHDOT
 10
241.868103
 20
461.942719
 11
269.347565
 21
461.942719
  0
LINE
  8
LC-006-012-----0
 62
     2
  6
DASHED
 10
245.901245
 20
469.442719
 11
256.901245
 21
469.442719
  0
LINE
  8
LC-006-012-----0
 62
     2
  6
DASHED
 10
245.901245
 20
454.442719
 11
256.901245
 21
454.442719
  0
LINE
  8
LC-006-012-----0
 62
     2
  6
DASHED
 10
256.901245
 20
454.442719
 11
256.901245
 21
469.442719
  0
LINE
  8
LC-006-012-----0
 62
     2
  6
DASHED
 10
256.901245
 20
466.442719
 11
265.901245
 21
466.442719
  0
LINE
  8
LC-006-012-----0
 62
     2
  6
DASHED
 10
256.901245
 20
457.442719
 11
265.901245
 21
457.442719
  0
LINE
  8
LC-003-002-----0
 62
     1
  6
CONTINUOUS
 10
325.460144
 20
443.942719
 11
445.460144
 21
443.942719
  0
LINE
  8
LC-003-002-----0
 62
     1
  6
CONTINUOUS
 10
325.460144
 20
443.942719
 11
325.460144
 21
494.613861
  0
LINE
  8
LC-003-002-----0
 62
     1
  6
CONTINUOUS
 10
325.460144
 20
494.613861
 11
445.460144
 21
494.613861
  0
LINE
  8
LC-004-006-----0
 62
     2
  6
DASHDOT
 10
385.460144
 20
440.097748
 11
385.460144
 21
499.991577
  0
LINE
  8
LC-006-012-----0
 62
     2
  6
DASHED
 10
380.960144
 20
457.942719
 11
380.960144
 21
494.613861
  0
LINE
  8
LC-006-012-----0
 62
     2
  6
DASHED
 10
389.960144
 20
457.942719
 11
389.960144
 21
494.613861
  0
LINE
  8
LC-006-012-----0
 62
     2
  6
DASHED
 10
377.960144
 20
457.942719
 11
392.960144
 21
457.942719
  0
LINE
  8
LC-006-012-----0
 62
     2
  6
DASHED
 10
377.960144
 20
443.942719
 11
377.960144
 21
457.942719
  0
LINE
  8
LC-006-012-----0
 62
     2
  6
DASHED
 10
392.960144
 20
443.942719
 11
392.960144
 21
457.942719
  0
LINE
  8
LC-003-002-----0
 62
     1
  6
CONTINUOUS
 10
325.460144
 20
484.497650
 11
445.460144
 21
484.497650
  0
LINE
  8
LC-006-012-----0
 62
     2
  6
DASHED
 10
325.460144
 20
492.948212
 11
380.960144
 21
492.948212
  0
LINE
  8
LC-004-006-----0
 62
     2
  6
DASHDOT
 10
355.460144
 20
453.011292
 11
355.460144
 21
471.752838
  0
CIRCLE
  8
LC-003-002-----0
 62
     1
  6
CONTINUOUS
 10
355.460144
 20
461.942719
 40
7.500000
  0
LINE
  8
LC-004-006-----0
 62
     2
  6
DASHDOT
 10
345.472504
 20
461.942719
 11
365.420258
 21
461.942719
  0
CIRCLE
  8
LC-003-002-----0
 62
     1
  6
CONTINUOUS
 10
355.460144
 20
461.942719
 40
4.500000
  0
LINE
  8
LC-003-002-----0
 62
     1
  6
CONTINUOUS
 10
445.460144
 20
443.942719
 11
445.460144
 21
494.613861
  0
ENDSEC
  0
EOF
