  0
SECTION
  2
HEADER
  9
$LIMMIN
 10
763.911438
 20
386.791382
  9
$LIMMAX
 10
1052.433350
 20
528.548645
  9
$EXTMIN
 10
763.911438
 20
386.791382
  9
$EXTMAX
 10
1052.433350
 20
528.548645
  0
ENDSEC
  0
SECTION
  2
TABLES
  0
TABLE
  2
LTYPE
 70
     4
  0
LTYPE
  2
CONTINUOUS
 70
    64
  3
Ausgezogene Linie
 72
    65
 73
     0
 40
0.0
  0
LTYPE
  2
DASHED
 70
    64
  3
__ __ __ __ __ __ __ __ __ __ __ __ __ __ __
 72
    65
 73
     2
 40
0.75
 49
0.5
 49
-0.25
  0
LTYPE
  2
DASHDOT
 70
    64
  3
__ . __ . __ . __ . __ . __ . __ . __ . __ . __
 72
    65
 73
     4
 40
1.0
 49
0.5
 49
-0.25
 49
0.0
 49
-0.25
  0
LTYPE
  2
DIVIDE
 70
    64
  3
__ . . __ . . __ . . __ . . __ . . __ . . __
 72
    65
 73
     6
 40
1.25
 49
0.5
 49
-0.25
 49
0.0
 49
-0.25
 49
0.0
 49
-0.25
  0
ENDTAB
  0
TABLE
  2
LAYER
 70
     4
  0
LAYER
  2
LC-003-002-----0
 70
    64
 62
     7
  6
CONTINUOUS
  0
LAYER
  2
LC-004-006-----0
 70
    64
 62
     7
  6
CONTINUOUS
  0
LAYER
  2
LC-006-012-----0
 70
    64
 62
     7
  6
CONTINUOUS
  0
LAYER
  2
LC-008-003-----0
 70
    64
 62
     7
  6
CONTINUOUS
  0
ENDTAB
  0
TABLE
  2
STYLE
 70
     1
  0
STYLE
  2
TXT8
 70
    64
 40
0.0
 41
1.0
 50
0.0
 71
     0
 42
3.500000
  3
TXT8
  4

  0
ENDTAB
  0
ENDSEC
  0
SECTION
  2
BLOCKS
  0
ENDSEC
  0
SECTION
  2
ENTITIES
  0
LINE
  8
LC-003-002-----0
 62
     1
  6
CONTINUOUS
 10
776.874512
 20
392.598755
 11
776.874512
 21
460.069885
  0
LINE
  8
LC-003-002-----0
 62
     1
  6
CONTINUOUS
 10
852.433411
 20
460.069885
 11
1052.433350
 21
460.069885
  0
LINE
  8
LC-004-006-----0
 62
     2
  6
DASHDOT
 10
986.892578
 20
422.598755
 11
1018.869141
 21
422.598755
  0
LINE
  8
LC-004-006-----0
 62
     2
  6
DASHDOT
 10
1002.433411
 20
405.878662
 11
1002.433411
 21
437.826111
  0
CIRCLE
  8
LC-003-002-----0
 62
     1
  6
CONTINUOUS
 10
1002.433411
 20
422.598755
 40
7.750000
  0
CIRCLE
  8
LC-003-002-----0
 62
     1
  6
CONTINUOUS
 10
1002.433411
 20
422.598755
 40
11.500000
  0
LINE
  8
LC-003-002-----0
 62
     1
  6
CONTINUOUS
 10
776.874512
 20
392.598755
 11
811.874512
 21
392.598755
  0
LINE
  8
LC-003-002-----0
 62
     1
  6
CONTINUOUS
 10
811.874512
 20
392.598755
 11
811.874512
 21
460.069885
  0
LINE
  8
LC-004-006-----0
 62
     2
  6
DASHDOT
 10
763.911438
 20
497.598755
 11
824.312439
 21
497.598755
  0
LINE
  8
LC-004-006-----0
 62
     2
  6
DASHDOT
 10
794.374512
 20
386.791382
 11
794.374512
 21
528.548645
  0
CIRCLE
  8
LC-008-003-----0
 62
     2
  6
DIVIDE
 10
794.374512
 20
497.598755
 40
25.000000
  0
LINE
  8
LC-003-002-----0
 62
     1
  6
CONTINUOUS
 10
804.940002
 20
474.941040
 11
811.874512
 21
460.069885
  0
LINE
  8
LC-003-002-----0
 62
     1
  6
CONTINUOUS
 10
783.809082
 20
474.941040
 11
776.874512
 21
460.069885
  0
LINE
  8
LC-003-002-----0
 62
     1
  6
CONTINUOUS
 10
783.809082
 20
474.941040
 11
794.374512
 21
471.609802
  0
LINE
  8
LC-003-002-----0
 62
     1
  6
CONTINUOUS
 10
804.940002
 20
474.941040
 11
794.374512
 21
471.609802
  0
LINE
  8
LC-006-012-----0
 62
     2
  6
DASHED
 10
782.874512
 20
392.598755
 11
782.874512
 21
413.598755
  0
LINE
  8
LC-006-012-----0
 62
     2
  6
DASHED
 10
805.874512
 20
392.598755
 11
805.874512
 21
413.598755
  0
LINE
  8
LC-006-012-----0
 62
     2
  6
DASHED
 10
782.874512
 20
413.598755
 11
805.874512
 21
413.598755
  0
LINE
  8
LC-006-012-----0
 62
     2
  6
DASHED
 10
786.624512
 20
413.598755
 11
786.624512
 21
474.053345
  0
LINE
  8
LC-006-012-----0
 62
     2
  6
DASHED
 10
802.124512
 20
413.598755
 11
802.124512
 21
473.830322
  0
LINE
  8
LC-004-006-----0
 62
     2
  6
DASHDOT
 10
771.202332
 20
422.598755
 11
816.457947
 21
422.598755
  0
LINE
  8
LC-006-012-----0
 62
     2
  6
DASHED
 10
776.874512
 20
434.098755
 11
797.874512
 21
434.098755
  0
LINE
  8
LC-006-012-----0
 62
     2
  6
DASHED
 10
776.874512
 20
411.098755
 11
797.874512
 21
411.098755
  0
LINE
  8
LC-006-012-----0
 62
     2
  6
DASHED
 10
797.874512
 20
434.098755
 11
797.874512
 21
411.098755
  0
LINE
  8
LC-006-012-----0
 62
     2
  6
DASHED
 10
797.874512
 20
430.348755
 11
811.874512
 21
430.348755
  0
LINE
  8
LC-006-012-----0
 62
     2
  6
DASHED
 10
797.874512
 20
414.848755
 11
811.874512
 21
414.848755
  0
LINE
  8
LC-003-002-----0
 62
     1
  6
CONTINUOUS
 10
852.433411
 20
392.598755
 11
852.433411
 21
474.941040
  0
LINE
  8
LC-003-002-----0
 62
     1
  6
CONTINUOUS
 10
852.433411
 20
392.598755
 11
1052.433350
 21
392.598755
  0
LINE
  8
LC-003-002-----0
 62
     1
  6
CONTINUOUS
 10
852.433411
 20
474.941040
 11
1052.433350
 21
474.941040
  0
LINE
  8
LC-006-012-----0
 62
     2
  6
DASHED
 10
852.433411
 20
471.609802
 11
944.683411
 21
471.609802
  0
LINE
  8
LC-004-006-----0
 62
     2
  6
DASHDOT
 10
952.433411
 20
386.791382
 11
952.433411
 21
483.291443
  0
LINE
  8
LC-006-012-----0
 62
     2
  6
DASHED
 10
960.183411
 20
413.598755
 11
960.183411
 21
474.941040
  0
LINE
  8
LC-006-012-----0
 62
     2
  6
DASHED
 10
944.683411
 20
413.598755
 11
944.683411
 21
474.941040
  0
LINE
  8
LC-006-012-----0
 62
     2
  6
DASHED
 10
940.933411
 20
413.598755
 11
963.933411
 21
413.598755
  0
LINE
  8
LC-006-012-----0
 62
     2
  6
DASHED
 10
940.933411
 20
392.598755
 11
940.933411
 21
413.598755
  0
LINE
  8
LC-006-012-----0
 62
     2
  6
DASHED
 10
963.933411
 20
392.598755
 11
963.933411
 21
413.598755
  0
LINE
  8
LC-004-006-----0
 62
     2
  6
DASHDOT
 10
886.892578
 20
422.598755
 11
918.869141
 21
422.598755
  0
LINE
  8
LC-004-006-----0
 62
     2
  6
DASHDOT
 10
902.433411
 20
405.878662
 11
902.433411
 21
437.826111
  0
CIRCLE
  8
LC-003-002-----0
 62
     1
  6
CONTINUOUS
 10
902.433411
 20
422.598755
 40
7.750000
  0
CIRCLE
  8
LC-003-002-----0
 62
     1
  6
CONTINUOUS
 10
902.433411
 20
422.598755
 40
11.500000
  0
LINE
  8
LC-006-012-----0
 62
     2
  6
DASHED
 10
960.183411
 20
471.609802
 11
1052.433350
 21
471.609802
  0
LINE
  8
LC-003-002-----0
 62
     1
  6
CONTINUOUS
 10
1052.433350
 20
392.598755
 11
1052.433350
 21
474.941040
  0
ENDSEC
  0
EOF
