  0
SECTION
  2
HEADER
  9
$ACADVER
  1
AC1009
  9
$INSBASE
 10
0.0
 20
0.0
 30
0.0
  9
$EXTMIN
 10
157.595172686637
 20
95.0
 30
0.0
  9
$EXTMAX
 10
183.626586346566
 20
110.0
 30
0.0
  9
$LIMMIN
 10
157.595172686637
 20
95.0
  9
$LIMMAX
 10
183.626586346566
 20
110.0
  9
$ORTHOMODE
 70
           0
  9
$REGENMODE
 70
           1
  9
$FILLMODE
 70
           1
  9
$QTEXTMODE
 70
           0
  9
$MIRRTEXT
 70
           1
  9
$DRAGMODE
 70
           2
  9
$LTSCALE
 40
5.0
  9
$OSMODE
 70
           0
  9
$ATTMODE
 70
           1
  9
$TEXTSIZE
 40
0.2
  9
$TRACEWID
 40
0.05
  9
$TEXTSTYLE
  7
TXT
  9
$CLAYER
  8
0
  9
$CELTYPE
  6
CONTINUOUS
  9
$CECOLOR
 62
         256
  9
$DIMSCALE
 40
1.0
  9
$DIMASZ
 40
3.5
  9
$DIMEXO
 40
0.0625
  9
$DIMDLI
 40
0.38
  9
$DIMRND
 40
0.0
  9
$DIMDLE
 40
0.0
  9
$DIMEXE
 40
0.18
  9
$DIMTP
 40
0.0
  9
$DIMTM
 40
0.0
  9
$DIMTXT
 40
3.5
  9
$DIMCEN
 40
0.09
  9
$DIMTSZ
 40
0.0
  9
$DIMTOL
 70
           0
  9
$DIMLIM
 70
           0
  9
$DIMTIH
 70
           1
  9
$DIMTOH
 70
           1
  9
$DIMSE1
 70
           0
  9
$DIMSE2
 70
           0
  9
$DIMTAD
 70
           0
  9
$DIMZIN
 70
           0
  9
$DIMBLK
  1

  9
$DIMASO
 70
           1
  9
$DIMSHO
 70
           1
  9
$DIMPOST
  1

  9
$DIMAPOST
  1

  9
$DIMALT
 70
           0
  9
$DIMALTD
 70
           2
  9
$DIMALTF
 40
25.4
  9
$DIMLFAC
 40
1.0
  9
$DIMTOFL
 70
           0
  9
$DIMTVP
 40
0.0
  9
$DIMTIX
 70
           0
  9
$DIMSOXD
 70
           0
  9
$DIMSAH
 70
           0
  9
$DIMBLK1
  1

  9
$DIMBLK2
  1

  9
$DIMSTYLE
  2
STANDARD
  9
$DIMCLRD
 70
           0
  9
$DIMCLRE
 70
           0
  9
$DIMCLRT
 70
           0
  9
$DIMTFAC
 40
1.0
  9
$DIMGAP
 40
0.09
  9
$LUNITS
 70
           2
  9
$LUPREC
 70
           2
  9
$AXISMODE
 70
           0
  9
$AXISUNIT
 10
0.0
 20
0.0
  9
$SKETCHINC
 40
0.1
  9
$FILLETRAD
 40
0.0
  9
$AUNITS
 70
           0
  9
$AUPREC
 70
           2
  9
$MENU
  1
acad
  9
$ELEVATION
 40
0.0
  9
$PELEVATION
 40
0.0
  9
$THICKNESS
 40
0.0
  9
$LIMCHECK
 70
           0
  9
$BLIPMODE
 70
           1
  9
$CHAMFERA
 40
0.0
  9
$CHAMFERB
 40
0.0
  9
$SKPOLY
 70
           0
  9
$TDCREATE
 40
0.000000000
  9
$TDUPDATE
 40
0.000000000
  9
$TDINDWG
 40
0.0000000000
  9
$TDUSRTIMER
 40
0.0000000000
  9
$USRTIMER
 70
           1
  9
$ANGBASE
 50
0.0
  9
$ANGDIR
 70
           0
  9
$PDMODE
 70
           2
  9
$PDSIZE
 40
0.5
  9
$PLINEWID
 40
0.0
  9
$COORDS
 70
           0
  9
$SPLFRAME
 70
           0
  9
$SPLINETYPE
 70
           6
  9
$SPLINESEGS
 70
           8
  9
$ATTDIA
 70
           0
  9
$ATTREQ
 70
           1
  9
$HANDLING
 70
           1
  9
$HANDSEED
  5
8F
  9
$SURFTAB1
 70
           6
  9
$SURFTAB2
 70
           6
  9
$SURFTYPE
 70
           6
  9
$SURFU
 70
           6
  9
$SURFV
 70
           6
  9
$UCSNAME
  2

  9
$UCSORG
 10
0.0
 20
0.0
 30
0.0
  9
$UCSXDIR
 10
1.0
 20
0.0
 30
0.0
  9
$UCSYDIR
 10
0.0
 20
1.0
 30
0.0
  9
$PUCSNAME
  2

  9
$PUCSORG
 10
0.0
 20
0.0
 30
0.0
  9
$PUCSXDIR
 10
1.0
 20
0.0
 30
0.0
  9
$PUCSYDIR
 10
0.0
 20
1.0
 30
0.0
  9
$USERI1
 70
           0
  9
$USERI2
 70
           0
  9
$USERI3
 70
           0
  9
$USERI4
 70
           0
  9
$USERI5
 70
           0
  9
$USERR1
 40
0.0
  9
$USERR2
 40
0.0
  9
$USERR3
 40
0.0
  9
$USERR4
 40
0.0
  9
$USERR5
 40
0.0
  9
$WORLDVIEW
 70
           1
  9
$SHADEDGE
 70
           3
  9
$SHADEDIF
 70
          70
  9
$TILEMODE
 70
           1
  9
$MAXACTVP
 70
          16
  9
$PINSBASE
 10
0.0
 20
0.0
 30
0.0
  9
$PLIMCHECK
 70
           0
  9
$PEXTMIN
 10
1.000000000000E+20
 20
1.000000000000E+20
 30
1.000000000000E+20
  9
$PEXTMAX
 10
-1.000000000000E+20
 20
-1.000000000000E+20
 30
-1.000000000000E+20
  9
$PLIMMIN
 10
0.0
 20
0.0
  9
$PLIMMAX
 10
12.0
 20
9.0
  9
$UNITMODE
 70
           0
  9
$VISRETAIN
 70
           0
  9
$PLINEGEN
 70
           1
  9
$PSLTSCALE
 70
           0
  9
$TREEDEPTH
 70
        3020
  9
$DWGCODEPAGE
  3
dos850
  0
ENDSEC
  0
SECTION
  2
TABLES
  0
TABLE
  2
VPORT
 70
           1
  0
VPORT
  2
*ACTIVE
 70
           0
 10
0.0
 20
0.0
 11
1.0
 21
1.0
 12
6.591288
 22
4.579184
 13
0.0
 23
0.0
 14
1.0
 24
1.0
 15
0.0
 25
0.0
 16
0.0
 26
0.0
 36
1.0
 17
0.0
 27
0.0
 37
0.0
 40
9.158369
 41
0.688564
 42
50.0
 43
0.0
 44
0.0
 50
0.0
 51
0.0
 71
           0
 72
         100
 73
           1
 74
           1
 75
           0
 76
           0
 77
           0
 78
           0
  0
ENDTAB
  0
TABLE
  2
LTYPE
 70
           4
  0
LTYPE
  2
CONTINUOUS
 70
          64
  3
Solid line
 72
          65
 73
           0
 40
0.0
  0
LTYPE
  2
AUSGEZOGEN
 70
           0
  3

 72
          65
 73
           2
 40
0.5
 49
0.25
 49
-0.25
  0
LTYPE
  2
VERDECKT
 70
           0
  3

 72
          65
 73
           2
 40
0.375
 49
0.25
 49
-0.125
  0
LTYPE
  2
STRICHPUNKT
 70
           0
  3

 72
          65
 73
           4
 40
1.0
 49
0.5
 49
-0.25
 49
0.0
 49
-0.25
  0
ENDTAB
  0
TABLE
  2
LAYER
 70
           5
  0
LAYER
  2
0
 70
           0
 62
           7
  6
CONTINUOUS
  0
LAYER
  2
ZEICHNUNG
 70
           0
 62
           7
  6
CONTINUOUS
  0
LAYER
  2
BEMAßUNG
 70
           0
 62
           7
  6
CONTINUOUS
  0
LAYER
  2
UNSICHTBARE
 70
           0
 62
           7
  6
CONTINUOUS
  0
LAYER
  2
MITTELLINIEN
 70
           0
 62
           7
  6
CONTINUOUS
  0
ENDTAB
  0
TABLE
  2
STYLE
 70
           1
  0
STYLE
  2
TXT
 70
           0
 40
3.5
 41
1.0
 50
0.0
 71
           0
 42
3.5
  3
TXT
  4

  0
ENDTAB
  0
TABLE
  2
VIEW
 70
           0
  0
ENDTAB
  0
TABLE
  2
UCS
 70
           0
  0
ENDTAB
  0
TABLE
  2
APPID
 70
           2
  0
APPID
  2
ACAD
 70
           0
  0
APPID
  2
MegaCADPntStyle
 70
           0
  0
ENDTAB
  0
TABLE
  2
DIMSTYLE
 70
           1
  0
DIMSTYLE
  2
STANDARD
 70
           0
  3

  4

  5

  6

  7

 40
1.0
 41
0.18
 42
0.0625
 43
0.38
 44
0.18
 45
0.0
 46
0.0
 47
0.0
 48
0.0
 71
           0
 72
           0
 73
           1
 74
           1
 75
           0
 76
           0
 77
           0
 78
           0
140
0.18
141
0.09
142
0.0
143
25.4
144
1.0
145
0.0
146
1.0
147
0.09
170
           0
171
           2
172
           0
173
           0
174
           0
175
           0
176
           0
177
           0
178
           0
  0
ENDTAB
  0
ENDSEC
  0
SECTION
  2
BLOCKS
  0
BLOCK
  8
0
  5
73
  2
ELIPPSE
 70
          64
 10
0.0
 20
0.0
 30
0.0
  3
ELIPPSE
  0
CIRCLE
  8
0
  6
BYBLOCK
 62
           0
  5
74
 10
0.0
 20
0.0
 30
0.0
 40
1.0
  0
ENDBLK
  8
0
  6
BYBLOCK
 62
           0
  5
75
  0
BLOCK
  8
0
  5
76
  2
*X1
 70
          65
 10
0.0
 20
0.0
 30
0.0
  3
*X1
  0
LINE
  8
0
  6
BYBLOCK
 62
           0
  5
77
 10
175.109826660156
 20
104.904458689717
 30
0.0
 11
174.18230660028
 21
105.831978749593
 31
0.0
  0
LINE
  8
0
  6
BYBLOCK
 62
           0
  5
78
 10
174.951818200766
 20
102.941146805547
 30
0.0
 11
173.110879516602
 21
104.782085489712
 31
0.0
  0
LINE
  8
0
  6
BYBLOCK
 62
           0
  5
79
 10
175.109826660156
 20
100.661818002597
 30
0.0
 11
173.110879516602
 21
102.660765146152
 31
0.0
  0
LINE
  8
0
  6
BYBLOCK
 62
           0
  5
7A
 10
175.109826660156
 20
98.540497659038
 30
0.0
 11
173.110879516602
 21
100.539444802592
 31
0.0
  0
LINE
  8
0
  6
BYBLOCK
 62
           0
  5
7B
 10
168.110879516602
 20
105.539444802592
 30
0.0
 11
167.818345569601
 21
105.831978749593
 31
0.0
  0
LINE
  8
0
  6
BYBLOCK
 62
           0
  5
7C
 10
174.197025226041
 20
97.331978749593
 30
0.0
 11
173.110879516602
 21
98.418124459033
 31
0.0
  0
LINE
  8
0
  6
BYBLOCK
 62
           0
  5
7D
 10
168.110879516602
 20
103.418124459033
 30
0.0
 11
166.111932373047
 21
105.417071602587
 31
0.0
  0
LINE
  8
0
  6
BYBLOCK
 62
           0
  5
7E
 10
168.110879516602
 20
101.296804115473
 30
0.0
 11
166.111932373047
 21
103.295751259028
 31
0.0
  0
LINE
  8
0
  6
BYBLOCK
 62
           0
  5
7F
 10
168.110879516602
 20
99.175483771913
 30
0.0
 11
166.163477395675
 21
101.12288589284
 31
0.0
  0
LINE
  8
0
  6
BYBLOCK
 62
           0
  5
80
 10
167.81835501657
 20
97.346687928386
 30
0.0
 11
166.349401170721
 21
98.815641774235
 31
0.0
  0
ENDBLK
  8
0
  6
BYBLOCK
 62
           0
  5
81
  0
BLOCK
  8
0
  5
82
  2
*X2
 70
          65
 10
0.0
 20
0.0
 30
0.0
  3
*X2
  0
LINE
  8
0
  6
BYBLOCK
 62
           0
  5
83
 10
177.94215180486
 20
97.331978749593
 30
0.0
 11
179.109826660156
 21
98.49965360489
 31
0.0
  0
LINE
  8
0
  6
BYBLOCK
 62
           0
  5
84
 10
176.609826660156
 20
98.120973948449
 30
0.0
 11
178.319240100896
 21
99.830387389189
 31
0.0
  0
LINE
  8
0
  6
BYBLOCK
 62
           0
  5
85
 10
176.787455322923
 20
100.419922954776
 30
0.0
 11
178.438381722256
 21
102.070849354109
 31
0.0
  0
LINE
  8
0
  6
BYBLOCK
 62
           0
  5
86
 10
176.946336355726
 20
102.700124331138
 30
0.0
 11
178.578190774181
 21
104.331978749593
 31
0.0
  0
LINE
  8
0
  6
BYBLOCK
 62
           0
  5
87
 10
163.092909399942
 20
97.331978749593
 30
0.0
 11
164.468631512525
 21
98.707700862176
 31
0.0
  0
LINE
  8
0
  6
BYBLOCK
 62
           0
  5
88
 10
162.109826660156
 20
98.470216353367
 30
0.0
 11
164.611932373047
 21
100.972322066258
 31
0.0
  0
LINE
  8
0
  6
BYBLOCK
 62
           0
  5
89
 10
163.020428965377
 20
101.502139002147
 30
0.0
 11
164.407240453695
 21
102.888950490465
 31
0.0
  0
LINE
  8
0
  6
BYBLOCK
 62
           0
  5
8A
 10
164.555047412768
 20
103.036757449538
 30
0.0
 11
164.611932373047
 21
103.093642409817
 31
0.0
  0
LINE
  8
0
  6
BYBLOCK
 62
           0
  5
8B
 10
162.177802387326
 20
102.780832767656
 30
0.0
 11
163.728948369263
 21
104.331978749593
 31
0.0
  0
ENDBLK
  8
0
  6
BYBLOCK
 62
           0
  5
8C
  0
ENDSEC
  0
SECTION
  2
ENTITIES
  0
ARC
  8
ZEICHNUNG
  6
AUSGEZOGEN
 62
           1
  5
28
 10
180.609832763672
 20
100.831978749593
 30
0.0
 40
2.5
 50
126.870072498887
 51
233.129927501112
  0
LINE
  8
BEMAßUNG
  6
STRICHPUNKT
 62
           2
  5
29
 10
180.609859149269
 20
97.632650987007
 30
0.0
 11
180.609895385529
 21
104.191700974694
 31
0.0
  0
LINE
  8
BEMAßUNG
  6
STRICHPUNKT
 62
           2
  5
2A
 10
183.626586346566
 20
100.832019835078
 30
0.0
 11
177.693450360341
 21
100.832054742192
 31
0.0
  0
CIRCLE
  8
UNSICHTBARE
  6
VERDECKT
 62
           2
  5
2B
 10
180.609877972595
 20
100.832037583632
 30
0.0
 40
2.5
  0
LINE
  8
ZEICHNUNG
  6
AUSGEZOGEN
 62
           1
  5
2C
 10
179.109826660156
 20
102.831974171942
 30
0.0
 11
179.109826660156
 21
103.931978749593
 31
0.0
  0
LINE
  8
ZEICHNUNG
  6
AUSGEZOGEN
 62
           1
  5
2D
 10
179.109826660156
 20
97.731978749593
 30
0.0
 11
179.109826660156
 21
98.831983327244
 31
0.0
  0
LINE
  8
ZEICHNUNG
  6
AUSGEZOGEN
 62
           1
  5
2E
 10
162.109826660156
 20
102.833551735963
 30
0.0
 11
162.109826660156
 21
103.931978749593
 31
0.0
  0
LINE
  8
ZEICHNUNG
  6
AUSGEZOGEN
 62
           1
  5
2F
 10
162.109826660156
 20
97.731978749593
 30
0.0
 11
162.109826660156
 21
98.830405763223
 31
0.0
  0
LINE
  8
ZEICHNUNG
  6
AUSGEZOGEN
 62
           1
  5
30
 10
166.109826660156
 20
104.331978749593
 30
0.0
 11
162.509826660156
 21
104.331978749593
 31
0.0
  0
LINE
  8
ZEICHNUNG
  6
AUSGEZOGEN
 62
           1
  5
31
 10
178.709826660156
 20
104.331978749593
 30
0.0
 11
175.109826660156
 21
104.331978749593
 31
0.0
  0
LINE
  8
ZEICHNUNG
  6
AUSGEZOGEN
 62
           1
  5
32
 10
162.509826660156
 20
97.331978749593
 30
0.0
 11
178.709826660156
 21
97.331978749593
 31
0.0
  0
LINE
  8
ZEICHNUNG
  6
AUSGEZOGEN
 62
           1
  5
33
 10
175.109826660156
 20
103.082065530186
 30
0.0
 11
175.109826660156
 21
105.831978749593
 31
0.0
  0
LINE
  8
ZEICHNUNG
  6
AUSGEZOGEN
 62
           1
  5
34
 10
175.109826660156
 20
100.582065530143
 30
0.0
 11
175.109826660156
 21
101.082065530186
 31
0.0
  0
LINE
  8
ZEICHNUNG
  6
AUSGEZOGEN
 62
           1
  5
35
 10
175.109826660156
 20
97.331978749593
 30
0.0
 11
175.109826660156
 21
98.582065530143
 31
0.0
  0
LINE
  8
ZEICHNUNG
  6
AUSGEZOGEN
 62
           1
  5
36
 10
175.109826660156
 20
105.831978749593
 30
0.0
 11
166.109826660156
 21
105.831978749593
 31
0.0
  0
LINE
  8
BEMAßUNG
  6
STRICHPUNKT
 62
           2
  5
37
 10
170.610879516602
 20
110.0
 30
0.0
 11
170.610879516602
 21
95.0
 31
0.0
  0
ARC
  8
ZEICHNUNG
  6
AUSGEZOGEN
 62
           1
  5
38
 10
160.611926269531
 20
100.831978749593
 30
0.0
 40
2.5
 50
306.809771917692
 51
53.190228082307
  0
LINE
  8
ZEICHNUNG
  6
AUSGEZOGEN
 62
           1
  5
39
 10
173.110879516602
 20
105.831978749593
 30
0.0
 11
173.110879516602
 21
97.731978749593
 31
0.0
  0
LINE
  8
ZEICHNUNG
  6
AUSGEZOGEN
 62
           1
  5
3A
 10
168.110879516602
 20
105.831978749593
 30
0.0
 11
168.110879516602
 21
97.731978749593
 31
0.0
  0
CIRCLE
  8
ZEICHNUNG
  6
AUSGEZOGEN
 62
           1
  5
3B
 10
175.859826660156
 20
102.082065530186
 30
0.0
 40
1.25
  0
CIRCLE
  8
ZEICHNUNG
  6
AUSGEZOGEN
 62
           1
  5
3C
 10
175.859826660156
 20
99.582065530143
 30
0.0
 40
1.25
  0
LINE
  8
ZEICHNUNG
  6
AUSGEZOGEN
 62
           1
  5
3D
 10
176.609826660156
 20
103.082065530186
 30
0.0
 11
176.609826660156
 21
104.331978749593
 31
0.0
  0
LINE
  8
ZEICHNUNG
  6
AUSGEZOGEN
 62
           1
  5
3E
 10
176.609826660156
 20
100.582065530143
 30
0.0
 11
176.609826660156
 21
101.082065530186
 31
0.0
  0
LINE
  8
ZEICHNUNG
  6
AUSGEZOGEN
 62
           1
  5
3F
 10
176.609826660156
 20
97.331978749593
 30
0.0
 11
176.609826660156
 21
98.582065530143
 31
0.0
  0
LINE
  8
ZEICHNUNG
  6
AUSGEZOGEN
 62
           1
  5
40
 10
176.409826660156
 20
103.731978749593
 30
0.0
 11
175.309826660156
 21
103.731978749593
 31
0.0
  0
LINE
  8
ZEICHNUNG
  6
AUSGEZOGEN
 62
           1
  5
41
 10
175.309826660156
 20
103.204562746219
 30
0.0
 11
175.309826660156
 21
103.731978749593
 31
0.0
  0
LINE
  8
ZEICHNUNG
  6
AUSGEZOGEN
 62
           1
  5
42
 10
176.409826660156
 20
103.204562746219
 30
0.0
 11
176.409826660156
 21
103.731978749593
 31
0.0
  0
LINE
  8
MITTELLINIEN
  6
AUSGEZOGEN
 62
           2
  5
43
 10
176.609826660156
 20
104.131978749593
 30
0.0
 11
175.209826660156
 21
104.131978749593
 31
0.0
  0
LINE
  8
MITTELLINIEN
  6
AUSGEZOGEN
 62
           2
  5
44
 10
176.609826660156
 20
103.931978749593
 30
0.0
 11
175.209826660156
 21
103.931978749593
 31
0.0
  0
LINE
  8
MITTELLINIEN
  6
AUSGEZOGEN
 62
           2
  5
45
 10
175.209826660156
 20
103.931978749593
 30
0.0
 11
175.209826660156
 21
104.131978749593
 31
0.0
  0
LINE
  8
ZEICHNUNG
  6
AUSGEZOGEN
 62
           1
  5
46
 10
176.40979253732
 20
97.932145839178
 30
0.0
 11
175.309792537396
 21
97.932158782696
 31
0.0
  0
LINE
  8
ZEICHNUNG
  6
AUSGEZOGEN
 62
           1
  5
47
 10
175.309798743413
 20
98.459574786034
 30
0.0
 11
175.309792537396
 21
97.932158782696
 31
0.0
  0
LINE
  8
ZEICHNUNG
  6
AUSGEZOGEN
 62
           1
  5
48
 10
176.409798743337
 20
98.459561842516
 30
0.0
 11
176.40979253732
 21
97.932145839178
 31
0.0
  0
LINE
  8
MITTELLINIEN
  6
AUSGEZOGEN
 62
           2
  5
49
 10
176.609787830572
 20
97.532143485839
 30
0.0
 11
175.209787830669
 21
97.532159959407
 31
0.0
  0
LINE
  8
MITTELLINIEN
  6
AUSGEZOGEN
 62
           2
  5
4A
 10
176.609790183939
 20
97.732143485825
 30
0.0
 11
175.209790184036
 21
97.732159959393
 31
0.0
  0
LINE
  8
MITTELLINIEN
  6
AUSGEZOGEN
 62
           2
  5
4B
 10
175.209790184036
 20
97.732159959393
 30
0.0
 11
175.209787830669
 21
97.532159959407
 31
0.0
  0
LINE
  8
ZEICHNUNG
  6
AUSGEZOGEN
 62
           1
  5
4C
 10
164.811932373047
 20
103.731978749593
 30
0.0
 11
165.911932373047
 21
103.731978749593
 31
0.0
  0
LINE
  8
ZEICHNUNG
  6
AUSGEZOGEN
 62
           1
  5
4D
 10
165.911932373047
 20
103.204562746219
 30
0.0
 11
165.911932373047
 21
103.731978749593
 31
0.0
  0
LINE
  8
ZEICHNUNG
  6
AUSGEZOGEN
 62
           1
  5
4E
 10
164.811932373047
 20
103.204562746219
 30
0.0
 11
164.811932373047
 21
103.731978749593
 31
0.0
  0
LINE
  8
MITTELLINIEN
  6
AUSGEZOGEN
 62
           2
  5
4F
 10
164.611932373047
 20
104.131978749593
 30
0.0
 11
166.011932373047
 21
104.131978749593
 31
0.0
  0
LINE
  8
MITTELLINIEN
  6
AUSGEZOGEN
 62
           2
  5
50
 10
164.611932373047
 20
103.931978749593
 30
0.0
 11
166.011932373047
 21
103.931978749593
 31
0.0
  0
LINE
  8
MITTELLINIEN
  6
AUSGEZOGEN
 62
           2
  5
51
 10
166.011932373047
 20
103.931978749593
 30
0.0
 11
166.011932373047
 21
104.131978749593
 31
0.0
  0
LINE
  8
ZEICHNUNG
  6
AUSGEZOGEN
 62
           1
  5
52
 10
164.811966495883
 20
97.932145839178
 30
0.0
 11
165.911966495807
 21
97.932158782696
 31
0.0
  0
LINE
  8
ZEICHNUNG
  6
AUSGEZOGEN
 62
           1
  5
53
 10
165.91196028979
 20
98.459574786034
 30
0.0
 11
165.911966495807
 21
97.932158782696
 31
0.0
  0
LINE
  8
ZEICHNUNG
  6
AUSGEZOGEN
 62
           1
  5
54
 10
164.811960289866
 20
98.459561842516
 30
0.0
 11
164.811966495883
 21
97.932145839178
 31
0.0
  0
LINE
  8
MITTELLINIEN
  6
AUSGEZOGEN
 62
           2
  5
55
 10
164.611971202631
 20
97.532143485839
 30
0.0
 11
166.011971202534
 21
97.532159959407
 31
0.0
  0
LINE
  8
MITTELLINIEN
  6
AUSGEZOGEN
 62
           2
  5
56
 10
164.611968849264
 20
97.732143485825
 30
0.0
 11
166.011968849167
 21
97.732159959393
 31
0.0
  0
LINE
  8
MITTELLINIEN
  6
AUSGEZOGEN
 62
           2
  5
57
 10
166.011968849167
 20
97.732159959393
 30
0.0
 11
166.011971202534
 21
97.532159959407
 31
0.0
  0
LINE
  8
BEMAßUNG
  6
STRICHPUNKT
 62
           2
  5
58
 10
175.177534381224
 20
102.082065530186
 30
0.0
 11
176.542118939088
 21
102.082065530186
 31
0.0
  0
LINE
  8
BEMAßUNG
  6
STRICHPUNKT
 62
           2
  5
59
 10
175.859826660156
 20
101.399773251254
 30
0.0
 11
175.859826660156
 21
102.764357809119
 31
0.0
  0
LINE
  8
BEMAßUNG
  6
STRICHPUNKT
 62
           2
  5
5A
 10
175.177534381224
 20
99.582065530143
 30
0.0
 11
176.542118939088
 21
99.582065530143
 31
0.0
  0
LINE
  8
BEMAßUNG
  6
STRICHPUNKT
 62
           2
  5
5B
 10
175.859826660156
 20
98.899773251211
 30
0.0
 11
175.859826660156
 21
100.264357809075
 31
0.0
  0
LINE
  8
BEMAßUNG
  6
STRICHPUNKT
 62
           2
  5
5C
 10
160.611899883934
 20
97.632650987007
 30
0.0
 11
160.611863647674
 21
104.191700974694
 31
0.0
  0
LINE
  8
BEMAßUNG
  6
STRICHPUNKT
 62
           2
  5
5D
 10
157.595172686637
 20
100.832019835078
 30
0.0
 11
163.528308672863
 21
100.832054742192
 31
0.0
  0
LINE
  8
ZEICHNUNG
  6
AUSGEZOGEN
 62
           1
  5
5E
 10
166.111932373047
 20
103.082065530186
 30
0.0
 11
166.111932373047
 21
105.831978749593
 31
0.0
  0
LINE
  8
ZEICHNUNG
  6
AUSGEZOGEN
 62
           1
  5
5F
 10
166.111932373047
 20
100.582065530143
 30
0.0
 11
166.111932373047
 21
101.082065530186
 31
0.0
  0
LINE
  8
ZEICHNUNG
  6
AUSGEZOGEN
 62
           1
  5
60
 10
166.111932373047
 20
97.331978749593
 30
0.0
 11
166.111932373047
 21
98.582065530143
 31
0.0
  0
CIRCLE
  8
ZEICHNUNG
  6
AUSGEZOGEN
 62
           1
  5
61
 10
165.361932373047
 20
102.082065530186
 30
0.0
 40
1.25
  0
CIRCLE
  8
ZEICHNUNG
  6
AUSGEZOGEN
 62
           1
  5
62
 10
165.361932373047
 20
99.582065530143
 30
0.0
 40
1.25
  0
LINE
  8
ZEICHNUNG
  6
AUSGEZOGEN
 62
           1
  5
63
 10
164.611932373047
 20
103.082065530186
 30
0.0
 11
164.611932373047
 21
104.331978749593
 31
0.0
  0
LINE
  8
ZEICHNUNG
  6
AUSGEZOGEN
 62
           1
  5
64
 10
164.611932373047
 20
100.582065530143
 30
0.0
 11
164.611932373047
 21
101.082065530186
 31
0.0
  0
LINE
  8
ZEICHNUNG
  6
AUSGEZOGEN
 62
           1
  5
65
 10
164.611932373047
 20
97.331978749593
 30
0.0
 11
164.611932373047
 21
98.582065530143
 31
0.0
  0
LINE
  8
BEMAßUNG
  6
STRICHPUNKT
 62
           2
  5
66
 10
166.044224651979
 20
102.082065530186
 30
0.0
 11
164.679640094115
 21
102.082065530186
 31
0.0
  0
LINE
  8
BEMAßUNG
  6
STRICHPUNKT
 62
           2
  5
67
 10
165.361932373047
 20
101.399773251254
 30
0.0
 11
165.361932373047
 21
102.764357809119
 31
0.0
  0
LINE
  8
BEMAßUNG
  6
STRICHPUNKT
 62
           2
  5
68
 10
166.044224651979
 20
99.582065530143
 30
0.0
 11
164.679640094115
 21
99.582065530143
 31
0.0
  0
LINE
  8
BEMAßUNG
  6
STRICHPUNKT
 62
           2
  5
69
 10
165.361932373047
 20
98.899773251211
 30
0.0
 11
165.361932373047
 21
100.264357809075
 31
0.0
  0
ARC
  8
ZEICHNUNG
  6
AUSGEZOGEN
 62
           1
  5
6A
 10
162.509826660156
 20
103.931978749593
 30
0.0
 40
0.4
 50
90.0
 51
180.0
  0
ARC
  8
ZEICHNUNG
  6
AUSGEZOGEN
 62
           1
  5
6B
 10
162.509826660156
 20
97.731978749593
 30
0.0
 40
0.4
 50
180.0
 51
269.999999999999
  0
ARC
  8
ZEICHNUNG
  6
AUSGEZOGEN
 62
           1
  5
6C
 10
178.709826660156
 20
97.731978749593
 30
0.0
 40
0.4
 50
269.999999999999
 51
0.0
  0
ARC
  8
ZEICHNUNG
  6
AUSGEZOGEN
 62
           1
  5
6D
 10
178.709826660156
 20
103.931978749593
 30
0.0
 40
0.4
 50
0.0
 51
90.0
  0
ARC
  8
ZEICHNUNG
  6
AUSGEZOGEN
 62
           1
  5
6E
 10
167.710879516602
 20
97.731978749593
 30
0.0
 40
0.4
 50
269.999999999999
 51
0.0
  0
ARC
  8
ZEICHNUNG
  6
AUSGEZOGEN
 62
           1
  5
6F
 10
173.510879516602
 20
97.731978749593
 30
0.0
 40
0.4
 50
180.0
 51
269.999999999999
  0
INSERT
  8
MITTELLINIEN
  6
AUSGEZOGEN
 62
           2
  5
70
  2
*X1
 10
0.0
 20
0.0
 30
0.0
  0
INSERT
  8
MITTELLINIEN
  6
AUSGEZOGEN
 62
           2
  5
71
  2
*X2
 10
0.0
 20
0.0
 30
0.0
  0
CIRCLE
  8
UNSICHTBARE
  6
VERDECKT
 62
           2
  5
72
 10
160.611881060608
 20
100.832037583632
 30
0.0
 40
2.5
  0
ENDSEC
  0
EOF
