  0
SECTION
  2
HEADER
  9
$ACADVER
  1
AC1009
  9
$INSBASE
 10
0.0
 20
0.0
 30
0.0
  9
$EXTMIN
 10
273.726397705078
 20
330.0
 30
0.0
  9
$EXTMAX
 10
327.495361328125
 20
365.0
 30
0.0
  9
$LIMMIN
 10
273.726397705078
 20
330.0
  9
$LIMMAX
 10
327.495361328125
 20
365.0
  9
$ORTHOMODE
 70
           0
  9
$REGENMODE
 70
           1
  9
$FILLMODE
 70
           1
  9
$QTEXTMODE
 70
           0
  9
$MIRRTEXT
 70
           1
  9
$DRAGMODE
 70
           2
  9
$LTSCALE
 40
5.0
  9
$OSMODE
 70
           0
  9
$ATTMODE
 70
           1
  9
$TEXTSIZE
 40
0.2
  9
$TRACEWID
 40
0.05
  9
$TEXTSTYLE
  7
TXT
  9
$CLAYER
  8
0
  9
$CELTYPE
  6
CONTINUOUS
  9
$CECOLOR
 62
         256
  9
$DIMSCALE
 40
1.0
  9
$DIMASZ
 40
3.5
  9
$DIMEXO
 40
0.0625
  9
$DIMDLI
 40
0.38
  9
$DIMRND
 40
0.0
  9
$DIMDLE
 40
0.0
  9
$DIMEXE
 40
0.18
  9
$DIMTP
 40
0.0
  9
$DIMTM
 40
0.0
  9
$DIMTXT
 40
3.5
  9
$DIMCEN
 40
0.09
  9
$DIMTSZ
 40
0.0
  9
$DIMTOL
 70
           0
  9
$DIMLIM
 70
           0
  9
$DIMTIH
 70
           1
  9
$DIMTOH
 70
           1
  9
$DIMSE1
 70
           0
  9
$DIMSE2
 70
           0
  9
$DIMTAD
 70
           0
  9
$DIMZIN
 70
           0
  9
$DIMBLK
  1

  9
$DIMASO
 70
           1
  9
$DIMSHO
 70
           1
  9
$DIMPOST
  1

  9
$DIMAPOST
  1

  9
$DIMALT
 70
           0
  9
$DIMALTD
 70
           2
  9
$DIMALTF
 40
25.4
  9
$DIMLFAC
 40
1.0
  9
$DIMTOFL
 70
           0
  9
$DIMTVP
 40
0.0
  9
$DIMTIX
 70
           0
  9
$DIMSOXD
 70
           0
  9
$DIMSAH
 70
           0
  9
$DIMBLK1
  1

  9
$DIMBLK2
  1

  9
$DIMSTYLE
  2
STANDARD
  9
$DIMCLRD
 70
           0
  9
$DIMCLRE
 70
           0
  9
$DIMCLRT
 70
           0
  9
$DIMTFAC
 40
1.0
  9
$DIMGAP
 40
0.09
  9
$LUNITS
 70
           2
  9
$LUPREC
 70
           2
  9
$AXISMODE
 70
           0
  9
$AXISUNIT
 10
0.0
 20
0.0
  9
$SKETCHINC
 40
0.1
  9
$FILLETRAD
 40
0.0
  9
$AUNITS
 70
           0
  9
$AUPREC
 70
           2
  9
$MENU
  1
acad
  9
$ELEVATION
 40
0.0
  9
$PELEVATION
 40
0.0
  9
$THICKNESS
 40
0.0
  9
$LIMCHECK
 70
           0
  9
$BLIPMODE
 70
           1
  9
$CHAMFERA
 40
0.0
  9
$CHAMFERB
 40
0.0
  9
$SKPOLY
 70
           0
  9
$TDCREATE
 40
0.000000000
  9
$TDUPDATE
 40
0.000000000
  9
$TDINDWG
 40
0.0000000000
  9
$TDUSRTIMER
 40
0.0000000000
  9
$USRTIMER
 70
           1
  9
$ANGBASE
 50
0.0
  9
$ANGDIR
 70
           0
  9
$PDMODE
 70
           2
  9
$PDSIZE
 40
0.5
  9
$PLINEWID
 40
0.0
  9
$COORDS
 70
           0
  9
$SPLFRAME
 70
           0
  9
$SPLINETYPE
 70
           6
  9
$SPLINESEGS
 70
           8
  9
$ATTDIA
 70
           0
  9
$ATTREQ
 70
           1
  9
$HANDLING
 70
           1
  9
$HANDSEED
  5
96
  9
$SURFTAB1
 70
           6
  9
$SURFTAB2
 70
           6
  9
$SURFTYPE
 70
           6
  9
$SURFU
 70
           6
  9
$SURFV
 70
           6
  9
$UCSNAME
  2

  9
$UCSORG
 10
0.0
 20
0.0
 30
0.0
  9
$UCSXDIR
 10
1.0
 20
0.0
 30
0.0
  9
$UCSYDIR
 10
0.0
 20
1.0
 30
0.0
  9
$PUCSNAME
  2

  9
$PUCSORG
 10
0.0
 20
0.0
 30
0.0
  9
$PUCSXDIR
 10
1.0
 20
0.0
 30
0.0
  9
$PUCSYDIR
 10
0.0
 20
1.0
 30
0.0
  9
$USERI1
 70
           0
  9
$USERI2
 70
           0
  9
$USERI3
 70
           0
  9
$USERI4
 70
           0
  9
$USERI5
 70
           0
  9
$USERR1
 40
0.0
  9
$USERR2
 40
0.0
  9
$USERR3
 40
0.0
  9
$USERR4
 40
0.0
  9
$USERR5
 40
0.0
  9
$WORLDVIEW
 70
           1
  9
$SHADEDGE
 70
           3
  9
$SHADEDIF
 70
          70
  9
$TILEMODE
 70
           1
  9
$MAXACTVP
 70
          16
  9
$PINSBASE
 10
0.0
 20
0.0
 30
0.0
  9
$PLIMCHECK
 70
           0
  9
$PEXTMIN
 10
1.000000000000E+20
 20
1.000000000000E+20
 30
1.000000000000E+20
  9
$PEXTMAX
 10
-1.000000000000E+20
 20
-1.000000000000E+20
 30
-1.000000000000E+20
  9
$PLIMMIN
 10
0.0
 20
0.0
  9
$PLIMMAX
 10
12.0
 20
9.0
  9
$UNITMODE
 70
           0
  9
$VISRETAIN
 70
           0
  9
$PLINEGEN
 70
           1
  9
$PSLTSCALE
 70
           0
  9
$TREEDEPTH
 70
        3020
  9
$DWGCODEPAGE
  3
dos850
  0
ENDSEC
  0
SECTION
  2
TABLES
  0
TABLE
  2
VPORT
 70
           1
  0
VPORT
  2
*ACTIVE
 70
           0
 10
0.0
 20
0.0
 11
1.0
 21
1.0
 12
6.591288
 22
4.579184
 13
0.0
 23
0.0
 14
1.0
 24
1.0
 15
0.0
 25
0.0
 16
0.0
 26
0.0
 36
1.0
 17
0.0
 27
0.0
 37
0.0
 40
9.158369
 41
0.688564
 42
50.0
 43
0.0
 44
0.0
 50
0.0
 51
0.0
 71
           0
 72
         100
 73
           1
 74
           1
 75
           0
 76
           0
 77
           0
 78
           0
  0
ENDTAB
  0
TABLE
  2
LTYPE
 70
           4
  0
LTYPE
  2
CONTINUOUS
 70
          64
  3
Solid line
 72
          65
 73
           0
 40
0.0
  0
LTYPE
  2
AUSGEZOGEN
 70
           0
  3

 72
          65
 73
           2
 40
0.5
 49
0.25
 49
-0.25
  0
LTYPE
  2
VERDECKT
 70
           0
  3

 72
          65
 73
           2
 40
0.375
 49
0.25
 49
-0.125
  0
LTYPE
  2
STRICHPUNKT
 70
           0
  3

 72
          65
 73
           4
 40
1.0
 49
0.5
 49
-0.25
 49
0.0
 49
-0.25
  0
ENDTAB
  0
TABLE
  2
LAYER
 70
           5
  0
LAYER
  2
0
 70
           0
 62
           7
  6
CONTINUOUS
  0
LAYER
  2
ZEICHNUNG
 70
           0
 62
           7
  6
CONTINUOUS
  0
LAYER
  2
BEMAßUNG
 70
           0
 62
           7
  6
CONTINUOUS
  0
LAYER
  2
UNSICHTBARE
 70
           0
 62
           7
  6
CONTINUOUS
  0
LAYER
  2
MITTELLINIEN
 70
           0
 62
           7
  6
CONTINUOUS
  0
ENDTAB
  0
TABLE
  2
STYLE
 70
           1
  0
STYLE
  2
TXT
 70
           0
 40
3.5
 41
1.0
 50
0.0
 71
           0
 42
3.5
  3
TXT
  4

  0
ENDTAB
  0
TABLE
  2
VIEW
 70
           0
  0
ENDTAB
  0
TABLE
  2
UCS
 70
           0
  0
ENDTAB
  0
TABLE
  2
APPID
 70
           2
  0
APPID
  2
ACAD
 70
           0
  0
APPID
  2
MegaCADPntStyle
 70
           0
  0
ENDTAB
  0
TABLE
  2
DIMSTYLE
 70
           1
  0
DIMSTYLE
  2
STANDARD
 70
           0
  3

  4

  5

  6

  7

 40
1.0
 41
0.18
 42
0.0625
 43
0.38
 44
0.18
 45
0.0
 46
0.0
 47
0.0
 48
0.0
 71
           0
 72
           0
 73
           1
 74
           1
 75
           0
 76
           0
 77
           0
 78
           0
140
0.18
141
0.09
142
0.0
143
25.4
144
1.0
145
0.0
146
1.0
147
0.09
170
           0
171
           2
172
           0
173
           0
174
           0
175
           0
176
           0
177
           0
178
           0
  0
ENDTAB
  0
ENDSEC
  0
SECTION
  2
BLOCKS
  0
BLOCK
  8
0
  5
76
  2
ELIPPSE
 70
          64
 10
0.0
 20
0.0
 30
0.0
  3
ELIPPSE
  0
CIRCLE
  8
0
  6
BYBLOCK
 62
           0
  5
77
 10
0.0
 20
0.0
 30
0.0
 40
1.0
  0
ENDBLK
  8
0
  6
BYBLOCK
 62
           0
  5
78
  0
BLOCK
  8
0
  5
79
  2
*X1
 70
          65
 10
0.0
 20
0.0
 30
0.0
  3
*X1
  0
LINE
  8
0
  6
BYBLOCK
 62
           0
  5
7A
 10
310.610879516602
 20
355.483708361126
 30
0.0
 11
307.362611470001
 21
358.731976407726
 31
0.0
  0
LINE
  8
0
  6
BYBLOCK
 62
           0
  5
7B
 10
310.610879516602
 20
351.241067674007
 30
0.0
 11
305.860879516602
 21
355.991067674007
 31
0.0
  0
LINE
  8
0
  6
BYBLOCK
 62
           0
  5
7C
 10
309.640922125978
 20
347.968384377511
 30
0.0
 11
305.860879516602
 21
351.748426986888
 31
0.0
  0
LINE
  8
0
  6
BYBLOCK
 62
           0
  5
7D
 10
309.978961161106
 20
343.387704655264
 30
0.0
 11
305.860879516602
 21
347.505786299768
 31
0.0
  0
LINE
  8
0
  6
BYBLOCK
 62
           0
  5
7E
 10
295.360879516602
 20
358.005786299768
 30
0.0
 11
294.634689408644
 21
358.731976407726
 31
0.0
  0
LINE
  8
0
  6
BYBLOCK
 62
           0
  5
7F
 10
310.610879516602
 20
338.513145612649
 30
0.0
 11
305.860879516602
 21
343.263145612649
 31
0.0
  0
LINE
  8
0
  6
BYBLOCK
 62
           0
  5
80
 10
295.360879516602
 20
353.763145612649
 30
0.0
 11
290.610879516602
 21
358.513145612649
 31
0.0
  0
LINE
  8
0
  6
BYBLOCK
 62
           0
  5
81
 10
308.049408034405
 20
336.831976407726
 30
0.0
 11
305.860879516602
 21
339.02050492553
 31
0.0
  0
LINE
  8
0
  6
BYBLOCK
 62
           0
  5
82
 10
295.360879516602
 20
349.52050492553
 30
0.0
 11
290.610879516602
 21
354.27050492553
 31
0.0
  0
LINE
  8
0
  6
BYBLOCK
 62
           0
  5
83
 10
295.360879516602
 20
345.27786423841
 30
0.0
 11
290.610879516602
 21
350.027864238411
 31
0.0
  0
LINE
  8
0
  6
BYBLOCK
 62
           0
  5
84
 10
295.360879516602
 20
341.035223551291
 30
0.0
 11
290.724031651051
 21
345.672071416842
 31
0.0
  0
LINE
  8
0
  6
BYBLOCK
 62
           0
  5
85
 10
295.194187046755
 20
336.959275334019
 30
0.0
 11
291.292449276755
 21
340.861013104019
 31
0.0
  0
LINE
  8
0
  6
BYBLOCK
 62
           0
  5
86
 10
291.078845285928
 20
336.831976407726
 30
0.0
 11
290.610879516602
 21
337.299942177053
 31
0.0
  0
ENDBLK
  8
0
  6
BYBLOCK
 62
           0
  5
87
  0
BLOCK
  8
0
  5
88
  2
*X2
 70
          65
 10
0.0
 20
0.0
 30
0.0
  3
*X2
  0
LINE
  8
0
  6
BYBLOCK
 62
           0
  5
89
 10
315.61877297213
 20
336.831976407726
 30
0.0
 11
318.110879516602
 21
339.324082952198
 31
0.0
  0
LINE
  8
0
  6
BYBLOCK
 62
           0
  5
8A
 10
313.610879516602
 20
339.066723639317
 30
0.0
 11
316.91087769975
 21
342.366721822465
 31
0.0
  0
LINE
  8
0
  6
BYBLOCK
 62
           0
  5
8B
 10
314.009690022558
 20
343.708174832393
 30
0.0
 11
316.432594844514
 21
346.131079654348
 31
0.0
  0
LINE
  8
0
  6
BYBLOCK
 62
           0
  5
8C
 10
314.469539446224
 20
348.410664943179
 30
0.0
 11
318.07087254014
 21
352.011998037095
 31
0.0
  0
LINE
  8
0
  6
BYBLOCK
 62
           0
  5
8D
 10
313.610879516602
 20
351.794645700675
 30
0.0
 11
314.548207934835
 21
352.731974118908
 31
0.0
  0
LINE
  8
0
  6
BYBLOCK
 62
           0
  5
8E
 10
285.920288162295
 20
336.831976407726
 30
0.0
 11
287.610879516602
 21
338.522567762033
 31
0.0
  0
LINE
  8
0
  6
BYBLOCK
 62
           0
  5
8F
 10
283.110879516602
 20
338.265208449152
 30
0.0
 11
286.628805219107
 21
341.783134151658
 31
0.0
  0
LINE
  8
0
  6
BYBLOCK
 62
           0
  5
90
 10
284.935907014128
 20
344.332876633798
 30
0.0
 11
286.941869030771
 21
346.338838650441
 31
0.0
  0
LINE
  8
0
  6
BYBLOCK
 62
           0
  5
91
 10
284.05812572225
 20
347.697736029039
 30
0.0
 11
287.610879516602
 21
351.250489823391
 31
0.0
  0
LINE
  8
0
  6
BYBLOCK
 62
           0
  5
92
 10
283.110879516602
 20
350.99313051051
 30
0.0
 11
284.849723125
 21
352.731974118908
 31
0.0
  0
ENDBLK
  8
0
  6
BYBLOCK
 62
           0
  5
93
  0
ENDSEC
  0
SECTION
  2
ENTITIES
  0
CIRCLE
  8
UNSICHTBARE
  6
VERDECKT
 62
           2
  5
28
 10
321.260879516602
 20
344.831977223714
 30
0.0
 40
5.0
  0
LINE
  8
BEMAßUNG
  6
STRICHPUNKT
 62
           2
  5
29
 10
327.495361328125
 20
344.831977223714
 30
0.0
 11
315.010774286098
 21
344.831977223714
 31
0.0
  0
LINE
  8
BEMAßUNG
  6
STRICHPUNKT
 62
           2
  5
2A
 10
321.260879516602
 20
338.566615437825
 30
0.0
 11
321.260879516602
 21
351.216788625081
 31
0.0
  0
LINE
  8
BEMAßUNG
  6
STRICHPUNKT
 62
           2
  5
2B
 10
300.610879516602
 20
330.0
 30
0.0
 11
300.610879516602
 21
365.0
 31
0.0
  0
CIRCLE
  8
UNSICHTBARE
  6
VERDECKT
 62
           2
  5
2C
 10
279.960879516602
 20
344.831977223714
 30
0.0
 40
5.0
  0
LINE
  8
BEMAßUNG
  6
STRICHPUNKT
 62
           2
  5
2D
 10
273.726397705078
 20
344.831977223714
 30
0.0
 11
286.210984747105
 21
344.831977223714
 31
0.0
  0
LINE
  8
BEMAßUNG
  6
STRICHPUNKT
 62
           2
  5
2E
 10
279.960879516602
 20
338.566615437825
 30
0.0
 11
279.960879516602
 21
351.216788625081
 31
0.0
  0
ARC
  8
ZEICHNUNG
  6
AUSGEZOGEN
 62
           1
  5
2F
 10
279.960870361328
 20
344.831984650797
 30
0.0
 40
5.0
 50
309.050261942897
 51
50.949738057102
  0
LINE
  8
ZEICHNUNG
  6
AUSGEZOGEN
 62
           1
  5
30
 10
318.110879516602
 20
348.714952619025
 30
0.0
 11
318.110879516602
 21
351.731974118908
 31
0.0
  0
LINE
  8
ZEICHNUNG
  6
AUSGEZOGEN
 62
           1
  5
31
 10
318.110879516602
 20
337.831976407726
 30
0.0
 11
318.110879516602
 21
340.948991925666
 31
0.0
  0
LINE
  8
ZEICHNUNG
  6
AUSGEZOGEN
 62
           1
  5
32
 10
283.110879516602
 20
348.714949738687
 30
0.0
 11
283.110879516602
 21
351.731974118908
 31
0.0
  0
LINE
  8
ZEICHNUNG
  6
AUSGEZOGEN
 62
           1
  5
33
 10
283.110879516602
 20
337.831976407726
 30
0.0
 11
283.110879516602
 21
340.949019562906
 31
0.0
  0
LINE
  8
ZEICHNUNG
  6
AUSGEZOGEN
 62
           1
  5
34
 10
290.610879516602
 20
352.731974118908
 30
0.0
 11
284.110879516602
 21
352.731974118908
 31
0.0
  0
LINE
  8
ZEICHNUNG
  6
AUSGEZOGEN
 62
           1
  5
35
 10
300.760873413086
 20
352.731974118908
 30
0.0
 11
300.610879516602
 21
352.731974118908
 31
0.0
  0
LINE
  8
ZEICHNUNG
  6
AUSGEZOGEN
 62
           1
  5
36
 10
317.110879516602
 20
352.731974118908
 30
0.0
 11
310.610879516602
 21
352.731974118908
 31
0.0
  0
LINE
  8
ZEICHNUNG
  6
AUSGEZOGEN
 62
           1
  5
37
 10
284.110879516602
 20
336.831976407726
 30
0.0
 11
317.110879516602
 21
336.831976407726
 31
0.0
  0
ARC
  8
ZEICHNUNG
  6
AUSGEZOGEN
 62
           1
  5
38
 10
321.260873413086
 20
344.831972272346
 30
0.0
 40
5.0
 50
129.050031310328
 51
230.94996868967
  0
LINE
  8
ZEICHNUNG
  6
AUSGEZOGEN
 62
           1
  5
39
 10
305.860879516602
 20
337.331976407726
 30
0.0
 11
305.860879516602
 21
358.731976407726
 31
0.0
  0
LINE
  8
ZEICHNUNG
  6
AUSGEZOGEN
 62
           1
  5
3A
 10
295.360879516602
 20
337.331976407726
 30
0.0
 11
295.360879516602
 21
358.731976407726
 31
0.0
  0
LINE
  8
ZEICHNUNG
  6
AUSGEZOGEN
 62
           1
  5
3B
 10
310.610879516602
 20
349.581977223714
 30
0.0
 11
310.610879516602
 21
358.731976407726
 31
0.0
  0
LINE
  8
ZEICHNUNG
  6
AUSGEZOGEN
 62
           1
  5
3C
 10
310.610879516602
 20
344.081977223714
 30
0.0
 11
310.610879516602
 21
345.581977223714
 31
0.0
  0
LINE
  8
ZEICHNUNG
  6
AUSGEZOGEN
 62
           1
  5
3D
 10
313.610879516602
 20
349.581977223714
 30
0.0
 11
313.610879516602
 21
352.731974118908
 31
0.0
  0
LINE
  8
ZEICHNUNG
  6
AUSGEZOGEN
 62
           1
  5
3E
 10
313.610879516602
 20
344.081977223714
 30
0.0
 11
313.610879516602
 21
345.581977223714
 31
0.0
  0
LINE
  8
ZEICHNUNG
  6
AUSGEZOGEN
 62
           1
  5
3F
 10
313.210879516602
 20
349.826971655779
 30
0.0
 11
313.210879516602
 21
351.531974118908
 31
0.0
  0
LINE
  8
ZEICHNUNG
  6
AUSGEZOGEN
 62
           1
  5
40
 10
311.010879516602
 20
349.826971655779
 30
0.0
 11
311.010879516602
 21
351.531974118908
 31
0.0
  0
LINE
  8
ZEICHNUNG
  6
AUSGEZOGEN
 62
           1
  5
41
 10
313.210879516602
 20
351.531974118908
 30
0.0
 11
311.010879516602
 21
351.531974118908
 31
0.0
  0
CIRCLE
  8
ZEICHNUNG
  6
AUSGEZOGEN
 62
           1
  5
42
 10
312.110879516602
 20
347.581977223714
 30
0.0
 40
2.5
  0
CIRCLE
  8
ZEICHNUNG
  6
AUSGEZOGEN
 62
           1
  5
43
 10
312.110879516602
 20
342.081977223714
 30
0.0
 40
2.5
  0
LINE
  8
MITTELLINIEN
  6
AUSGEZOGEN
 62
           2
  5
44
 10
313.610879516602
 20
352.431974118908
 30
0.0
 11
310.810879516602
 21
352.431974118908
 31
0.0
  0
LINE
  8
MITTELLINIEN
  6
AUSGEZOGEN
 62
           2
  5
45
 10
313.610879516602
 20
352.231974118908
 30
0.0
 11
310.810879516602
 21
352.231974118908
 31
0.0
  0
LINE
  8
MITTELLINIEN
  6
AUSGEZOGEN
 62
           2
  5
46
 10
310.810879516602
 20
352.231974118908
 30
0.0
 11
310.810879516602
 21
352.431974118908
 31
0.0
  0
LINE
  8
BEMAßUNG
  6
STRICHPUNKT
 62
           2
  5
47
 10
310.751349744322
 20
347.581977223714
 30
0.0
 11
313.470409288881
 21
347.581977223714
 31
0.0
  0
LINE
  8
BEMAßUNG
  6
STRICHPUNKT
 62
           2
  5
48
 10
312.110879516602
 20
346.222447451434
 30
0.0
 11
312.110879516602
 21
348.941506995994
 31
0.0
  0
LINE
  8
ZEICHNUNG
  6
AUSGEZOGEN
 62
           1
  5
49
 10
310.610879516602
 20
340.081977223714
 30
0.0
 11
310.610879516602
 21
336.831976407726
 31
0.0
  0
LINE
  8
ZEICHNUNG
  6
AUSGEZOGEN
 62
           1
  5
4A
 10
313.610879516602
 20
340.081977223714
 30
0.0
 11
313.610879516602
 21
336.831976407726
 31
0.0
  0
LINE
  8
ZEICHNUNG
  6
AUSGEZOGEN
 62
           1
  5
4B
 10
313.210879516602
 20
339.83698279165
 30
0.0
 11
313.210879516602
 21
338.13198032852
 31
0.0
  0
LINE
  8
ZEICHNUNG
  6
AUSGEZOGEN
 62
           1
  5
4C
 10
311.010879516602
 20
339.83698279165
 30
0.0
 11
311.010879516602
 21
338.13198032852
 31
0.0
  0
LINE
  8
ZEICHNUNG
  6
AUSGEZOGEN
 62
           1
  5
4D
 10
313.210879516602
 20
338.13198032852
 30
0.0
 11
311.010879516602
 21
338.13198032852
 31
0.0
  0
CIRCLE
  8
ZEICHNUNG
  6
AUSGEZOGEN
 62
           1
  5
4E
 10
312.110879516602
 20
342.081977223714
 30
0.0
 40
2.5
  0
LINE
  8
MITTELLINIEN
  6
AUSGEZOGEN
 62
           2
  5
4F
 10
313.610879516602
 20
337.23198032852
 30
0.0
 11
310.810879516602
 21
337.23198032852
 31
0.0
  0
LINE
  8
MITTELLINIEN
  6
AUSGEZOGEN
 62
           2
  5
50
 10
313.610879516602
 20
337.43198032852
 30
0.0
 11
310.810879516602
 21
337.43198032852
 31
0.0
  0
LINE
  8
MITTELLINIEN
  6
AUSGEZOGEN
 62
           2
  5
51
 10
310.810879516602
 20
337.43198032852
 30
0.0
 11
310.810879516602
 21
337.23198032852
 31
0.0
  0
LINE
  8
BEMAßUNG
  6
STRICHPUNKT
 62
           2
  5
52
 10
310.751349744322
 20
342.081977223714
 30
0.0
 11
313.470409288881
 21
342.081977223714
 31
0.0
  0
LINE
  8
BEMAßUNG
  6
STRICHPUNKT
 62
           2
  5
53
 10
312.110879516602
 20
343.441506995994
 30
0.0
 11
312.110879516602
 21
340.722447451434
 31
0.0
  0
LINE
  8
ZEICHNUNG
  6
AUSGEZOGEN
 62
           1
  5
54
 10
290.610879516602
 20
349.581977223714
 30
0.0
 11
290.610879516602
 21
358.731976407726
 31
0.0
  0
LINE
  8
ZEICHNUNG
  6
AUSGEZOGEN
 62
           1
  5
55
 10
290.610879516602
 20
344.081977223714
 30
0.0
 11
290.610879516602
 21
345.581977223714
 31
0.0
  0
LINE
  8
ZEICHNUNG
  6
AUSGEZOGEN
 62
           1
  5
56
 10
287.610879516602
 20
349.581977223714
 30
0.0
 11
287.610879516602
 21
352.731974118908
 31
0.0
  0
LINE
  8
ZEICHNUNG
  6
AUSGEZOGEN
 62
           1
  5
57
 10
287.610879516602
 20
344.081977223714
 30
0.0
 11
287.610879516602
 21
345.581977223714
 31
0.0
  0
LINE
  8
ZEICHNUNG
  6
AUSGEZOGEN
 62
           1
  5
58
 10
288.010879516602
 20
349.826971655779
 30
0.0
 11
288.010879516602
 21
351.531974118908
 31
0.0
  0
LINE
  8
ZEICHNUNG
  6
AUSGEZOGEN
 62
           1
  5
59
 10
290.210879516602
 20
349.826971655779
 30
0.0
 11
290.210879516602
 21
351.531974118908
 31
0.0
  0
LINE
  8
ZEICHNUNG
  6
AUSGEZOGEN
 62
           1
  5
5A
 10
288.010879516602
 20
351.531974118908
 30
0.0
 11
290.210879516602
 21
351.531974118908
 31
0.0
  0
CIRCLE
  8
ZEICHNUNG
  6
AUSGEZOGEN
 62
           1
  5
5B
 10
289.110879516602
 20
347.581977223714
 30
0.0
 40
2.5
  0
CIRCLE
  8
ZEICHNUNG
  6
AUSGEZOGEN
 62
           1
  5
5C
 10
289.110879516602
 20
342.081977223714
 30
0.0
 40
2.5
  0
LINE
  8
MITTELLINIEN
  6
AUSGEZOGEN
 62
           2
  5
5D
 10
287.610879516602
 20
352.431974118908
 30
0.0
 11
290.410879516602
 21
352.431974118908
 31
0.0
  0
LINE
  8
MITTELLINIEN
  6
AUSGEZOGEN
 62
           2
  5
5E
 10
287.610879516602
 20
352.231974118908
 30
0.0
 11
290.410879516602
 21
352.231974118908
 31
0.0
  0
LINE
  8
MITTELLINIEN
  6
AUSGEZOGEN
 62
           2
  5
5F
 10
290.410879516602
 20
352.231974118908
 30
0.0
 11
290.410879516602
 21
352.431974118908
 31
0.0
  0
LINE
  8
BEMAßUNG
  6
STRICHPUNKT
 62
           2
  5
60
 10
290.470409288881
 20
347.581977223714
 30
0.0
 11
287.751349744322
 21
347.581977223714
 31
0.0
  0
LINE
  8
BEMAßUNG
  6
STRICHPUNKT
 62
           2
  5
61
 10
289.110879516602
 20
346.222447451434
 30
0.0
 11
289.110879516602
 21
348.941506995994
 31
0.0
  0
LINE
  8
ZEICHNUNG
  6
AUSGEZOGEN
 62
           1
  5
62
 10
290.610879516602
 20
340.081977223714
 30
0.0
 11
290.610879516602
 21
336.831976407726
 31
0.0
  0
LINE
  8
ZEICHNUNG
  6
AUSGEZOGEN
 62
           1
  5
63
 10
287.610879516602
 20
340.081977223714
 30
0.0
 11
287.610879516602
 21
336.831976407726
 31
0.0
  0
LINE
  8
ZEICHNUNG
  6
AUSGEZOGEN
 62
           1
  5
64
 10
288.010879516602
 20
339.83698279165
 30
0.0
 11
288.010879516602
 21
338.13198032852
 31
0.0
  0
LINE
  8
ZEICHNUNG
  6
AUSGEZOGEN
 62
           1
  5
65
 10
290.210879516602
 20
339.83698279165
 30
0.0
 11
290.210879516602
 21
338.13198032852
 31
0.0
  0
LINE
  8
ZEICHNUNG
  6
AUSGEZOGEN
 62
           1
  5
66
 10
288.010879516602
 20
338.13198032852
 30
0.0
 11
290.210879516602
 21
338.13198032852
 31
0.0
  0
CIRCLE
  8
ZEICHNUNG
  6
AUSGEZOGEN
 62
           1
  5
67
 10
289.110879516602
 20
342.081977223714
 30
0.0
 40
2.5
  0
LINE
  8
MITTELLINIEN
  6
AUSGEZOGEN
 62
           2
  5
68
 10
287.610879516602
 20
337.23198032852
 30
0.0
 11
290.410879516602
 21
337.23198032852
 31
0.0
  0
LINE
  8
MITTELLINIEN
  6
AUSGEZOGEN
 62
           2
  5
69
 10
287.610879516602
 20
337.43198032852
 30
0.0
 11
290.410879516602
 21
337.43198032852
 31
0.0
  0
LINE
  8
MITTELLINIEN
  6
AUSGEZOGEN
 62
           2
  5
6A
 10
290.410879516602
 20
337.43198032852
 30
0.0
 11
290.410879516602
 21
337.23198032852
 31
0.0
  0
LINE
  8
BEMAßUNG
  6
STRICHPUNKT
 62
           2
  5
6B
 10
290.470409288881
 20
342.081977223714
 30
0.0
 11
287.751349744322
 21
342.081977223714
 31
0.0
  0
LINE
  8
BEMAßUNG
  6
STRICHPUNKT
 62
           2
  5
6C
 10
289.110879516602
 20
343.441506995994
 30
0.0
 11
289.110879516602
 21
340.722447451434
 31
0.0
  0
LINE
  8
ZEICHNUNG
  6
AUSGEZOGEN
 62
           1
  5
6D
 10
290.610879516602
 20
358.731976407726
 30
0.0
 11
310.610879516602
 21
358.731976407726
 31
0.0
  0
ARC
  8
ZEICHNUNG
  6
AUSGEZOGEN
 62
           1
  5
6E
 10
284.110879516602
 20
351.731974118908
 30
0.0
 40
1.0
 50
90.0
 51
180.0
  0
ARC
  8
ZEICHNUNG
  6
AUSGEZOGEN
 62
           1
  5
6F
 10
284.110879516602
 20
337.831976407726
 30
0.0
 40
1.0
 50
180.0
 51
269.999999999999
  0
ARC
  8
ZEICHNUNG
  6
AUSGEZOGEN
 62
           1
  5
70
 10
317.110879516602
 20
337.831976407726
 30
0.0
 40
1.0
 50
269.999999999999
 51
0.0
  0
ARC
  8
ZEICHNUNG
  6
AUSGEZOGEN
 62
           1
  5
71
 10
317.110879516602
 20
351.731974118908
 30
0.0
 40
1.0
 50
0.0
 51
90.0
  0
ARC
  8
ZEICHNUNG
  6
AUSGEZOGEN
 62
           1
  5
72
 10
294.860879516602
 20
337.331976407726
 30
0.0
 40
0.5
 50
269.999999999999
 51
0.0
  0
ARC
  8
ZEICHNUNG
  6
AUSGEZOGEN
 62
           1
  5
73
 10
306.360879516602
 20
337.331976407726
 30
0.0
 40
0.5
 50
180.0
 51
269.999999999999
  0
INSERT
  8
MITTELLINIEN
  6
AUSGEZOGEN
 62
           2
  5
74
  2
*X1
 10
0.0
 20
0.0
 30
0.0
  0
INSERT
  8
MITTELLINIEN
  6
AUSGEZOGEN
 62
           2
  5
75
  2
*X2
 10
0.0
 20
0.0
 30
0.0
  0
ENDSEC
  0
EOF
