  0
SECTION
  2
HEADER
  9
$ACADVER
  1
AC1009
  9
$INSBASE
 10
0.0
 20
0.0
 30
0.0
  9
$EXTMIN
 10
267.726397705078
 20
440.0
 30
0.0
  9
$EXTMAX
 10
333.495361328125
 20
485.0
 30
0.0
  9
$LIMMIN
 10
267.726397705078
 20
440.0
  9
$LIMMAX
 10
333.495361328125
 20
485.0
  9
$ORTHOMODE
 70
           0
  9
$REGENMODE
 70
           1
  9
$FILLMODE
 70
           1
  9
$QTEXTMODE
 70
           0
  9
$MIRRTEXT
 70
           1
  9
$DRAGMODE
 70
           2
  9
$LTSCALE
 40
5.0
  9
$OSMODE
 70
           0
  9
$ATTMODE
 70
           1
  9
$TEXTSIZE
 40
0.2
  9
$TRACEWID
 40
0.05
  9
$TEXTSTYLE
  7
TXT
  9
$CLAYER
  8
0
  9
$CELTYPE
  6
CONTINUOUS
  9
$CECOLOR
 62
         256
  9
$DIMSCALE
 40
1.0
  9
$DIMASZ
 40
3.5
  9
$DIMEXO
 40
0.0625
  9
$DIMDLI
 40
0.38
  9
$DIMRND
 40
0.0
  9
$DIMDLE
 40
0.0
  9
$DIMEXE
 40
0.18
  9
$DIMTP
 40
0.0
  9
$DIMTM
 40
0.0
  9
$DIMTXT
 40
3.5
  9
$DIMCEN
 40
0.09
  9
$DIMTSZ
 40
0.0
  9
$DIMTOL
 70
           0
  9
$DIMLIM
 70
           0
  9
$DIMTIH
 70
           1
  9
$DIMTOH
 70
           1
  9
$DIMSE1
 70
           0
  9
$DIMSE2
 70
           0
  9
$DIMTAD
 70
           0
  9
$DIMZIN
 70
           0
  9
$DIMBLK
  1

  9
$DIMASO
 70
           1
  9
$DIMSHO
 70
           1
  9
$DIMPOST
  1

  9
$DIMAPOST
  1

  9
$DIMALT
 70
           0
  9
$DIMALTD
 70
           2
  9
$DIMALTF
 40
25.4
  9
$DIMLFAC
 40
1.0
  9
$DIMTOFL
 70
           0
  9
$DIMTVP
 40
0.0
  9
$DIMTIX
 70
           0
  9
$DIMSOXD
 70
           0
  9
$DIMSAH
 70
           0
  9
$DIMBLK1
  1

  9
$DIMBLK2
  1

  9
$DIMSTYLE
  2
STANDARD
  9
$DIMCLRD
 70
           0
  9
$DIMCLRE
 70
           0
  9
$DIMCLRT
 70
           0
  9
$DIMTFAC
 40
1.0
  9
$DIMGAP
 40
0.09
  9
$LUNITS
 70
           2
  9
$LUPREC
 70
           2
  9
$AXISMODE
 70
           0
  9
$AXISUNIT
 10
0.0
 20
0.0
  9
$SKETCHINC
 40
0.1
  9
$FILLETRAD
 40
0.0
  9
$AUNITS
 70
           0
  9
$AUPREC
 70
           2
  9
$MENU
  1
acad
  9
$ELEVATION
 40
0.0
  9
$PELEVATION
 40
0.0
  9
$THICKNESS
 40
0.0
  9
$LIMCHECK
 70
           0
  9
$BLIPMODE
 70
           1
  9
$CHAMFERA
 40
0.0
  9
$CHAMFERB
 40
0.0
  9
$SKPOLY
 70
           0
  9
$TDCREATE
 40
0.000000000
  9
$TDUPDATE
 40
0.000000000
  9
$TDINDWG
 40
0.0000000000
  9
$TDUSRTIMER
 40
0.0000000000
  9
$USRTIMER
 70
           1
  9
$ANGBASE
 50
0.0
  9
$ANGDIR
 70
           0
  9
$PDMODE
 70
           2
  9
$PDSIZE
 40
0.5
  9
$PLINEWID
 40
0.0
  9
$COORDS
 70
           0
  9
$SPLFRAME
 70
           0
  9
$SPLINETYPE
 70
           6
  9
$SPLINESEGS
 70
           8
  9
$ATTDIA
 70
           0
  9
$ATTREQ
 70
           1
  9
$HANDLING
 70
           1
  9
$HANDSEED
  5
97
  9
$SURFTAB1
 70
           6
  9
$SURFTAB2
 70
           6
  9
$SURFTYPE
 70
           6
  9
$SURFU
 70
           6
  9
$SURFV
 70
           6
  9
$UCSNAME
  2

  9
$UCSORG
 10
0.0
 20
0.0
 30
0.0
  9
$UCSXDIR
 10
1.0
 20
0.0
 30
0.0
  9
$UCSYDIR
 10
0.0
 20
1.0
 30
0.0
  9
$PUCSNAME
  2

  9
$PUCSORG
 10
0.0
 20
0.0
 30
0.0
  9
$PUCSXDIR
 10
1.0
 20
0.0
 30
0.0
  9
$PUCSYDIR
 10
0.0
 20
1.0
 30
0.0
  9
$USERI1
 70
           0
  9
$USERI2
 70
           0
  9
$USERI3
 70
           0
  9
$USERI4
 70
           0
  9
$USERI5
 70
           0
  9
$USERR1
 40
0.0
  9
$USERR2
 40
0.0
  9
$USERR3
 40
0.0
  9
$USERR4
 40
0.0
  9
$USERR5
 40
0.0
  9
$WORLDVIEW
 70
           1
  9
$SHADEDGE
 70
           3
  9
$SHADEDIF
 70
          70
  9
$TILEMODE
 70
           1
  9
$MAXACTVP
 70
          16
  9
$PINSBASE
 10
0.0
 20
0.0
 30
0.0
  9
$PLIMCHECK
 70
           0
  9
$PEXTMIN
 10
1.000000000000E+20
 20
1.000000000000E+20
 30
1.000000000000E+20
  9
$PEXTMAX
 10
-1.000000000000E+20
 20
-1.000000000000E+20
 30
-1.000000000000E+20
  9
$PLIMMIN
 10
0.0
 20
0.0
  9
$PLIMMAX
 10
12.0
 20
9.0
  9
$UNITMODE
 70
           0
  9
$VISRETAIN
 70
           0
  9
$PLINEGEN
 70
           1
  9
$PSLTSCALE
 70
           0
  9
$TREEDEPTH
 70
        3020
  9
$DWGCODEPAGE
  3
dos850
  0
ENDSEC
  0
SECTION
  2
TABLES
  0
TABLE
  2
VPORT
 70
           1
  0
VPORT
  2
*ACTIVE
 70
           0
 10
0.0
 20
0.0
 11
1.0
 21
1.0
 12
6.591288
 22
4.579184
 13
0.0
 23
0.0
 14
1.0
 24
1.0
 15
0.0
 25
0.0
 16
0.0
 26
0.0
 36
1.0
 17
0.0
 27
0.0
 37
0.0
 40
9.158369
 41
0.688564
 42
50.0
 43
0.0
 44
0.0
 50
0.0
 51
0.0
 71
           0
 72
         100
 73
           1
 74
           1
 75
           0
 76
           0
 77
           0
 78
           0
  0
ENDTAB
  0
TABLE
  2
LTYPE
 70
           4
  0
LTYPE
  2
CONTINUOUS
 70
          64
  3
Solid line
 72
          65
 73
           0
 40
0.0
  0
LTYPE
  2
AUSGEZOGEN
 70
           0
  3

 72
          65
 73
           2
 40
0.5
 49
0.25
 49
-0.25
  0
LTYPE
  2
VERDECKT
 70
           0
  3

 72
          65
 73
           2
 40
0.375
 49
0.25
 49
-0.125
  0
LTYPE
  2
STRICHPUNKT
 70
           0
  3

 72
          65
 73
           4
 40
1.0
 49
0.5
 49
-0.25
 49
0.0
 49
-0.25
  0
ENDTAB
  0
TABLE
  2
LAYER
 70
           5
  0
LAYER
  2
0
 70
           0
 62
           7
  6
CONTINUOUS
  0
LAYER
  2
ZEICHNUNG
 70
           0
 62
           7
  6
CONTINUOUS
  0
LAYER
  2
BEMAßUNG
 70
           0
 62
           7
  6
CONTINUOUS
  0
LAYER
  2
UNSICHTBARE
 70
           0
 62
           7
  6
CONTINUOUS
  0
LAYER
  2
MITTELLINIEN
 70
           0
 62
           7
  6
CONTINUOUS
  0
ENDTAB
  0
TABLE
  2
STYLE
 70
           1
  0
STYLE
  2
TXT
 70
           0
 40
3.5
 41
1.0
 50
0.0
 71
           0
 42
3.5
  3
TXT
  4

  0
ENDTAB
  0
TABLE
  2
VIEW
 70
           0
  0
ENDTAB
  0
TABLE
  2
UCS
 70
           0
  0
ENDTAB
  0
TABLE
  2
APPID
 70
           2
  0
APPID
  2
ACAD
 70
           0
  0
APPID
  2
MegaCADPntStyle
 70
           0
  0
ENDTAB
  0
TABLE
  2
DIMSTYLE
 70
           1
  0
DIMSTYLE
  2
STANDARD
 70
           0
  3

  4

  5

  6

  7

 40
1.0
 41
0.18
 42
0.0625
 43
0.38
 44
0.18
 45
0.0
 46
0.0
 47
0.0
 48
0.0
 71
           0
 72
           0
 73
           1
 74
           1
 75
           0
 76
           0
 77
           0
 78
           0
140
0.18
141
0.09
142
0.0
143
25.4
144
1.0
145
0.0
146
1.0
147
0.09
170
           0
171
           2
172
           0
173
           0
174
           0
175
           0
176
           0
177
           0
178
           0
  0
ENDTAB
  0
ENDSEC
  0
SECTION
  2
BLOCKS
  0
BLOCK
  8
0
  5
75
  2
ELIPPSE
 70
          64
 10
0.0
 20
0.0
 30
0.0
  3
ELIPPSE
  0
CIRCLE
  8
0
  6
BYBLOCK
 62
           0
  5
76
 10
0.0
 20
0.0
 30
0.0
 40
1.0
  0
ENDBLK
  8
0
  6
BYBLOCK
 62
           0
  5
77
  0
BLOCK
  8
0
  5
78
  2
*X1
 70
          65
 10
0.0
 20
0.0
 30
0.0
  3
*X1
  0
LINE
  8
0
  6
BYBLOCK
 62
           0
  5
79
 10
312.610879516602
 20
472.277647600466
 30
0.0
 11
311.156548367475
 21
473.731978749593
 31
0.0
  0
LINE
  8
0
  6
BYBLOCK
 62
           0
  5
7A
 10
312.610879516602
 20
468.035006913347
 30
0.0
 11
308.110879516602
 21
472.535006913347
 31
0.0
  0
LINE
  8
0
  6
BYBLOCK
 62
           0
  5
7B
 10
312.294760284966
 20
464.108485457863
 30
0.0
 11
308.110879516602
 21
468.292366226228
 31
0.0
  0
LINE
  8
0
  6
BYBLOCK
 62
           0
  5
7C
 10
312.610879516602
 20
459.549725539108
 30
0.0
 11
312.443119952018
 21
459.717485103692
 31
0.0
  0
LINE
  8
0
  6
BYBLOCK
 62
           0
  5
7D
 10
312.146387896835
 20
460.014217158875
 30
0.0
 11
308.110879516602
 21
464.049725539108
 31
0.0
  0
LINE
  8
0
  6
BYBLOCK
 62
           0
  5
7E
 10
311.545948421405
 20
456.372015947186
 30
0.0
 11
308.110879516602
 21
459.807084851989
 31
0.0
  0
LINE
  8
0
  6
BYBLOCK
 62
           0
  5
7F
 10
312.610879516602
 20
451.06444416487
 30
0.0
 11
308.110879516602
 21
455.56444416487
 31
0.0
  0
LINE
  8
0
  6
BYBLOCK
 62
           0
  5
80
 10
293.110879516602
 20
470.56444416487
 30
0.0
 11
289.943344931878
 21
473.731978749593
 31
0.0
  0
LINE
  8
0
  6
BYBLOCK
 62
           0
  5
81
 10
310.200704244759
 20
449.231978749593
 30
0.0
 11
308.110879516602
 21
451.32180347775
 31
0.0
  0
LINE
  8
0
  6
BYBLOCK
 62
           0
  5
82
 10
293.110879516602
 20
466.32180347775
 30
0.0
 11
288.610879516602
 21
470.82180347775
 31
0.0
  0
LINE
  8
0
  6
BYBLOCK
 62
           0
  5
83
 10
293.110879516602
 20
462.079162790631
 30
0.0
 11
288.610879516602
 21
466.579162790631
 31
0.0
  0
LINE
  8
0
  6
BYBLOCK
 62
           0
  5
84
 10
293.110879516602
 20
457.836522103512
 30
0.0
 11
289.715577595344
 21
461.231824024769
 31
0.0
  0
LINE
  8
0
  6
BYBLOCK
 62
           0
  5
85
 10
293.110879516602
 20
453.593881416393
 30
0.0
 11
288.610879516602
 21
458.093881416393
 31
0.0
  0
LINE
  8
0
  6
BYBLOCK
 62
           0
  5
86
 10
292.875098432148
 20
449.587021813727
 30
0.0
 11
289.015142955416
 21
453.446977290459
 31
0.0
  0
LINE
  8
0
  6
BYBLOCK
 62
           0
  5
87
 10
288.987500809163
 20
449.231978749593
 30
0.0
 11
288.610879516602
 21
449.608600042154
 31
0.0
  0
ENDBLK
  8
0
  6
BYBLOCK
 62
           0
  5
88
  0
BLOCK
  8
0
  5
89
  2
*X2
 70
          65
 10
0.0
 20
0.0
 30
0.0
  3
*X2
  0
LINE
  8
0
  6
BYBLOCK
 62
           0
  5
8A
 10
321.952758136015
 20
449.231978749593
 30
0.0
 11
324.110879516602
 21
451.39010013018
 31
0.0
  0
LINE
  8
0
  6
BYBLOCK
 62
           0
  5
8B
 10
316.861589311471
 20
449.231978749593
 30
0.0
 11
323.304406631315
 21
455.674796069436
 31
0.0
  0
LINE
  8
0
  6
BYBLOCK
 62
           0
  5
8C
 10
317.330461597431
 20
454.792019860096
 30
0.0
 11
322.387185002856
 21
459.848743265521
 31
0.0
  0
LINE
  8
0
  6
BYBLOCK
 62
           0
  5
8D
 10
316.210879516602
 20
458.763606603809
 30
0.0
 11
324.110879516602
 21
466.663606603809
 31
0.0
  0
LINE
  8
0
  6
BYBLOCK
 62
           0
  5
8E
 10
316.495488199769
 20
464.13938411152
 30
0.0
 11
320.588080549024
 21
468.231976460775
 31
0.0
  0
LINE
  8
0
  6
BYBLOCK
 62
           0
  5
8F
 10
281.22340753967
 20
449.231978749593
 30
0.0
 11
285.010879516602
 21
453.019450726525
 31
0.0
  0
LINE
  8
0
  6
BYBLOCK
 62
           0
  5
90
 10
277.111102902833
 20
450.2108429373
 30
0.0
 11
285.010879516602
 21
458.110619551068
 31
0.0
  0
LINE
  8
0
  6
BYBLOCK
 62
           0
  5
91
 10
278.545308555043
 20
456.736217414052
 30
0.0
 11
283.810945369861
 21
462.001854228871
 31
0.0
  0
LINE
  8
0
  6
BYBLOCK
 62
           0
  5
92
 10
278.161650034841
 20
461.443727718394
 30
0.0
 11
284.949898777222
 21
468.231976460775
 31
0.0
  0
LINE
  8
0
  6
BYBLOCK
 62
           0
  5
93
 10
277.110879516602
 20
465.484126024698
 30
0.0
 11
279.858729952679
 21
468.231976460775
 31
0.0
  0
ENDBLK
  8
0
  6
BYBLOCK
 62
           0
  5
94
  0
ENDSEC
  0
SECTION
  2
ENTITIES
  0
LINE
  8
BEMAßUNG
  6
STRICHPUNKT
 62
           2
  5
28
 10
333.495361328125
 20
458.731984463901
 30
0.0
 11
321.407780682671
 21
458.731979290226
 31
0.0
  0
LINE
  8
BEMAßUNG
  6
STRICHPUNKT
 62
           2
  5
29
 10
327.260879516602
 20
452.466617726644
 30
0.0
 11
327.260879516602
 21
465.1167909139
 31
0.0
  0
LINE
  8
BEMAßUNG
  6
STRICHPUNKT
 62
           2
  5
2A
 10
300.610879516602
 20
440.0
 30
0.0
 11
300.610879516602
 21
485.0
 31
0.0
  0
ARC
  8
ZEICHNUNG
  6
AUSGEZOGEN
 62
           1
  5
2B
 10
273.960870361328
 20
458.731979512533
 30
0.0
 40
5.0
 50
309.050261942897
 51
50.949738057102
  0
LINE
  8
ZEICHNUNG
  6
AUSGEZOGEN
 62
           1
  5
2C
 10
324.110879516602
 20
462.614959859212
 30
0.0
 11
324.110879516602
 21
467.231976460775
 31
0.0
  0
LINE
  8
ZEICHNUNG
  6
AUSGEZOGEN
 62
           1
  5
2D
 10
324.110879516602
 20
450.231978749593
 30
0.0
 11
324.110879516602
 21
454.848999165853
 31
0.0
  0
LINE
  8
ZEICHNUNG
  6
AUSGEZOGEN
 62
           1
  5
2E
 10
277.110879516602
 20
462.614944600423
 30
0.0
 11
277.110879516602
 21
467.231976460775
 31
0.0
  0
LINE
  8
ZEICHNUNG
  6
AUSGEZOGEN
 62
           1
  5
2F
 10
277.110879516602
 20
450.231978749593
 30
0.0
 11
277.110879516602
 21
454.849014424642
 31
0.0
  0
LINE
  8
ZEICHNUNG
  6
AUSGEZOGEN
 62
           1
  5
30
 10
288.610879516602
 20
468.231976460775
 30
0.0
 11
278.110879516602
 21
468.231976460775
 31
0.0
  0
LINE
  8
ZEICHNUNG
  6
AUSGEZOGEN
 62
           1
  5
31
 10
300.760873413086
 20
468.231976460775
 30
0.0
 11
300.610879516602
 21
468.231976460775
 31
0.0
  0
LINE
  8
ZEICHNUNG
  6
AUSGEZOGEN
 62
           1
  5
32
 10
323.110879516602
 20
468.231976460775
 30
0.0
 11
312.610879516602
 21
468.231976460775
 31
0.0
  0
LINE
  8
ZEICHNUNG
  6
AUSGEZOGEN
 62
           1
  5
33
 10
278.110879516602
 20
449.231978749593
 30
0.0
 11
323.110879516602
 21
449.231978749593
 31
0.0
  0
ARC
  8
ZEICHNUNG
  6
AUSGEZOGEN
 62
           1
  5
34
 10
327.260873413086
 20
458.731979512533
 30
0.0
 40
5.0
 50
129.050031310328
 51
230.949968689672
  0
CIRCLE
  8
UNSICHTBARE
  6
VERDECKT
 62
           2
  5
35
 10
327.260879516602
 20
458.731984463901
 30
0.0
 40
5.0
  0
LINE
  8
BEMAßUNG
  6
STRICHPUNKT
 62
           2
  5
36
 10
267.726397705078
 20
458.731984463901
 30
0.0
 11
279.813978350532
 21
458.731979290226
 31
0.0
  0
LINE
  8
BEMAßUNG
  6
STRICHPUNKT
 62
           2
  5
37
 10
273.960879516602
 20
452.466617726644
 30
0.0
 11
273.960879516602
 21
465.1167909139
 31
0.0
  0
ARC
  8
ZEICHNUNG
  6
AUSGEZOGEN
 62
           1
  5
38
 10
273.960885620117
 20
458.731979512533
 30
0.0
 40
5.0
 50
309.050031310327
 51
50.949968689672
  0
LINE
  8
ZEICHNUNG
  6
AUSGEZOGEN
 62
           1
  5
39
 10
293.110879516602
 20
450.231978749593
 30
0.0
 11
293.110879516602
 21
473.731978749593
 31
0.0
  0
LINE
  8
ZEICHNUNG
  6
AUSGEZOGEN
 62
           1
  5
3A
 10
308.110879516602
 20
450.231978749593
 30
0.0
 11
308.110879516602
 21
473.731978749593
 31
0.0
  0
LINE
  8
ZEICHNUNG
  6
AUSGEZOGEN
 62
           1
  5
3B
 10
312.610879516602
 20
464.381976723458
 30
0.0
 11
312.610879516602
 21
473.731978749593
 31
0.0
  0
LINE
  8
ZEICHNUNG
  6
AUSGEZOGEN
 62
           1
  5
3C
 10
312.610879516602
 20
457.881976723457
 30
0.0
 11
312.610879516602
 21
459.581976723458
 31
0.0
  0
LINE
  8
ZEICHNUNG
  6
AUSGEZOGEN
 62
           1
  5
3D
 10
312.610879516602
 20
449.231978749593
 30
0.0
 11
312.610879516602
 21
453.081976723457
 31
0.0
  0
CIRCLE
  8
ZEICHNUNG
  6
AUSGEZOGEN
 62
           1
  5
3E
 10
314.410879516602
 20
455.481976723457
 30
0.0
 40
3.0
  0
CIRCLE
  8
ZEICHNUNG
  6
AUSGEZOGEN
 62
           1
  5
3F
 10
314.410879516602
 20
461.981976723458
 30
0.0
 40
3.0
  0
LINE
  8
ZEICHNUNG
  6
AUSGEZOGEN
 62
           1
  5
40
 10
316.210879516602
 20
464.381976723458
 30
0.0
 11
316.210879516602
 21
468.231976460775
 31
0.0
  0
LINE
  8
ZEICHNUNG
  6
AUSGEZOGEN
 62
           1
  5
41
 10
316.210879516602
 20
457.881976723457
 30
0.0
 11
316.210879516602
 21
459.581976723458
 31
0.0
  0
LINE
  8
ZEICHNUNG
  6
AUSGEZOGEN
 62
           1
  5
42
 10
316.210879516602
 20
449.231978749593
 30
0.0
 11
316.210879516602
 21
453.081976723457
 31
0.0
  0
LINE
  8
ZEICHNUNG
  6
AUSGEZOGEN
 62
           1
  5
43
 10
313.110879516602
 20
464.685677890377
 30
0.0
 11
313.110879516602
 21
466.731976460775
 31
0.0
  0
LINE
  8
ZEICHNUNG
  6
AUSGEZOGEN
 62
           1
  5
44
 10
315.710879516602
 20
464.685677890377
 30
0.0
 11
315.710879516602
 21
466.731976460775
 31
0.0
  0
LINE
  8
ZEICHNUNG
  6
AUSGEZOGEN
 62
           1
  5
45
 10
315.710879516602
 20
466.731976460775
 30
0.0
 11
313.110879516602
 21
466.731976460775
 31
0.0
  0
LINE
  8
MITTELLINIEN
  6
AUSGEZOGEN
 62
           2
  5
46
 10
316.210879516602
 20
467.831976460775
 30
0.0
 11
312.910879516602
 21
467.831976460775
 31
0.0
  0
LINE
  8
MITTELLINIEN
  6
AUSGEZOGEN
 62
           2
  5
47
 10
312.910879516602
 20
467.531976460775
 30
0.0
 11
312.910879516602
 21
467.831976460775
 31
0.0
  0
LINE
  8
MITTELLINIEN
  6
AUSGEZOGEN
 62
           2
  5
48
 10
316.210879516602
 20
467.531976460775
 30
0.0
 11
312.910879516602
 21
467.531976460775
 31
0.0
  0
LINE
  8
BEMAßUNG
  6
STRICHPUNKT
 62
           2
  5
49
 10
312.695304811305
 20
461.981976723458
 30
0.0
 11
316.126454221898
 21
461.981976723458
 31
0.0
  0
LINE
  8
BEMAßUNG
  6
STRICHPUNKT
 62
           2
  5
4A
 10
314.410879516602
 20
460.266402018162
 30
0.0
 11
314.410879516602
 21
463.697551428754
 31
0.0
  0
LINE
  8
ZEICHNUNG
  6
AUSGEZOGEN
 62
           1
  5
4B
 10
313.110884613158
 20
452.778274443699
 30
0.0
 11
313.110886364854
 21
450.731975873302
 31
0.0
  0
LINE
  8
ZEICHNUNG
  6
AUSGEZOGEN
 62
           1
  5
4C
 10
315.710884613157
 20
452.778276669381
 30
0.0
 11
315.710886364853
 21
450.731978098984
 31
0.0
  0
LINE
  8
ZEICHNUNG
  6
AUSGEZOGEN
 62
           1
  5
4D
 10
315.710886364853
 20
450.731978098984
 30
0.0
 11
313.110886364854
 21
450.731975873302
 31
0.0
  0
LINE
  8
MITTELLINIEN
  6
AUSGEZOGEN
 62
           2
  5
4E
 10
316.210887306488
 20
449.631978527001
 30
0.0
 11
312.910887306489
 21
449.631975702097
 31
0.0
  0
LINE
  8
MITTELLINIEN
  6
AUSGEZOGEN
 62
           2
  5
4F
 10
312.910887049679
 20
449.931975702096
 30
0.0
 11
312.910887306489
 21
449.631975702097
 31
0.0
  0
LINE
  8
MITTELLINIEN
  6
AUSGEZOGEN
 62
           2
  5
50
 10
316.210887049678
 20
449.931978527
 30
0.0
 11
312.910887049679
 21
449.931975702096
 31
0.0
  0
LINE
  8
BEMAßUNG
  6
STRICHPUNKT
 62
           2
  5
51
 10
312.695307593409
 20
455.481975254873
 30
0.0
 11
316.126457004
 21
455.481978192045
 31
0.0
  0
LINE
  8
BEMAßUNG
  6
STRICHPUNKT
 62
           2
  5
52
 10
314.410880830118
 20
457.197551428754
 30
0.0
 11
314.41088376729
 21
453.766402018163
 31
0.0
  0
LINE
  8
ZEICHNUNG
  6
AUSGEZOGEN
 62
           1
  5
53
 10
288.610879516602
 20
464.381976723458
 30
0.0
 11
288.610879516602
 21
473.731978749593
 31
0.0
  0
LINE
  8
ZEICHNUNG
  6
AUSGEZOGEN
 62
           1
  5
54
 10
288.610879516602
 20
457.881976723457
 30
0.0
 11
288.610879516602
 21
459.581976723458
 31
0.0
  0
LINE
  8
ZEICHNUNG
  6
AUSGEZOGEN
 62
           1
  5
55
 10
288.610879516602
 20
449.231978749593
 30
0.0
 11
288.610879516602
 21
453.081976723457
 31
0.0
  0
CIRCLE
  8
ZEICHNUNG
  6
AUSGEZOGEN
 62
           1
  5
56
 10
286.810879516602
 20
455.481976723457
 30
0.0
 40
3.0
  0
CIRCLE
  8
ZEICHNUNG
  6
AUSGEZOGEN
 62
           1
  5
57
 10
286.810879516602
 20
461.981976723458
 30
0.0
 40
3.0
  0
LINE
  8
ZEICHNUNG
  6
AUSGEZOGEN
 62
           1
  5
58
 10
285.010879516602
 20
464.381976723458
 30
0.0
 11
285.010879516602
 21
468.231976460775
 31
0.0
  0
LINE
  8
ZEICHNUNG
  6
AUSGEZOGEN
 62
           1
  5
59
 10
285.010879516602
 20
457.881976723457
 30
0.0
 11
285.010879516602
 21
459.581976723458
 31
0.0
  0
LINE
  8
ZEICHNUNG
  6
AUSGEZOGEN
 62
           1
  5
5A
 10
285.010879516602
 20
449.231978749593
 30
0.0
 11
285.010879516602
 21
453.081976723457
 31
0.0
  0
LINE
  8
ZEICHNUNG
  6
AUSGEZOGEN
 62
           1
  5
5B
 10
288.110879516602
 20
464.685677890377
 30
0.0
 11
288.110879516602
 21
466.731976460775
 31
0.0
  0
LINE
  8
ZEICHNUNG
  6
AUSGEZOGEN
 62
           1
  5
5C
 10
285.510879516602
 20
464.685677890377
 30
0.0
 11
285.510879516602
 21
466.731976460775
 31
0.0
  0
LINE
  8
ZEICHNUNG
  6
AUSGEZOGEN
 62
           1
  5
5D
 10
285.510879516602
 20
466.731976460775
 30
0.0
 11
288.110879516602
 21
466.731976460775
 31
0.0
  0
LINE
  8
MITTELLINIEN
  6
AUSGEZOGEN
 62
           2
  5
5E
 10
285.010879516602
 20
467.831976460775
 30
0.0
 11
288.310879516602
 21
467.831976460775
 31
0.0
  0
LINE
  8
MITTELLINIEN
  6
AUSGEZOGEN
 62
           2
  5
5F
 10
288.310879516602
 20
467.531976460775
 30
0.0
 11
288.310879516602
 21
467.831976460775
 31
0.0
  0
LINE
  8
MITTELLINIEN
  6
AUSGEZOGEN
 62
           2
  5
60
 10
285.010879516602
 20
467.531976460775
 30
0.0
 11
288.310879516602
 21
467.531976460775
 31
0.0
  0
LINE
  8
BEMAßUNG
  6
STRICHPUNKT
 62
           2
  5
61
 10
288.526454221898
 20
461.981976723458
 30
0.0
 11
285.095304811305
 21
461.981976723458
 31
0.0
  0
LINE
  8
BEMAßUNG
  6
STRICHPUNKT
 62
           2
  5
62
 10
286.810879516602
 20
460.266402018162
 30
0.0
 11
286.810879516602
 21
463.697551428754
 31
0.0
  0
LINE
  8
ZEICHNUNG
  6
AUSGEZOGEN
 62
           1
  5
63
 10
288.110874420045
 20
452.778274443699
 30
0.0
 11
288.110872668349
 21
450.731975873302
 31
0.0
  0
LINE
  8
ZEICHNUNG
  6
AUSGEZOGEN
 62
           1
  5
64
 10
285.510874420046
 20
452.778276669381
 30
0.0
 11
285.51087266835
 21
450.731978098984
 31
0.0
  0
LINE
  8
ZEICHNUNG
  6
AUSGEZOGEN
 62
           1
  5
65
 10
285.51087266835
 20
450.731978098984
 30
0.0
 11
288.110872668349
 21
450.731975873302
 31
0.0
  0
LINE
  8
MITTELLINIEN
  6
AUSGEZOGEN
 62
           2
  5
66
 10
285.010871726715
 20
449.631978527001
 30
0.0
 11
288.310871726714
 21
449.631975702097
 31
0.0
  0
LINE
  8
MITTELLINIEN
  6
AUSGEZOGEN
 62
           2
  5
67
 10
288.310871983524
 20
449.931975702096
 30
0.0
 11
288.310871726714
 21
449.631975702097
 31
0.0
  0
LINE
  8
MITTELLINIEN
  6
AUSGEZOGEN
 62
           2
  5
68
 10
285.010871983525
 20
449.931978527
 30
0.0
 11
288.310871983524
 21
449.931975702096
 31
0.0
  0
LINE
  8
BEMAßUNG
  6
STRICHPUNKT
 62
           2
  5
69
 10
288.526451439795
 20
455.481975254873
 30
0.0
 11
285.095302029204
 21
455.481978192045
 31
0.0
  0
LINE
  8
BEMAßUNG
  6
STRICHPUNKT
 62
           2
  5
6A
 10
286.810878203085
 20
457.197551428754
 30
0.0
 11
286.810875265913
 21
453.766402018163
 31
0.0
  0
LINE
  8
ZEICHNUNG
  6
AUSGEZOGEN
 62
           1
  5
6B
 10
288.610879516602
 20
473.731978749593
 30
0.0
 11
312.610879516602
 21
473.731978749593
 31
0.0
  0
ARC
  8
ZEICHNUNG
  6
AUSGEZOGEN
 62
           1
  5
6C
 10
309.110879516602
 20
450.231978749593
 30
0.0
 40
1.0
 50
180.0
 51
269.999999999999
  0
ARC
  8
ZEICHNUNG
  6
AUSGEZOGEN
 62
           1
  5
6D
 10
292.110879516602
 20
450.231978749593
 30
0.0
 40
1.0
 50
269.999999999999
 51
0.0
  0
ARC
  8
ZEICHNUNG
  6
AUSGEZOGEN
 62
           1
  5
6E
 10
278.110879516602
 20
467.231976460775
 30
0.0
 40
1.0
 50
90.0
 51
180.0
  0
ARC
  8
ZEICHNUNG
  6
AUSGEZOGEN
 62
           1
  5
6F
 10
278.110879516602
 20
450.231978749593
 30
0.0
 40
1.0
 50
180.0
 51
269.999999999999
  0
ARC
  8
ZEICHNUNG
  6
AUSGEZOGEN
 62
           1
  5
70
 10
323.110879516602
 20
450.231978749593
 30
0.0
 40
1.0
 50
269.999999999999
 51
0.0
  0
ARC
  8
ZEICHNUNG
  6
AUSGEZOGEN
 62
           1
  5
71
 10
323.110879516602
 20
467.231976460775
 30
0.0
 40
1.0
 50
0.0
 51
90.0
  0
INSERT
  8
MITTELLINIEN
  6
AUSGEZOGEN
 62
           2
  5
72
  2
*X1
 10
0.0
 20
0.0
 30
0.0
  0
INSERT
  8
MITTELLINIEN
  6
AUSGEZOGEN
 62
           2
  5
73
  2
*X2
 10
0.0
 20
0.0
 30
0.0
  0
CIRCLE
  8
UNSICHTBARE
  6
VERDECKT
 62
           2
  5
74
 10
273.960879516602
 20
458.731984463901
 30
0.0
 40
5.0
  0
ENDSEC
  0
EOF
