  0
SECTION
  2
HEADER
  9
$ACADVER
  1
AC1009
  9
$INSBASE
 10
0.0
 20
0.0
 30
0.0
  9
$EXTMIN
 10
395.0
 20
-630.268036509196
 30
0.0
  9
$EXTMAX
 10
662.5
 20
-481.4815773222
 30
0.0
  9
$LIMMIN
 10
395.0
 20
-630.268036509196
  9
$LIMMAX
 10
662.5
 20
-481.4815773222
  9
$ORTHOMODE
 70
           0
  9
$REGENMODE
 70
           1
  9
$FILLMODE
 70
           1
  9
$QTEXTMODE
 70
           0
  9
$MIRRTEXT
 70
           1
  9
$DRAGMODE
 70
           2
  9
$LTSCALE
 40
5.0
  9
$OSMODE
 70
           0
  9
$ATTMODE
 70
           1
  9
$TEXTSIZE
 40
0.2
  9
$TRACEWID
 40
0.05
  9
$TEXTSTYLE
  7
TXT
  9
$CLAYER
  8
0
  9
$CELTYPE
  6
CONTINUOUS
  9
$CECOLOR
 62
         256
  9
$DIMSCALE
 40
1.0
  9
$DIMASZ
 40
3.5
  9
$DIMEXO
 40
0.0625
  9
$DIMDLI
 40
0.38
  9
$DIMRND
 40
0.0
  9
$DIMDLE
 40
0.0
  9
$DIMEXE
 40
0.18
  9
$DIMTP
 40
0.0
  9
$DIMTM
 40
0.0
  9
$DIMTXT
 40
3.5
  9
$DIMCEN
 40
0.09
  9
$DIMTSZ
 40
0.0
  9
$DIMTOL
 70
           0
  9
$DIMLIM
 70
           0
  9
$DIMTIH
 70
           1
  9
$DIMTOH
 70
           1
  9
$DIMSE1
 70
           0
  9
$DIMSE2
 70
           0
  9
$DIMTAD
 70
           0
  9
$DIMZIN
 70
           0
  9
$DIMBLK
  1

  9
$DIMASO
 70
           1
  9
$DIMSHO
 70
           1
  9
$DIMPOST
  1

  9
$DIMAPOST
  1

  9
$DIMALT
 70
           0
  9
$DIMALTD
 70
           2
  9
$DIMALTF
 40
25.4
  9
$DIMLFAC
 40
1.0
  9
$DIMTOFL
 70
           0
  9
$DIMTVP
 40
0.0
  9
$DIMTIX
 70
           0
  9
$DIMSOXD
 70
           0
  9
$DIMSAH
 70
           0
  9
$DIMBLK1
  1

  9
$DIMBLK2
  1

  9
$DIMSTYLE
  2
STANDARD
  9
$DIMCLRD
 70
           0
  9
$DIMCLRE
 70
           0
  9
$DIMCLRT
 70
           0
  9
$DIMTFAC
 40
1.0
  9
$DIMGAP
 40
0.09
  9
$LUNITS
 70
           2
  9
$LUPREC
 70
           2
  9
$AXISMODE
 70
           0
  9
$AXISUNIT
 10
0.0
 20
0.0
  9
$SKETCHINC
 40
0.1
  9
$FILLETRAD
 40
0.0
  9
$AUNITS
 70
           0
  9
$AUPREC
 70
           2
  9
$MENU
  1
acad
  9
$ELEVATION
 40
0.0
  9
$PELEVATION
 40
0.0
  9
$THICKNESS
 40
0.0
  9
$LIMCHECK
 70
           0
  9
$BLIPMODE
 70
           1
  9
$CHAMFERA
 40
0.0
  9
$CHAMFERB
 40
0.0
  9
$SKPOLY
 70
           0
  9
$TDCREATE
 40
0.000000000
  9
$TDUPDATE
 40
0.000000000
  9
$TDINDWG
 40
0.0000000000
  9
$TDUSRTIMER
 40
0.0000000000
  9
$USRTIMER
 70
           1
  9
$ANGBASE
 50
0.0
  9
$ANGDIR
 70
           0
  9
$PDMODE
 70
           2
  9
$PDSIZE
 40
0.5
  9
$PLINEWID
 40
0.0
  9
$COORDS
 70
           0
  9
$SPLFRAME
 70
           0
  9
$SPLINETYPE
 70
           6
  9
$SPLINESEGS
 70
           8
  9
$ATTDIA
 70
           0
  9
$ATTREQ
 70
           1
  9
$HANDLING
 70
           1
  9
$HANDSEED
  5
1B3
  9
$SURFTAB1
 70
           6
  9
$SURFTAB2
 70
           6
  9
$SURFTYPE
 70
           6
  9
$SURFU
 70
           6
  9
$SURFV
 70
           6
  9
$UCSNAME
  2

  9
$UCSORG
 10
0.0
 20
0.0
 30
0.0
  9
$UCSXDIR
 10
1.0
 20
0.0
 30
0.0
  9
$UCSYDIR
 10
0.0
 20
1.0
 30
0.0
  9
$PUCSNAME
  2

  9
$PUCSORG
 10
0.0
 20
0.0
 30
0.0
  9
$PUCSXDIR
 10
1.0
 20
0.0
 30
0.0
  9
$PUCSYDIR
 10
0.0
 20
1.0
 30
0.0
  9
$USERI1
 70
           0
  9
$USERI2
 70
           0
  9
$USERI3
 70
           0
  9
$USERI4
 70
           0
  9
$USERI5
 70
           0
  9
$USERR1
 40
0.0
  9
$USERR2
 40
0.0
  9
$USERR3
 40
0.0
  9
$USERR4
 40
0.0
  9
$USERR5
 40
0.0
  9
$WORLDVIEW
 70
           1
  9
$SHADEDGE
 70
           3
  9
$SHADEDIF
 70
          70
  9
$TILEMODE
 70
           1
  9
$MAXACTVP
 70
          16
  9
$PINSBASE
 10
0.0
 20
0.0
 30
0.0
  9
$PLIMCHECK
 70
           0
  9
$PEXTMIN
 10
1.000000000000E+20
 20
1.000000000000E+20
 30
1.000000000000E+20
  9
$PEXTMAX
 10
-1.000000000000E+20
 20
-1.000000000000E+20
 30
-1.000000000000E+20
  9
$PLIMMIN
 10
0.0
 20
0.0
  9
$PLIMMAX
 10
12.0
 20
9.0
  9
$UNITMODE
 70
           0
  9
$VISRETAIN
 70
           0
  9
$PLINEGEN
 70
           1
  9
$PSLTSCALE
 70
           0
  9
$TREEDEPTH
 70
        3020
  9
$DWGCODEPAGE
  3
dos850
  0
ENDSEC
  0
SECTION
  2
TABLES
  0
TABLE
  2
VPORT
 70
           1
  0
VPORT
  2
*ACTIVE
 70
           0
 10
0.0
 20
0.0
 11
1.0
 21
1.0
 12
6.591288
 22
4.579184
 13
0.0
 23
0.0
 14
1.0
 24
1.0
 15
0.0
 25
0.0
 16
0.0
 26
0.0
 36
1.0
 17
0.0
 27
0.0
 37
0.0
 40
9.158369
 41
0.688564
 42
50.0
 43
0.0
 44
0.0
 50
0.0
 51
0.0
 71
           0
 72
         100
 73
           1
 74
           1
 75
           0
 76
           0
 77
           0
 78
           0
  0
ENDTAB
  0
TABLE
  2
LTYPE
 70
           4
  0
LTYPE
  2
CONTINUOUS
 70
          64
  3
Solid line
 72
          65
 73
           0
 40
0.0
  0
LTYPE
  2
AUSGEZOGEN
 70
           0
  3

 72
          65
 73
           2
 40
0.5
 49
0.25
 49
-0.25
  0
LTYPE
  2
VERDECKT
 70
           0
  3

 72
          65
 73
           2
 40
0.375
 49
0.25
 49
-0.125
  0
LTYPE
  2
STRICHPUNKT
 70
           0
  3

 72
          65
 73
           4
 40
1.0
 49
0.5
 49
-0.25
 49
0.0
 49
-0.25
  0
ENDTAB
  0
TABLE
  2
LAYER
 70
           5
  0
LAYER
  2
0
 70
           0
 62
           7
  6
CONTINUOUS
  0
LAYER
  2
ZEICHNUNG
 70
           0
 62
           7
  6
CONTINUOUS
  0
LAYER
  2
BEMAßUNG
 70
           0
 62
           7
  6
CONTINUOUS
  0
LAYER
  2
UNSICHTBARE
 70
           0
 62
           7
  6
CONTINUOUS
  0
LAYER
  2
MITTELLINIEN
 70
           0
 62
           7
  6
CONTINUOUS
  0
ENDTAB
  0
TABLE
  2
STYLE
 70
           1
  0
STYLE
  2
TXT
 70
           0
 40
3.5
 41
1.0
 50
0.0
 71
           0
 42
3.5
  3
TXT
  4

  0
ENDTAB
  0
TABLE
  2
VIEW
 70
           0
  0
ENDTAB
  0
TABLE
  2
UCS
 70
           0
  0
ENDTAB
  0
TABLE
  2
APPID
 70
           2
  0
APPID
  2
ACAD
 70
           0
  0
APPID
  2
MegaCADPntStyle
 70
           0
  0
ENDTAB
  0
TABLE
  2
DIMSTYLE
 70
           1
  0
DIMSTYLE
  2
STANDARD
 70
           0
  3

  4

  5

  6

  7

 40
1.0
 41
0.18
 42
0.0625
 43
0.38
 44
0.18
 45
0.0
 46
0.0
 47
0.0
 48
0.0
 71
           0
 72
           0
 73
           1
 74
           1
 75
           0
 76
           0
 77
           0
 78
           0
140
0.18
141
0.09
142
0.0
143
25.4
144
1.0
145
0.0
146
1.0
147
0.09
170
           0
171
           2
172
           0
173
           0
174
           0
175
           0
176
           0
177
           0
178
           0
  0
ENDTAB
  0
ENDSEC
  0
SECTION
  2
BLOCKS
  0
BLOCK
  8
0
  5
164
  2
ELIPPSE
 70
          64
 10
0.0
 20
0.0
 30
0.0
  3
ELIPPSE
  0
CIRCLE
  8
0
  6
BYBLOCK
 62
           0
  5
165
 10
0.0
 20
0.0
 30
0.0
 40
1.0
  0
ENDBLK
  8
0
  6
BYBLOCK
 62
           0
  5
166
  0
BLOCK
  8
0
  5
167
  2
M08ANS_1
 70
          64
 10
0.0
 20
0.0
 30
0.0
  3
M08ANS_1
  0
LINE
  8
0
  6
BYBLOCK
 62
           0
  5
168
 10
6.499992370605
 20
-3.752792358398
 30
0.0
 11
6.499992370605
 21
3.75277709961
 31
0.0
  0
LINE
  8
0
  6
BYBLOCK
 62
           0
  5
169
 10
-6.5
 20
-3.752777099609
 30
0.0
 11
-6.5
 21
3.75276184082
 31
0.0
  0
LINE
  8
0
  6
BYBLOCK
 62
           0
  5
16A
 10
6.499992370605
 20
3.75277709961
 30
0.0
 11
0.000015258789
 21
7.505546569824
 31
0.0
  0
LINE
  8
0
  6
BYBLOCK
 62
           0
  5
16B
 10
0.000015258789
 20
-7.505561828613
 30
0.0
 11
-6.5
 21
-3.752777099609
 31
0.0
  0
LINE
  8
0
  6
BYBLOCK
 62
           0
  5
16C
 10
6.499992370605
 20
-3.752792358398
 30
0.0
 11
0.000015258789
 21
-7.505561828613
 31
0.0
  0
LINE
  8
0
  6
BYBLOCK
 62
           0
  5
16D
 10
0.000015258789
 20
7.505546569824
 30
0.0
 11
-6.5
 21
3.75276184082
 31
0.0
  0
CIRCLE
  8
0
  6
BYBLOCK
 62
           0
  5
16E
 10
0.0
 20
0.0
 30
0.0
 40
6.5
  0
ENDBLK
  8
0
  6
BYBLOCK
 62
           0
  5
16F
  0
BLOCK
  8
0
  5
170
  2
M08ANS_2
 70
          64
 10
0.0
 20
0.0
 30
0.0
  3
M08ANS_2
  0
LINE
  8
0
  6
BYBLOCK
 62
           0
  5
171
 10
6.499992370606
 20
-3.752792358398
 30
0.0
 11
6.499992370605
 21
3.75277709961
 31
0.0
  0
LINE
  8
0
  6
BYBLOCK
 62
           0
  5
172
 10
-6.5
 20
-3.752777099609
 30
0.0
 11
-6.5
 21
3.75276184082
 31
0.0
  0
LINE
  8
0
  6
BYBLOCK
 62
           0
  5
173
 10
6.499992370605
 20
3.75277709961
 30
0.0
 11
0.000015258789
 21
7.505546569824
 31
0.0
  0
LINE
  8
0
  6
BYBLOCK
 62
           0
  5
174
 10
0.000015258789
 20
-7.505561828613
 30
0.0
 11
-6.5
 21
-3.752777099609
 31
0.0
  0
LINE
  8
0
  6
BYBLOCK
 62
           0
  5
175
 10
6.499992370606
 20
-3.752792358398
 30
0.0
 11
0.000015258789
 21
-7.505561828613
 31
0.0
  0
LINE
  8
0
  6
BYBLOCK
 62
           0
  5
176
 10
0.000015258789
 20
7.505546569824
 30
0.0
 11
-6.5
 21
3.75276184082
 31
0.0
  0
CIRCLE
  8
0
  6
BYBLOCK
 62
           0
  5
177
 10
0.0
 20
0.0
 30
0.0
 40
6.5
  0
ENDBLK
  8
0
  6
BYBLOCK
 62
           0
  5
178
  0
BLOCK
  8
0
  5
179
  2
*X3
 70
          65
 10
0.0
 20
0.0
 30
0.0
  3
*X3
  0
LINE
  8
0
  6
BYBLOCK
 62
           0
  5
17A
 10
661.338254872752
 20
-493.168021250407
 30
0.0
 11
661.609817504883
 21
-492.896458618276
 31
0.0
  0
LINE
  8
0
  6
BYBLOCK
 62
           0
  5
17B
 10
657.095614185633
 20
-493.168021250407
 30
0.0
 11
661.609817504883
 21
-488.653817931157
 31
0.0
  0
LINE
  8
0
  6
BYBLOCK
 62
           0
  5
17C
 10
655.891067504883
 20
-490.129927244038
 30
0.0
 11
656.607757568359
 21
-489.413237180561
 31
0.0
  0
LINE
  8
0
  6
BYBLOCK
 62
           0
  5
17D
 10
656.607757568359
 20
-489.413237180561
 30
0.0
 11
661.252973498514
 21
-484.768021250407
 31
0.0
  0
LINE
  8
0
  6
BYBLOCK
 62
           0
  5
17E
 10
648.610332811394
 20
-493.168021250407
 30
0.0
 11
650.434813486034
 21
-491.343540575767
 31
0.0
  0
LINE
  8
0
  6
BYBLOCK
 62
           0
  5
17F
 10
651.609832763672
 20
-490.168521298129
 30
0.0
 11
652.32649230957
 21
-489.451861752231
 31
0.0
  0
LINE
  8
0
  6
BYBLOCK
 62
           0
  5
180
 10
655.891067504883
 20
-485.887286556918
 30
0.0
 11
656.607757568359
 21
-485.170596493442
 31
0.0
  0
LINE
  8
0
  6
BYBLOCK
 62
           0
  5
181
 10
656.607757568359
 20
-485.170596493442
 30
0.0
 11
657.010332811394
 21
-484.768021250407
 31
0.0
  0
LINE
  8
0
  6
BYBLOCK
 62
           0
  5
182
 10
644.367692124275
 20
-493.168021250407
 30
0.0
 11
651.357910338437
 21
-486.177803036245
 31
0.0
  0
LINE
  8
0
  6
BYBLOCK
 62
           0
  5
183
 10
651.609832763672
 20
-485.92588061101
 30
0.0
 11
652.32649230957
 21
-485.209221065112
 31
0.0
  0
LINE
  8
0
  6
BYBLOCK
 62
           0
  5
184
 10
640.125051437156
 20
-493.168021250407
 30
0.0
 11
648.525051437156
 21
-484.768021250407
 31
0.0
  0
LINE
  8
0
  6
BYBLOCK
 62
           0
  5
185
 10
635.882410750037
 20
-493.168021250407
 30
0.0
 11
644.282410750037
 21
-484.768021250407
 31
0.0
  0
LINE
  8
0
  6
BYBLOCK
 62
           0
  5
186
 10
631.639770062917
 20
-493.168021250407
 30
0.0
 11
640.039770062917
 21
-484.768021250407
 31
0.0
  0
LINE
  8
0
  6
BYBLOCK
 62
           0
  5
187
 10
629.109832763672
 20
-491.455317862533
 30
0.0
 11
630.891067504883
 21
-489.674083121322
 31
0.0
  0
LINE
  8
0
  6
BYBLOCK
 62
           0
  5
188
 10
630.891067504883
 20
-489.674083121322
 30
0.0
 11
631.607757568359
 21
-488.957393057846
 31
0.0
  0
LINE
  8
0
  6
BYBLOCK
 62
           0
  5
189
 10
631.607757568359
 20
-488.957393057846
 30
0.0
 11
635.797129375798
 21
-484.768021250407
 31
0.0
  0
LINE
  8
0
  6
BYBLOCK
 62
           0
  5
18A
 10
629.109832763672
 20
-487.212677175414
 30
0.0
 11
630.891067504883
 21
-485.431442434203
 31
0.0
  0
LINE
  8
0
  6
BYBLOCK
 62
           0
  5
18B
 10
630.891067504883
 20
-485.431442434203
 30
0.0
 11
631.554488688679
 21
-484.768021250407
 31
0.0
  0
ENDBLK
  8
0
  6
BYBLOCK
 62
           0
  5
18C
  0
BLOCK
  8
0
  5
18D
  2
*X4
 70
          65
 10
0.0
 20
0.0
 30
0.0
  3
*X4
  0
LINE
  8
0
  6
BYBLOCK
 62
           0
  5
18E
 10
627.397129375798
 20
-493.168021250407
 30
0.0
 11
629.109832763672
 21
-491.455317862533
 31
0.0
  0
LINE
  8
0
  6
BYBLOCK
 62
           0
  5
18F
 10
623.154488688679
 20
-493.168021250407
 30
0.0
 11
626.609832763672
 21
-489.712677175414
 31
0.0
  0
LINE
  8
0
  6
BYBLOCK
 62
           0
  5
190
 10
626.609832763672
 20
-489.712677175414
 30
0.0
 11
627.32649230957
 21
-488.996017629515
 31
0.0
  0
LINE
  8
0
  6
BYBLOCK
 62
           0
  5
191
 10
627.32649230957
 20
-488.996017629515
 30
0.0
 11
629.109832763672
 21
-487.212677175414
 31
0.0
  0
LINE
  8
0
  6
BYBLOCK
 62
           0
  5
192
 10
618.911848001559
 20
-493.168021250407
 30
0.0
 11
626.609832763672
 21
-485.470036488294
 31
0.0
  0
LINE
  8
0
  6
BYBLOCK
 62
           0
  5
193
 10
626.609832763672
 20
-485.470036488294
 30
0.0
 11
627.311848001559
 21
-484.768021250407
 31
0.0
  0
LINE
  8
0
  6
BYBLOCK
 62
           0
  5
194
 10
614.66920731444
 20
-493.168021250407
 30
0.0
 11
623.06920731444
 21
-484.768021250407
 31
0.0
  0
LINE
  8
0
  6
BYBLOCK
 62
           0
  5
195
 10
610.426566627321
 20
-493.168021250407
 30
0.0
 11
618.826566627321
 21
-484.768021250407
 31
0.0
  0
LINE
  8
0
  6
BYBLOCK
 62
           0
  5
196
 10
606.183925940201
 20
-493.168021250407
 30
0.0
 11
606.607757568359
 21
-492.744189622249
 31
0.0
  0
LINE
  8
0
  6
BYBLOCK
 62
           0
  5
197
 10
606.607757568359
 20
-492.744189622249
 30
0.0
 11
614.583925940201
 21
-484.768021250407
 31
0.0
  0
LINE
  8
0
  6
BYBLOCK
 62
           0
  5
198
 10
601.941285253082
 20
-493.168021250407
 30
0.0
 11
602.32649230957
 21
-492.782814193919
 31
0.0
  0
LINE
  8
0
  6
BYBLOCK
 62
           0
  5
199
 10
605.891067504883
 20
-489.218238998606
 30
0.0
 11
606.607757568359
 21
-488.50154893513
 31
0.0
  0
LINE
  8
0
  6
BYBLOCK
 62
           0
  5
19A
 10
606.607757568359
 20
-488.50154893513
 30
0.0
 11
610.341285253082
 21
-484.768021250407
 31
0.0
  0
LINE
  8
0
  6
BYBLOCK
 62
           0
  5
19B
 10
597.698644565963
 20
-493.168021250407
 30
0.0
 11
601.609832763672
 21
-489.256833052698
 31
0.0
  0
LINE
  8
0
  6
BYBLOCK
 62
           0
  5
19C
 10
601.609832763672
 20
-489.256833052698
 30
0.0
 11
602.32649230957
 21
-488.5401735068
 31
0.0
  0
LINE
  8
0
  6
BYBLOCK
 62
           0
  5
19D
 10
605.891067504883
 20
-484.975598311487
 30
0.0
 11
606.098644565963
 21
-484.768021250407
 31
0.0
  0
LINE
  8
0
  6
BYBLOCK
 62
           0
  5
19E
 10
596.609817504883
 20
-490.014207624368
 30
0.0
 11
601.609832763672
 21
-485.014192365579
 31
0.0
  0
LINE
  8
0
  6
BYBLOCK
 62
           0
  5
19F
 10
601.609832763672
 20
-485.014192365579
 30
0.0
 11
601.856003878844
 21
-484.768021250407
 31
0.0
  0
LINE
  8
0
  6
BYBLOCK
 62
           0
  5
1A0
 10
596.609817504883
 20
-485.771566937249
 30
0.0
 11
597.613363191724
 21
-484.768021250407
 31
0.0
  0
ENDBLK
  8
0
  6
BYBLOCK
 62
           0
  5
1A1
  0
BLOCK
  8
0
  5
1A2
  2
*X5
 70
          65
 10
0.0
 20
0.0
 30
0.0
  3
*X5
  0
LINE
  8
0
  6
BYBLOCK
 62
           0
  5
1A3
 10
641.109832763672
 20
-496.352040174903
 30
0.0
 11
639.254818965165
 21
-494.497026376396
 31
0.0
  0
LINE
  8
0
  6
BYBLOCK
 62
           0
  5
1A4
 10
637.788749850056
 20
-497.273597948406
 30
0.0
 11
634.783162394273
 21
-494.268010492623
 31
0.0
  0
LINE
  8
0
  6
BYBLOCK
 62
           0
  5
1A5
 10
639.544353727774
 20
-503.271842513243
 30
0.0
 11
634.609832763672
 21
-498.337321549141
 31
0.0
  0
LINE
  8
0
  6
BYBLOCK
 62
           0
  5
1A6
 10
638.109832763672
 20
-506.07996223626
 30
0.0
 11
631.859832763672
 21
-499.82996223626
 31
0.0
  0
LINE
  8
0
  6
BYBLOCK
 62
           0
  5
1A7
 10
637.555251090699
 20
-509.768021250407
 30
0.0
 11
633.209838867188
 21
-505.422609026895
 31
0.0
  0
LINE
  8
0
  6
BYBLOCK
 62
           0
  5
1A8
 10
623.609896494146
 20
-495.822666653854
 30
0.0
 11
622.055206731847
 21
-494.267976891555
 31
0.0
  0
LINE
  8
0
  6
BYBLOCK
 62
           0
  5
1A9
 10
633.31261040358
 20
-509.768021250407
 30
0.0
 11
631.859832763672
 21
-508.315243610499
 31
0.0
  0
LINE
  8
0
  6
BYBLOCK
 62
           0
  5
1AA
 10
625.312587172167
 20
-501.767998018994
 30
0.0
 11
618.379529780761
 21
-494.834940627588
 31
0.0
  0
LINE
  8
0
  6
BYBLOCK
 62
           0
  5
1AB
 10
626.359832141364
 20
-507.05788367531
 30
0.0
 11
626.06995183157
 21
-506.768003365516
 31
0.0
  0
LINE
  8
0
  6
BYBLOCK
 62
           0
  5
1AC
 10
625.009833980427
 20
-505.707885514374
 30
0.0
 11
620.405250670965
 21
-501.103302204911
 31
0.0
  0
LINE
  8
0
  6
BYBLOCK
 62
           0
  5
1AD
 10
624.827304863938
 20
-509.767997085004
 30
0.0
 11
620.109832763672
 21
-505.050524984738
 31
0.0
  0
LINE
  8
0
  6
BYBLOCK
 62
           0
  5
1AE
 10
617.860848389068
 20
-502.801540610133
 30
0.0
 11
617.109861013093
 21
-502.050553234159
 31
0.0
  0
LINE
  8
0
  6
BYBLOCK
 62
           0
  5
1AF
 10
620.58464206819
 20
-509.767974976375
 30
0.0
 11
620.109832763672
 21
-509.293165671857
 31
0.0
  0
ENDBLK
  8
0
  6
BYBLOCK
 62
           0
  5
1B0
  0
ENDSEC
  0
SECTION
  2
ENTITIES
  0
INSERT
  8
ZEICHNUNG
  6
AUSGEZOGEN
 62
           1
  5
2B
  2
M08ANS_1
 10
516.609817504883
 20
-618.768021250407
 30
0.0
 41
0.538461538462
 42
0.538461538462
 50
30.0
 43
0.538461538462
  0
INSERT
  8
ZEICHNUNG
  6
AUSGEZOGEN
 62
           1
  5
2C
  2
M08ANS_2
 10
471.609817504883
 20
-618.768021250407
 30
0.0
 41
0.538461538462
 42
0.538461538462
 50
30.0
 43
0.538461538462
  0
LINE
  8
ZEICHNUNG
  6
AUSGEZOGEN
 62
           1
  5
2D
 10
451.609817504883
 20
-484.768021250407
 30
0.0
 11
536.609817504883
 21
-484.768021250407
 31
0.0
  0
LINE
  8
ZEICHNUNG
  6
AUSGEZOGEN
 62
           1
  5
2E
 10
536.609817504883
 20
-493.168021250407
 30
0.0
 11
536.609817504883
 21
-484.768021250407
 31
0.0
  0
LINE
  8
ZEICHNUNG
  6
AUSGEZOGEN
 62
           1
  5
2F
 10
451.609817504883
 20
-493.168021250407
 30
0.0
 11
451.609817504883
 21
-484.768021250407
 31
0.0
  0
LINE
  8
BEMAßUNG
  6
STRICHPUNKT
 62
           2
  5
30
 10
395.0
 20
-597.768021250407
 30
0.0
 11
662.5
 21
-597.768021250407
 31
0.0
  0
LINE
  8
BEMAßUNG
  6
STRICHPUNKT
 62
           2
  5
31
 10
494.109817504883
 20
-506.790416835339
 30
0.0
 11
494.109817504883
 21
-481.4815773222
 31
0.0
  0
LINE
  8
ZEICHNUNG
  6
AUSGEZOGEN
 62
           1
  5
32
 10
451.609817504883
 20
-565.268036509196
 30
0.0
 11
536.609817504883
 21
-565.268036509196
 31
0.0
  0
LINE
  8
ZEICHNUNG
  6
AUSGEZOGEN
 62
           1
  5
33
 10
451.609817504883
 20
-630.268036509196
 30
0.0
 11
536.609817504883
 21
-630.268036509196
 31
0.0
  0
LINE
  8
ZEICHNUNG
  6
AUSGEZOGEN
 62
           1
  5
34
 10
536.609817504883
 20
-565.268036509196
 30
0.0
 11
536.609817504883
 21
-630.268036509196
 31
0.0
  0
LINE
  8
ZEICHNUNG
  6
AUSGEZOGEN
 62
           1
  5
35
 10
451.609817504883
 20
-565.268036509196
 30
0.0
 11
451.609817504883
 21
-630.268036509196
 31
0.0
  0
LINE
  8
ZEICHNUNG
  6
AUSGEZOGEN
 62
           1
  5
36
 10
451.609817504883
 20
-565.268021250407
 30
0.0
 11
536.609817504883
 21
-565.268021250407
 31
0.0
  0
LINE
  8
ZEICHNUNG
  6
AUSGEZOGEN
 62
           1
  5
37
 10
451.609817504883
 20
-630.268021250407
 30
0.0
 11
536.609817504883
 21
-630.268021250407
 31
0.0
  0
LINE
  8
ZEICHNUNG
  6
AUSGEZOGEN
 62
           1
  5
38
 10
536.609817504883
 20
-611.318039560954
 30
0.0
 11
536.609817504883
 21
-630.268021250407
 31
0.0
  0
LINE
  8
ZEICHNUNG
  6
AUSGEZOGEN
 62
           1
  5
39
 10
536.609817504883
 20
-565.268021250407
 30
0.0
 11
536.609817504883
 21
-607.914414072673
 31
0.0
  0
LINE
  8
ZEICHNUNG
  6
AUSGEZOGEN
 62
           1
  5
3A
 10
451.609817504883
 20
-565.268021250407
 30
0.0
 11
451.609817504883
 21
-630.268021250407
 31
0.0
  0
LINE
  8
BEMAßUNG
  6
STRICHPUNKT
 62
           2
  5
3B
 10
460.0
 20
-576.768021250407
 30
0.0
 11
530.663223266602
 21
-576.768021250407
 31
0.0
  0
LINE
  8
BEMAßUNG
  6
STRICHPUNKT
 62
           2
  5
3C
 10
494.109817504883
 20
-565.268021250407
 30
0.0
 11
494.109817504883
 21
-630.268021250407
 31
0.0
  0
LINE
  8
BEMAßUNG
  6
STRICHPUNKT
 62
           2
  5
3D
 10
516.609817504883
 20
-565.268021250407
 30
0.0
 11
516.609817504883
 21
-630.268021250407
 31
0.0
  0
LINE
  8
BEMAßUNG
  6
STRICHPUNKT
 62
           2
  5
3E
 10
471.609817504883
 20
-565.268021250407
 30
0.0
 11
471.609817504883
 21
-630.268021250407
 31
0.0
  0
ARC
  8
ZEICHNUNG
  6
AUSGEZOGEN
 62
           1
  5
3F
 10
516.609817504883
 20
-576.768021250407
 30
0.0
 40
2.0
 50
0.0
 51
0.0
  0
CIRCLE
  8
MITTELLINIEN
  6
AUSGEZOGEN
 62
           2
  5
40
 10
516.609817504883
 20
-576.768021250407
 30
0.0
 40
1.585
  0
ARC
  8
ZEICHNUNG
  6
AUSGEZOGEN
 62
           1
  5
41
 10
471.609817504883
 20
-576.768021250407
 30
0.0
 40
2.0
 50
0.0
 51
0.0
  0
CIRCLE
  8
MITTELLINIEN
  6
AUSGEZOGEN
 62
           2
  5
42
 10
471.609817504883
 20
-576.768021250407
 30
0.0
 40
1.585
  0
LINE
  8
BEMAßUNG
  6
STRICHPUNKT
 62
           2
  5
43
 10
484.507960867377
 20
-572.768021250407
 30
0.0
 11
504.163223266602
 21
-572.768021250407
 31
0.0
  0
LINE
  8
BEMAßUNG
  6
STRICHPUNKT
 62
           2
  5
44
 10
464.109817504883
 20
-590.0
 30
0.0
 11
464.109817504883
 21
-605.075418411611
 31
0.0
  0
LINE
  8
BEMAßUNG
  6
STRICHPUNKT
 62
           2
  5
45
 10
524.109817504883
 20
-590.0
 30
0.0
 11
524.109817504883
 21
-605.0
 31
0.0
  0
ARC
  8
MITTELLINIEN
  6
AUSGEZOGEN
 62
           2
  5
46
 10
464.109817504883
 20
-597.768021250407
 30
0.0
 40
2.5
 50
16.264561532556
 51
284.18796237198
  0
CIRCLE
  8
ZEICHNUNG
  6
AUSGEZOGEN
 62
           1
  5
47
 10
464.109817504883
 20
-597.768021250407
 30
0.0
 40
1.78
  0
ARC
  8
MITTELLINIEN
  6
AUSGEZOGEN
 62
           2
  5
48
 10
524.109817504883
 20
-597.768021250407
 30
0.0
 40
2.5
 50
16.264561532556
 51
284.18796237198
  0
CIRCLE
  8
ZEICHNUNG
  6
AUSGEZOGEN
 62
           1
  5
49
 10
524.109817504883
 20
-597.768021250407
 30
0.0
 40
1.78
  0
ARC
  8
MITTELLINIEN
  6
AUSGEZOGEN
 62
           2
  5
4A
 10
494.109817504883
 20
-572.768021250407
 30
0.0
 40
2.5
 50
16.264561532556
 51
284.18796237198
  0
CIRCLE
  8
ZEICHNUNG
  6
AUSGEZOGEN
 62
           1
  5
4B
 10
494.109817504883
 20
-572.768021250407
 30
0.0
 40
1.78
  0
LINE
  8
BEMAßUNG
  6
STRICHPUNKT
 62
           2
  5
4C
 10
460.0
 20
-618.768021250407
 30
0.0
 11
530.663223266602
 21
-618.768021250407
 31
0.0
  0
LINE
  8
BEMAßUNG
  6
STRICHPUNKT
 62
           2
  5
4D
 10
484.507960867377
 20
-622.768021250407
 30
0.0
 11
504.163223266602
 21
-622.768021250407
 31
0.0
  0
ARC
  8
MITTELLINIEN
  6
AUSGEZOGEN
 62
           2
  5
4E
 10
494.109817504883
 20
-622.768021250407
 30
0.0
 40
2.5
 50
75.812037628019
 51
343.735438467443
  0
CIRCLE
  8
ZEICHNUNG
  6
AUSGEZOGEN
 62
           1
  5
4F
 10
494.109817504883
 20
-622.768021250407
 30
0.0
 40
1.78
  0
CIRCLE
  8
UNSICHTBARE
  6
VERDECKT
 62
           2
  5
50
 10
516.609817504883
 20
-576.768021250407
 30
0.0
 40
8.5
  0
CIRCLE
  8
UNSICHTBARE
  6
VERDECKT
 62
           2
  5
51
 10
471.609817504883
 20
-576.768021250407
 30
0.0
 40
8.5
  0
CIRCLE
  8
UNSICHTBARE
  6
VERDECKT
 62
           2
  5
52
 10
471.609817504883
 20
-618.768021250407
 30
0.0
 40
8.5
  0
CIRCLE
  8
UNSICHTBARE
  6
VERDECKT
 62
           2
  5
53
 10
516.609817504883
 20
-618.768021250407
 30
0.0
 40
8.5
  0
LINE
  8
BEMAßUNG
  6
STRICHPUNKT
 62
           2
  5
54
 10
524.109817504883
 20
-495.0
 30
0.0
 11
524.109817504883
 21
-481.58589572266
 31
0.0
  0
LINE
  8
BEMAßUNG
  6
STRICHPUNKT
 62
           2
  5
55
 10
464.109817504883
 20
-495.0
 30
0.0
 11
464.109817504883
 21
-481.69021412312
 31
0.0
  0
LINE
  8
UNSICHTBARE
  6
VERDECKT
 62
           2
  5
56
 10
492.326477050781
 20
-484.768021250407
 30
0.0
 11
492.326477050781
 21
-493.168021250407
 31
0.0
  0
LINE
  8
UNSICHTBARE
  6
VERDECKT
 62
           2
  5
57
 10
495.891052246094
 20
-484.768021250407
 30
0.0
 11
495.891052246094
 21
-493.168021250407
 31
0.0
  0
LINE
  8
UNSICHTBARE
  6
VERDECKT
 62
           2
  5
58
 10
491.609817504883
 20
-484.768021250407
 30
0.0
 11
491.609817504883
 21
-493.168021250407
 31
0.0
  0
LINE
  8
UNSICHTBARE
  6
VERDECKT
 62
           2
  5
59
 10
496.60774230957
 20
-484.768021250407
 30
0.0
 11
496.60774230957
 21
-493.168021250407
 31
0.0
  0
LINE
  8
ZEICHNUNG
  6
AUSGEZOGEN
 62
           1
  5
5A
 10
631.859832763672
 20
-509.768021250407
 30
0.0
 11
638.109832763672
 21
-509.768021250407
 31
0.0
  0
LINE
  8
ZEICHNUNG
  6
AUSGEZOGEN
 62
           1
  5
5B
 10
634.609832763672
 20
-498.868021250407
 30
0.0
 11
634.609832763672
 21
-494.268021250407
 31
0.0
  0
LINE
  8
ZEICHNUNG
  6
AUSGEZOGEN
 62
           1
  5
5C
 10
631.859832763672
 20
-501.768021250407
 30
0.0
 11
631.859832763672
 21
-498.868021250407
 31
0.0
  0
LINE
  8
ZEICHNUNG
  6
AUSGEZOGEN
 62
           1
  5
5D
 10
631.859832763672
 20
-509.768021250407
 30
0.0
 11
631.859832763672
 21
-506.768021250407
 31
0.0
  0
LINE
  8
ZEICHNUNG
  6
AUSGEZOGEN
 62
           1
  5
5E
 10
631.859832763672
 20
-506.768021250407
 30
0.0
 11
633.209838867188
 21
-506.768021250407
 31
0.0
  0
LINE
  8
ZEICHNUNG
  6
AUSGEZOGEN
 62
           1
  5
5F
 10
633.209838867188
 20
-506.768021250407
 30
0.0
 11
633.209838867188
 21
-501.768021250407
 31
0.0
  0
LINE
  8
ZEICHNUNG
  6
AUSGEZOGEN
 62
           1
  5
60
 10
638.859832763672
 20
-496.668021250407
 30
0.0
 11
640.109832763672
 21
-496.668021250407
 31
0.0
  0
LINE
  8
ZEICHNUNG
  6
AUSGEZOGEN
 62
           1
  5
61
 10
638.859832763672
 20
-501.668021250407
 30
0.0
 11
640.109832763672
 21
-501.668021250407
 31
0.0
  0
LINE
  8
BEMAßUNG
  6
STRICHPUNKT
 62
           2
  5
62
 10
640.109832763672
 20
-502.367407847087
 30
0.0
 11
640.109832763672
 21
-495.808357859294
 31
0.0
  0
LINE
  8
ZEICHNUNG
  6
AUSGEZOGEN
 62
           1
  5
63
 10
637.609832763672
 20
-500.418021250407
 30
0.0
 11
637.609832763672
 21
-497.918021250407
 31
0.0
  0
LINE
  8
BEMAßUNG
  6
STRICHPUNKT
 62
           2
  5
64
 10
637.093124389648
 20
-499.168021250407
 30
0.0
 11
643.026260375977
 21
-499.168021250407
 31
0.0
  0
CIRCLE
  8
ZEICHNUNG
  6
AUSGEZOGEN
 62
           1
  5
65
 10
640.109832763672
 20
-499.168021250407
 30
0.0
 40
2.5
  0
LINE
  8
ZEICHNUNG
  6
AUSGEZOGEN
 62
           1
  5
66
 10
641.109832763672
 20
-496.745886850993
 30
0.0
 11
641.109832763672
 21
-495.56801667277
 31
0.0
  0
LINE
  8
ZEICHNUNG
  6
AUSGEZOGEN
 62
           1
  5
67
 10
641.109832763672
 20
-502.368018198649
 30
0.0
 11
641.109832763672
 21
-501.590155649821
 31
0.0
  0
LINE
  8
ZEICHNUNG
  6
AUSGEZOGEN
 62
           1
  5
68
 10
641.109832763672
 20
-495.56801667277
 30
0.0
 11
638.858169555664
 21
-494.268021250407
 31
0.0
  0
LINE
  8
ZEICHNUNG
  6
AUSGEZOGEN
 62
           1
  5
69
 10
641.109832763672
 20
-496.745886850993
 30
0.0
 11
640.90983581543
 21
-496.79947571818
 31
0.0
  0
LINE
  8
ZEICHNUNG
  6
AUSGEZOGEN
 62
           1
  5
6A
 10
641.109832763672
 20
-501.590155649821
 30
0.0
 11
640.90983581543
 21
-501.536566782633
 31
0.0
  0
ARC
  8
ZEICHNUNG
  6
AUSGEZOGEN
 62
           1
  5
6B
 10
638.859832763672
 20
-497.918021250407
 30
0.0
 40
1.25
 50
90.000002504479
 51
180.00000500895
  0
ARC
  8
ZEICHNUNG
  6
AUSGEZOGEN
 62
           1
  5
6C
 10
638.859832763672
 20
-500.418021250407
 30
0.0
 40
1.25
 50
180.000005008955
 51
269.99999749552
  0
LINE
  8
ZEICHNUNG
  6
AUSGEZOGEN
 62
           1
  5
6D
 10
638.109832763672
 20
-504.100058603923
 30
0.0
 11
641.109832763672
 21
-502.368018198649
 31
0.0
  0
ARC
  8
ZEICHNUNG
  6
AUSGEZOGEN
 62
           1
  5
6E
 10
640.10984802246
 20
-499.168021250409
 30
0.0
 40
2.500000000002
 50
71.337193616345
 51
90.000186919576
  0
ARC
  8
ZEICHNUNG
  6
AUSGEZOGEN
 62
           1
  5
6F
 10
640.10984802246
 20
-499.168021250404
 30
0.0
 40
2.500000000002
 50
269.999813080423
 51
288.662806383655
  0
ARC
  8
ZEICHNUNG
  6
AUSGEZOGEN
 62
           1
  5
70
 10
618.109832763672
 20
-499.168021250407
 30
0.0
 40
2.5
 50
126.870072498886
 51
233.129927501113
  0
LINE
  8
BEMAßUNG
  6
STRICHPUNKT
 62
           2
  5
71
 10
629.109832763672
 20
-515.0
 30
0.0
 11
629.109832763672
 21
-481.58589572266
 31
0.0
  0
LINE
  8
ZEICHNUNG
  6
AUSGEZOGEN
 62
           1
  5
72
 10
661.609832763672
 20
-484.768021250407
 30
0.0
 11
596.609832763672
 21
-484.768021250407
 31
0.0
  0
LINE
  8
ZEICHNUNG
  6
AUSGEZOGEN
 62
           1
  5
73
 10
661.609817504883
 20
-493.168021250407
 30
0.0
 11
661.609817504883
 21
-484.768021250407
 31
0.0
  0
LINE
  8
ZEICHNUNG
  6
AUSGEZOGEN
 62
           1
  5
74
 10
661.609817504883
 20
-484.768021250407
 30
0.0
 11
596.609817504883
 21
-484.768021250407
 31
0.0
  0
LINE
  8
ZEICHNUNG
  6
AUSGEZOGEN
 62
           1
  5
75
 10
596.609817504883
 20
-493.168021250407
 30
0.0
 11
596.609817504883
 21
-484.768021250407
 31
0.0
  0
LINE
  8
ZEICHNUNG
  6
AUSGEZOGEN
 62
           1
  5
76
 10
626.359816196589
 20
-509.768005070961
 30
0.0
 11
620.109832763672
 21
-509.767972502131
 31
0.0
  0
LINE
  8
ZEICHNUNG
  6
AUSGEZOGEN
 62
           1
  5
77
 10
638.858169555664
 20
-494.268021250407
 30
0.0
 11
619.361567655958
 21
-494.267969780503
 31
0.0
  0
LINE
  8
ZEICHNUNG
  6
AUSGEZOGEN
 62
           1
  5
78
 10
623.609880914217
 20
-498.867991833463
 30
0.0
 11
623.609904447885
 21
-494.267991833532
 31
0.0
  0
LINE
  8
ZEICHNUNG
  6
AUSGEZOGEN
 62
           1
  5
79
 10
626.359863263926
 20
-501.768005071099
 30
0.0
 11
626.359880914178
 21
-498.868005071151
 31
0.0
  0
LINE
  8
ZEICHNUNG
  6
AUSGEZOGEN
 62
           1
  5
7A
 10
626.359816196589
 20
-509.768005070961
 30
0.0
 11
626.359833846841
 21
-506.768005071013
 31
0.0
  0
LINE
  8
ZEICHNUNG
  6
AUSGEZOGEN
 62
           1
  5
7B
 10
626.359833846841
 20
-506.768005071013
 30
0.0
 11
625.009827743348
 21
-506.767997128364
 31
0.0
  0
LINE
  8
ZEICHNUNG
  6
AUSGEZOGEN
 62
           1
  5
7C
 10
633.209838867188
 20
-501.768021250407
 30
0.0
 11
625.009857160434
 21
-501.76799712845
 31
0.0
  0
LINE
  8
ZEICHNUNG
  6
AUSGEZOGEN
 62
           1
  5
7D
 10
625.009827743348
 20
-506.767997128364
 30
0.0
 11
625.009857160434
 21
-501.76799712845
 31
0.0
  0
LINE
  8
ZEICHNUNG
  6
AUSGEZOGEN
 62
           1
  5
7E
 10
634.609832763672
 20
-498.868021250407
 30
0.0
 11
623.609880914217
 21
-498.867991833463
 31
0.0
  0
LINE
  8
ZEICHNUNG
  6
AUSGEZOGEN
 62
           1
  5
7F
 10
619.359892681116
 20
-496.667969770683
 30
0.0
 11
618.109892681138
 21
-496.667962416412
 31
0.0
  0
LINE
  8
ZEICHNUNG
  6
AUSGEZOGEN
 62
           1
  5
80
 10
619.35986326403
 20
-501.667969770597
 30
0.0
 11
618.109863264052
 21
-501.667962416325
 31
0.0
  0
LINE
  8
BEMAßUNG
  6
STRICHPUNKT
 62
           2
  5
81
 10
618.109859149269
 20
-502.367349012993
 30
0.0
 11
618.109895385529
 21
-495.808299025306
 31
0.0
  0
LINE
  8
ZEICHNUNG
  6
AUSGEZOGEN
 62
           1
  5
82
 10
620.60987061828
 20
-500.41797712489
 30
0.0
 11
620.609885326823
 21
-497.917977124933
 31
0.0
  0
LINE
  8
BEMAßUNG
  6
STRICHPUNKT
 62
           2
  5
83
 10
621.126586346566
 20
-499.167980164922
 30
0.0
 11
615.193450360341
 21
-499.167945257808
 31
0.0
  0
CIRCLE
  8
ZEICHNUNG
  6
AUSGEZOGEN
 62
           1
  5
84
 10
618.109877972595
 20
-499.167962416368
 30
0.0
 40
2.5
  0
LINE
  8
ZEICHNUNG
  6
AUSGEZOGEN
 62
           1
  5
85
 10
617.109892223039
 20
-496.745822133579
 30
0.0
 11
617.109896799574
 21
-495.56795195537
 31
0.0
  0
LINE
  8
ZEICHNUNG
  6
AUSGEZOGEN
 62
           1
  5
86
 10
617.109859145695
 20
-502.367953481138
 30
0.0
 11
617.109863722185
 21
-501.590090932323
 31
0.0
  0
LINE
  8
ZEICHNUNG
  6
AUSGEZOGEN
 62
           1
  5
87
 10
617.109896799574
 20
-495.56795195537
 30
0.0
 11
619.361567655958
 21
-494.267969780503
 31
0.0
  0
LINE
  8
ZEICHNUNG
  6
AUSGEZOGEN
 62
           1
  5
88
 10
617.109892223039
 20
-496.745822133579
 30
0.0
 11
617.309888855992
 21
-496.799412177431
 31
0.0
  0
LINE
  8
ZEICHNUNG
  6
AUSGEZOGEN
 62
           1
  5
89
 10
617.109863722185
 20
-501.590090932323
 30
0.0
 11
617.309860985709
 21
-501.536503241802
 31
0.0
  0
ARC
  8
ZEICHNUNG
  6
AUSGEZOGEN
 62
           1
  5
8A
 10
619.359885326845
 20
-497.917969770662
 30
0.0
 40
1.25
 50
359.999657896075
 51
89.999660400547
  0
ARC
  8
ZEICHNUNG
  6
AUSGEZOGEN
 62
           1
  5
8B
 10
619.359870618302
 20
-500.417969770618
 30
0.0
 40
1.25
 50
269.9996654095
 51
359.999657896075
  0
LINE
  8
ZEICHNUNG
  6
AUSGEZOGEN
 62
           1
  5
8C
 10
620.109832763672
 20
-504.100002188306
 30
0.0
 11
617.109859145695
 21
-502.367953481138
 31
0.0
  0
ARC
  8
ZEICHNUNG
  6
AUSGEZOGEN
 62
           1
  5
8D
 10
618.109862713806
 20
-499.167962416279
 30
0.0
 40
2.5
 50
89.999475985442
 51
108.662469288692
  0
ARC
  8
ZEICHNUNG
  6
AUSGEZOGEN
 62
           1
  5
8E
 10
618.109862713805
 20
-499.167962416281
 30
0.0
 40
2.499999999998
 50
251.336856521355
 51
269.999849824623
  0
LINE
  8
BEMAßUNG
  6
STRICHPUNKT
 62
           2
  5
8F
 10
654.109832763672
 20
-495.0
 30
0.0
 11
654.109832763672
 21
-481.4815773222
 31
0.0
  0
LINE
  8
BEMAßUNG
  6
STRICHPUNKT
 62
           2
  5
90
 10
604.109832763672
 20
-495.0
 30
0.0
 11
604.109832763672
 21
-481.69021412312
 31
0.0
  0
LINE
  8
UNSICHTBARE
  6
VERDECKT
 62
           2
  5
91
 10
627.32649230957
 20
-484.768021250407
 30
0.0
 11
627.32649230957
 21
-493.168021250407
 31
0.0
  0
LINE
  8
UNSICHTBARE
  6
VERDECKT
 62
           2
  5
92
 10
630.891067504883
 20
-484.768021250407
 30
0.0
 11
630.891067504883
 21
-493.168021250407
 31
0.0
  0
LINE
  8
UNSICHTBARE
  6
VERDECKT
 62
           2
  5
93
 10
626.609832763672
 20
-484.768021250407
 30
0.0
 11
626.609832763672
 21
-493.168021250407
 31
0.0
  0
LINE
  8
UNSICHTBARE
  6
VERDECKT
 62
           2
  5
94
 10
631.607757568359
 20
-484.768021250407
 30
0.0
 11
631.607757568359
 21
-493.168021250407
 31
0.0
  0
LINE
  8
ZEICHNUNG
  6
AUSGEZOGEN
 62
           1
  5
95
 10
620.109832763672
 20
-509.767972502131
 30
0.0
 11
620.109832763672
 21
-504.100002188306
 31
0.0
  0
LINE
  8
ZEICHNUNG
  6
AUSGEZOGEN
 62
           1
  5
96
 10
638.109832763672
 20
-509.768021250407
 30
0.0
 11
638.109832763672
 21
-504.100058603923
 31
0.0
  0
LINE
  8
ZEICHNUNG
  6
AUSGEZOGEN
 62
           1
  5
97
 10
661.609832763672
 20
-493.168021250407
 30
0.0
 11
596.609832763672
 21
-493.168021250407
 31
0.0
  0
LINE
  8
ZEICHNUNG
  6
AUSGEZOGEN
 62
           1
  5
98
 10
616.609826660156
 20
-497.168025828058
 30
0.0
 11
616.609826660156
 21
-496.168021250407
 31
0.0
  0
LINE
  8
ZEICHNUNG
  6
AUSGEZOGEN
 62
           1
  5
99
 10
616.609826660156
 20
-502.168021250407
 30
0.0
 11
616.609826660156
 21
-501.168016672756
 31
0.0
  0
LINE
  8
ZEICHNUNG
  6
AUSGEZOGEN
 62
           1
  5
9A
 10
599.609826660156
 20
-497.166448264037
 30
0.0
 11
599.609826660156
 21
-496.168021250407
 31
0.0
  0
LINE
  8
ZEICHNUNG
  6
AUSGEZOGEN
 62
           1
  5
9B
 10
599.609826660156
 20
-502.168021250407
 30
0.0
 11
599.609826660156
 21
-501.169594236777
 31
0.0
  0
LINE
  8
ZEICHNUNG
  6
AUSGEZOGEN
 62
           1
  5
9C
 10
608.110879516602
 20
-495.668021250407
 30
0.0
 11
600.109826660156
 21
-495.668021250407
 31
0.0
  0
LINE
  8
ZEICHNUNG
  6
AUSGEZOGEN
 62
           1
  5
9D
 10
616.109826660156
 20
-495.668021250407
 30
0.0
 11
608.110879516602
 21
-495.668021250407
 31
0.0
  0
LINE
  8
ZEICHNUNG
  6
AUSGEZOGEN
 62
           1
  5
9E
 10
600.109826660156
 20
-502.668021250407
 30
0.0
 11
616.109826660156
 21
-502.668021250407
 31
0.0
  0
LINE
  8
ZEICHNUNG
  6
AUSGEZOGEN
 62
           1
  5
9F
 10
616.609826660156
 20
-496.168021250407
 30
0.0
 11
616.109826660156
 21
-495.668021250407
 31
0.0
  0
LINE
  8
ZEICHNUNG
  6
AUSGEZOGEN
 62
           1
  5
A0
 10
600.109826660156
 20
-495.668021250407
 30
0.0
 11
599.609826660156
 21
-496.168021250407
 31
0.0
  0
LINE
  8
ZEICHNUNG
  6
AUSGEZOGEN
 62
           1
  5
A1
 10
599.609826660156
 20
-502.168021250407
 30
0.0
 11
600.109826660156
 21
-502.668021250407
 31
0.0
  0
LINE
  8
ZEICHNUNG
  6
AUSGEZOGEN
 62
           1
  5
A2
 10
616.109826660156
 20
-502.668021250407
 30
0.0
 11
616.609826660156
 21
-502.168021250407
 31
0.0
  0
LINE
  8
ZEICHNUNG
  6
AUSGEZOGEN
 62
           1
  5
A3
 10
612.609826660156
 20
-495.668021250407
 30
0.0
 11
612.609826660156
 21
-494.168021250407
 31
0.0
  0
LINE
  8
ZEICHNUNG
  6
AUSGEZOGEN
 62
           1
  5
A4
 10
603.609826660156
 20
-495.668021250407
 30
0.0
 11
603.609826660156
 21
-494.168021250407
 31
0.0
  0
LINE
  8
ZEICHNUNG
  6
AUSGEZOGEN
 62
           1
  5
A5
 10
613.110879516602
 20
-494.168021250407
 30
0.0
 11
603.110879516602
 21
-494.168021250407
 31
0.0
  0
LINE
  8
BEMAßUNG
  6
STRICHPUNKT
 62
           2
  5
A6
 10
608.110879516602
 20
-483.24840149521
 30
0.0
 11
608.110879516602
 21
-507.76981423807
 31
0.0
  0
ARC
  8
ZEICHNUNG
  6
AUSGEZOGEN
 62
           1
  5
A7
 10
598.111926269531
 20
-499.168021250407
 30
0.0
 40
2.5
 50
306.809771917693
 51
53.190228082306
  0
LINE
  8
ZEICHNUNG
  6
AUSGEZOGEN
 62
           1
  5
A8
 10
616.609826660156
 20
-497.168000901726
 30
0.0
 11
599.609826660156
 21
-497.166448264037
 31
0.0
  0
LINE
  8
ZEICHNUNG
  6
AUSGEZOGEN
 62
           1
  5
A9
 10
599.609826660156
 20
-496.168021250407
 30
0.0
 11
616.609826660156
 21
-496.168021250407
 31
0.0
  0
LINE
  8
ZEICHNUNG
  6
AUSGEZOGEN
 62
           1
  5
AA
 10
616.609826660156
 20
-502.168021250407
 30
0.0
 11
599.609826660156
 21
-502.168021250407
 31
0.0
  0
LINE
  8
ZEICHNUNG
  6
AUSGEZOGEN
 62
           1
  5
AB
 10
604.110879516602
 20
-505.168021250407
 30
0.0
 11
612.110879516602
 21
-505.168021250407
 31
0.0
  0
LINE
  8
ZEICHNUNG
  6
AUSGEZOGEN
 62
           1
  5
AC
 10
612.610879516602
 20
-502.668021250407
 30
0.0
 11
612.610879516602
 21
-504.668021250407
 31
0.0
  0
LINE
  8
ZEICHNUNG
  6
AUSGEZOGEN
 62
           1
  5
AD
 10
603.610879516602
 20
-502.668021250407
 30
0.0
 11
603.610879516602
 21
-504.668021250407
 31
0.0
  0
LINE
  8
ZEICHNUNG
  6
AUSGEZOGEN
 62
           1
  5
AE
 10
603.610879516602
 20
-504.668021250407
 30
0.0
 11
604.110879516602
 21
-505.168021250407
 31
0.0
  0
LINE
  8
ZEICHNUNG
  6
AUSGEZOGEN
 62
           1
  5
AF
 10
612.110879516602
 20
-505.168021250407
 30
0.0
 11
612.610879516602
 21
-504.668021250407
 31
0.0
  0
LINE
  8
ZEICHNUNG
  6
AUSGEZOGEN
 62
           1
  5
B0
 10
603.610879516602
 20
-504.668021250407
 30
0.0
 11
612.610879516602
 21
-504.668021250407
 31
0.0
  0
LINE
  8
ZEICHNUNG
  6
AUSGEZOGEN
 62
           1
  5
B1
 10
599.609826660156
 20
-501.169594236777
 30
0.0
 11
616.609826660156
 21
-501.168016672756
 31
0.0
  0
LINE
  8
ZEICHNUNG
  6
AUSGEZOGEN
 62
           1
  5
B2
 10
602.32649230957
 20
-484.768021250407
 30
0.0
 11
602.32649230957
 21
-493.168021250407
 31
0.0
  0
LINE
  8
ZEICHNUNG
  6
AUSGEZOGEN
 62
           1
  5
B3
 10
605.891067504883
 20
-484.768021250407
 30
0.0
 11
605.891067504883
 21
-493.168021250407
 31
0.0
  0
LINE
  8
ZEICHNUNG
  6
AUSGEZOGEN
 62
           1
  5
B4
 10
652.32649230957
 20
-484.768021250407
 30
0.0
 11
652.32649230957
 21
-493.168021250407
 31
0.0
  0
LINE
  8
ZEICHNUNG
  6
AUSGEZOGEN
 62
           1
  5
B5
 10
655.891067504883
 20
-484.768021250407
 30
0.0
 11
655.891067504883
 21
-493.168021250407
 31
0.0
  0
LINE
  8
MITTELLINIEN
  6
AUSGEZOGEN
 62
           2
  5
B6
 10
651.609832763672
 20
-484.768021250407
 30
0.0
 11
651.609832763672
 21
-493.168021250407
 31
0.0
  0
LINE
  8
MITTELLINIEN
  6
AUSGEZOGEN
 62
           2
  5
B7
 10
656.607757568359
 20
-484.768021250407
 30
0.0
 11
656.607757568359
 21
-493.168021250407
 31
0.0
  0
LINE
  8
MITTELLINIEN
  6
AUSGEZOGEN
 62
           2
  5
B8
 10
601.609832763672
 20
-484.768021250407
 30
0.0
 11
601.609832763672
 21
-493.168021250407
 31
0.0
  0
LINE
  8
MITTELLINIEN
  6
AUSGEZOGEN
 62
           2
  5
B9
 10
606.607757568359
 20
-484.768021250407
 30
0.0
 11
606.607757568359
 21
-493.168021250407
 31
0.0
  0
ARC
  8
ZEICHNUNG
  6
AUSGEZOGEN
 62
           1
  5
BA
 10
640.109832763672
 20
-499.168021250407
 30
0.0
 40
2.5
 50
306.870072498886
 51
53.129927501113
  0
LINE
  8
ZEICHNUNG
  6
AUSGEZOGEN
 62
           1
  5
BB
 10
641.609838867187
 20
-497.168025828058
 30
0.0
 11
641.609838867187
 21
-496.168021250407
 31
0.0
  0
LINE
  8
ZEICHNUNG
  6
AUSGEZOGEN
 62
           1
  5
BC
 10
641.609838867187
 20
-502.168021250407
 30
0.0
 11
641.609838867187
 21
-501.168016672756
 31
0.0
  0
LINE
  8
ZEICHNUNG
  6
AUSGEZOGEN
 62
           1
  5
BD
 10
658.609838867187
 20
-497.166448264037
 30
0.0
 11
658.609838867187
 21
-496.168021250407
 31
0.0
  0
LINE
  8
ZEICHNUNG
  6
AUSGEZOGEN
 62
           1
  5
BE
 10
658.609838867187
 20
-502.168021250407
 30
0.0
 11
658.609838867187
 21
-501.169594236777
 31
0.0
  0
LINE
  8
ZEICHNUNG
  6
AUSGEZOGEN
 62
           1
  5
BF
 10
650.108786010742
 20
-495.668021250407
 30
0.0
 11
658.109838867187
 21
-495.668021250407
 31
0.0
  0
LINE
  8
ZEICHNUNG
  6
AUSGEZOGEN
 62
           1
  5
C0
 10
642.109838867187
 20
-495.668021250407
 30
0.0
 11
650.108786010742
 21
-495.668021250407
 31
0.0
  0
LINE
  8
ZEICHNUNG
  6
AUSGEZOGEN
 62
           1
  5
C1
 10
658.109838867187
 20
-502.668021250407
 30
0.0
 11
642.109838867187
 21
-502.668021250407
 31
0.0
  0
LINE
  8
ZEICHNUNG
  6
AUSGEZOGEN
 62
           1
  5
C2
 10
641.609838867187
 20
-496.168021250407
 30
0.0
 11
642.109838867187
 21
-495.668021250407
 31
0.0
  0
LINE
  8
ZEICHNUNG
  6
AUSGEZOGEN
 62
           1
  5
C3
 10
658.109838867187
 20
-495.668021250407
 30
0.0
 11
658.609838867187
 21
-496.168021250407
 31
0.0
  0
LINE
  8
ZEICHNUNG
  6
AUSGEZOGEN
 62
           1
  5
C4
 10
658.609838867187
 20
-502.168021250407
 30
0.0
 11
658.109838867187
 21
-502.668021250407
 31
0.0
  0
LINE
  8
ZEICHNUNG
  6
AUSGEZOGEN
 62
           1
  5
C5
 10
642.109838867187
 20
-502.668021250407
 30
0.0
 11
641.609838867187
 21
-502.168021250407
 31
0.0
  0
LINE
  8
ZEICHNUNG
  6
AUSGEZOGEN
 62
           1
  5
C6
 10
645.609838867187
 20
-495.668021250407
 30
0.0
 11
645.609838867187
 21
-494.168021250407
 31
0.0
  0
LINE
  8
ZEICHNUNG
  6
AUSGEZOGEN
 62
           1
  5
C7
 10
654.609838867187
 20
-495.668021250407
 30
0.0
 11
654.609838867187
 21
-494.168021250407
 31
0.0
  0
LINE
  8
ZEICHNUNG
  6
AUSGEZOGEN
 62
           1
  5
C8
 10
645.108786010742
 20
-494.168021250407
 30
0.0
 11
655.108786010742
 21
-494.168021250407
 31
0.0
  0
LINE
  8
BEMAßUNG
  6
STRICHPUNKT
 62
           2
  5
C9
 10
650.108786010742
 20
-483.460616265683
 30
0.0
 11
650.108786010742
 21
-507.76981423807
 31
0.0
  0
ARC
  8
ZEICHNUNG
  6
AUSGEZOGEN
 62
           1
  5
CA
 10
660.107739257812
 20
-499.168021250407
 30
0.0
 40
2.5
 50
126.809771917694
 51
233.190228082306
  0
LINE
  8
ZEICHNUNG
  6
AUSGEZOGEN
 62
           1
  5
CB
 10
641.609838867187
 20
-497.168000901726
 30
0.0
 11
658.609838867187
 21
-497.166448264037
 31
0.0
  0
LINE
  8
ZEICHNUNG
  6
AUSGEZOGEN
 62
           1
  5
CC
 10
658.609838867187
 20
-496.168021250407
 30
0.0
 11
641.609838867187
 21
-496.168021250407
 31
0.0
  0
LINE
  8
ZEICHNUNG
  6
AUSGEZOGEN
 62
           1
  5
CD
 10
641.609838867187
 20
-502.168021250407
 30
0.0
 11
658.609838867187
 21
-502.168021250407
 31
0.0
  0
LINE
  8
ZEICHNUNG
  6
AUSGEZOGEN
 62
           1
  5
CE
 10
654.108786010742
 20
-505.168021250407
 30
0.0
 11
646.108786010742
 21
-505.168021250407
 31
0.0
  0
LINE
  8
ZEICHNUNG
  6
AUSGEZOGEN
 62
           1
  5
CF
 10
645.608786010742
 20
-502.668021250407
 30
0.0
 11
645.608786010742
 21
-504.668021250407
 31
0.0
  0
LINE
  8
ZEICHNUNG
  6
AUSGEZOGEN
 62
           1
  5
D0
 10
654.608786010742
 20
-502.668021250407
 30
0.0
 11
654.608786010742
 21
-504.668021250407
 31
0.0
  0
LINE
  8
ZEICHNUNG
  6
AUSGEZOGEN
 62
           1
  5
D1
 10
654.608786010742
 20
-504.668021250407
 30
0.0
 11
654.108786010742
 21
-505.168021250407
 31
0.0
  0
LINE
  8
ZEICHNUNG
  6
AUSGEZOGEN
 62
           1
  5
D2
 10
646.108786010742
 20
-505.168021250407
 30
0.0
 11
645.608786010742
 21
-504.668021250407
 31
0.0
  0
LINE
  8
ZEICHNUNG
  6
AUSGEZOGEN
 62
           1
  5
D3
 10
654.608786010742
 20
-504.668021250407
 30
0.0
 11
645.608786010742
 21
-504.668021250407
 31
0.0
  0
LINE
  8
ZEICHNUNG
  6
AUSGEZOGEN
 62
           1
  5
D4
 10
658.609838867187
 20
-501.169594236777
 30
0.0
 11
641.609838867187
 21
-501.168016672756
 31
0.0
  0
INSERT
  8
MITTELLINIEN
  6
AUSGEZOGEN
 62
           2
  5
D5
  2
*X3
 10
0.0
 20
0.0
 30
0.0
  0
INSERT
  8
MITTELLINIEN
  6
AUSGEZOGEN
 62
           2
  5
D6
  2
*X4
 10
0.0
 20
0.0
 30
0.0
  0
LINE
  8
ZEICHNUNG
  6
AUSGEZOGEN
 62
           1
  5
D7
 10
451.609817504883
 20
-493.168021250407
 30
0.0
 11
536.609817504883
 21
-493.168021250407
 31
0.0
  0
ARC
  8
ZEICHNUNG
  6
AUSGEZOGEN
 62
           1
  5
D8
 10
526.608770751953
 20
-499.168021250407
 30
0.0
 40
2.5
 50
126.870072498887
 51
233.129927501112
  0
LINE
  8
ZEICHNUNG
  6
AUSGEZOGEN
 62
           1
  5
D9
 10
525.108764648438
 20
-497.168025828058
 30
0.0
 11
525.108764648438
 21
-496.168021250407
 31
0.0
  0
LINE
  8
ZEICHNUNG
  6
AUSGEZOGEN
 62
           1
  5
DA
 10
525.108764648438
 20
-502.168021250407
 30
0.0
 11
525.108764648438
 21
-501.168016672756
 31
0.0
  0
LINE
  8
ZEICHNUNG
  6
AUSGEZOGEN
 62
           1
  5
DB
 10
508.108764648438
 20
-497.166448264037
 30
0.0
 11
508.108764648438
 21
-496.168021250407
 31
0.0
  0
LINE
  8
ZEICHNUNG
  6
AUSGEZOGEN
 62
           1
  5
DC
 10
508.108764648438
 20
-502.168021250407
 30
0.0
 11
508.108764648438
 21
-501.169594236777
 31
0.0
  0
LINE
  8
ZEICHNUNG
  6
AUSGEZOGEN
 62
           1
  5
DD
 10
516.609817504883
 20
-495.668021250407
 30
0.0
 11
508.608764648438
 21
-495.668021250407
 31
0.0
  0
LINE
  8
ZEICHNUNG
  6
AUSGEZOGEN
 62
           1
  5
DE
 10
524.608764648438
 20
-495.668021250407
 30
0.0
 11
516.609817504883
 21
-495.668021250407
 31
0.0
  0
LINE
  8
ZEICHNUNG
  6
AUSGEZOGEN
 62
           1
  5
DF
 10
508.608764648438
 20
-502.668021250407
 30
0.0
 11
524.608764648438
 21
-502.668021250407
 31
0.0
  0
LINE
  8
ZEICHNUNG
  6
AUSGEZOGEN
 62
           1
  5
E0
 10
525.108764648438
 20
-496.168021250407
 30
0.0
 11
524.608764648438
 21
-495.668021250407
 31
0.0
  0
LINE
  8
ZEICHNUNG
  6
AUSGEZOGEN
 62
           1
  5
E1
 10
508.608764648438
 20
-495.668021250407
 30
0.0
 11
508.108764648438
 21
-496.168021250407
 31
0.0
  0
LINE
  8
ZEICHNUNG
  6
AUSGEZOGEN
 62
           1
  5
E2
 10
508.108764648438
 20
-502.168021250407
 30
0.0
 11
508.608764648438
 21
-502.668021250407
 31
0.0
  0
LINE
  8
ZEICHNUNG
  6
AUSGEZOGEN
 62
           1
  5
E3
 10
524.608764648438
 20
-502.668021250407
 30
0.0
 11
525.108764648438
 21
-502.168021250407
 31
0.0
  0
LINE
  8
ZEICHNUNG
  6
AUSGEZOGEN
 62
           1
  5
E4
 10
521.108764648438
 20
-495.668021250407
 30
0.0
 11
521.108764648438
 21
-494.168021250407
 31
0.0
  0
LINE
  8
ZEICHNUNG
  6
AUSGEZOGEN
 62
           1
  5
E5
 10
512.108764648438
 20
-495.668021250407
 30
0.0
 11
512.108764648438
 21
-494.168021250407
 31
0.0
  0
LINE
  8
ZEICHNUNG
  6
AUSGEZOGEN
 62
           1
  5
E6
 10
521.609817504883
 20
-494.168021250407
 30
0.0
 11
511.609817504883
 21
-494.168021250407
 31
0.0
  0
LINE
  8
BEMAßUNG
  6
STRICHPUNKT
 62
           2
  5
E7
 10
516.609817504883
 20
-490.0
 30
0.0
 11
516.609817504883
 21
-507.87413263853
 31
0.0
  0
ARC
  8
ZEICHNUNG
  6
AUSGEZOGEN
 62
           1
  5
E8
 10
506.610864257813
 20
-499.168021250407
 30
0.0
 40
2.5
 50
306.809771917693
 51
53.190228082306
  0
LINE
  8
ZEICHNUNG
  6
AUSGEZOGEN
 62
           1
  5
E9
 10
525.108764648438
 20
-497.168000901726
 30
0.0
 11
508.108764648438
 21
-497.166448264037
 31
0.0
  0
LINE
  8
ZEICHNUNG
  6
AUSGEZOGEN
 62
           1
  5
EA
 10
508.108764648438
 20
-496.168021250407
 30
0.0
 11
525.108764648438
 21
-496.168021250407
 31
0.0
  0
LINE
  8
ZEICHNUNG
  6
AUSGEZOGEN
 62
           1
  5
EB
 10
525.108764648438
 20
-502.168021250407
 30
0.0
 11
508.108764648438
 21
-502.168021250407
 31
0.0
  0
LINE
  8
ZEICHNUNG
  6
AUSGEZOGEN
 62
           1
  5
EC
 10
512.609817504883
 20
-505.168021250407
 30
0.0
 11
520.609817504883
 21
-505.168021250407
 31
0.0
  0
LINE
  8
ZEICHNUNG
  6
AUSGEZOGEN
 62
           1
  5
ED
 10
521.109817504883
 20
-502.668021250407
 30
0.0
 11
521.109817504883
 21
-504.668021250407
 31
0.0
  0
LINE
  8
ZEICHNUNG
  6
AUSGEZOGEN
 62
           1
  5
EE
 10
512.109817504883
 20
-502.668021250407
 30
0.0
 11
512.109817504883
 21
-504.668021250407
 31
0.0
  0
LINE
  8
ZEICHNUNG
  6
AUSGEZOGEN
 62
           1
  5
EF
 10
512.109817504883
 20
-504.668021250407
 30
0.0
 11
512.609817504883
 21
-505.168021250407
 31
0.0
  0
LINE
  8
ZEICHNUNG
  6
AUSGEZOGEN
 62
           1
  5
F0
 10
520.609817504883
 20
-505.168021250407
 30
0.0
 11
521.109817504883
 21
-504.668021250407
 31
0.0
  0
LINE
  8
ZEICHNUNG
  6
AUSGEZOGEN
 62
           1
  5
F1
 10
512.109817504883
 20
-504.668021250407
 30
0.0
 11
521.109817504883
 21
-504.668021250407
 31
0.0
  0
LINE
  8
ZEICHNUNG
  6
AUSGEZOGEN
 62
           1
  5
F2
 10
508.108764648438
 20
-501.169594236777
 30
0.0
 11
525.108764648438
 21
-501.168016672756
 31
0.0
  0
ARC
  8
ZEICHNUNG
  6
AUSGEZOGEN
 62
           1
  5
F3
 10
481.608770751953
 20
-499.168021250407
 30
0.0
 40
2.5
 50
126.870072498887
 51
233.129927501112
  0
LINE
  8
ZEICHNUNG
  6
AUSGEZOGEN
 62
           1
  5
F4
 10
480.108764648438
 20
-497.168025828058
 30
0.0
 11
480.108764648438
 21
-496.168021250407
 31
0.0
  0
LINE
  8
ZEICHNUNG
  6
AUSGEZOGEN
 62
           1
  5
F5
 10
480.108764648438
 20
-502.168021250407
 30
0.0
 11
480.108764648438
 21
-501.168016672756
 31
0.0
  0
LINE
  8
ZEICHNUNG
  6
AUSGEZOGEN
 62
           1
  5
F6
 10
463.108764648438
 20
-497.166448264037
 30
0.0
 11
463.108764648438
 21
-496.168021250407
 31
0.0
  0
LINE
  8
ZEICHNUNG
  6
AUSGEZOGEN
 62
           1
  5
F7
 10
463.108764648438
 20
-502.168021250407
 30
0.0
 11
463.108764648438
 21
-501.169594236777
 31
0.0
  0
LINE
  8
ZEICHNUNG
  6
AUSGEZOGEN
 62
           1
  5
F8
 10
471.609817504883
 20
-495.668021250407
 30
0.0
 11
463.608764648438
 21
-495.668021250407
 31
0.0
  0
LINE
  8
ZEICHNUNG
  6
AUSGEZOGEN
 62
           1
  5
F9
 10
479.608764648438
 20
-495.668021250407
 30
0.0
 11
471.609817504883
 21
-495.668021250407
 31
0.0
  0
LINE
  8
ZEICHNUNG
  6
AUSGEZOGEN
 62
           1
  5
FA
 10
463.608764648438
 20
-502.668021250407
 30
0.0
 11
479.608764648438
 21
-502.668021250407
 31
0.0
  0
LINE
  8
ZEICHNUNG
  6
AUSGEZOGEN
 62
           1
  5
FB
 10
480.108764648438
 20
-496.168021250407
 30
0.0
 11
479.608764648438
 21
-495.668021250407
 31
0.0
  0
LINE
  8
ZEICHNUNG
  6
AUSGEZOGEN
 62
           1
  5
FC
 10
463.608764648438
 20
-495.668021250407
 30
0.0
 11
463.108764648438
 21
-496.168021250407
 31
0.0
  0
LINE
  8
ZEICHNUNG
  6
AUSGEZOGEN
 62
           1
  5
FD
 10
463.108764648438
 20
-502.168021250407
 30
0.0
 11
463.608764648438
 21
-502.668021250407
 31
0.0
  0
LINE
  8
ZEICHNUNG
  6
AUSGEZOGEN
 62
           1
  5
FE
 10
479.608764648438
 20
-502.668021250407
 30
0.0
 11
480.108764648438
 21
-502.168021250407
 31
0.0
  0
LINE
  8
ZEICHNUNG
  6
AUSGEZOGEN
 62
           1
  5
FF
 10
476.108764648438
 20
-495.668021250407
 30
0.0
 11
476.108764648438
 21
-494.168021250407
 31
0.0
  0
LINE
  8
ZEICHNUNG
  6
AUSGEZOGEN
 62
           1
  5
100
 10
467.108764648438
 20
-495.668021250407
 30
0.0
 11
467.108764648438
 21
-494.168021250407
 31
0.0
  0
LINE
  8
ZEICHNUNG
  6
AUSGEZOGEN
 62
           1
  5
101
 10
476.609817504883
 20
-494.168021250407
 30
0.0
 11
466.609817504883
 21
-494.168021250407
 31
0.0
  0
LINE
  8
BEMAßUNG
  6
STRICHPUNKT
 62
           2
  5
102
 10
471.609817504883
 20
-490.0
 30
0.0
 11
471.609817504883
 21
-507.45685903669
 31
0.0
  0
ARC
  8
ZEICHNUNG
  6
AUSGEZOGEN
 62
           1
  5
103
 10
461.610864257813
 20
-499.168021250407
 30
0.0
 40
2.5
 50
306.809771917693
 51
53.190228082306
  0
LINE
  8
ZEICHNUNG
  6
AUSGEZOGEN
 62
           1
  5
104
 10
480.108764648438
 20
-497.168000901726
 30
0.0
 11
463.108764648438
 21
-497.166448264037
 31
0.0
  0
LINE
  8
ZEICHNUNG
  6
AUSGEZOGEN
 62
           1
  5
105
 10
463.108764648438
 20
-496.168021250407
 30
0.0
 11
480.108764648438
 21
-496.168021250407
 31
0.0
  0
LINE
  8
ZEICHNUNG
  6
AUSGEZOGEN
 62
           1
  5
106
 10
480.108764648438
 20
-502.168021250407
 30
0.0
 11
463.108764648438
 21
-502.168021250407
 31
0.0
  0
LINE
  8
ZEICHNUNG
  6
AUSGEZOGEN
 62
           1
  5
107
 10
467.609817504883
 20
-505.168021250407
 30
0.0
 11
475.609817504883
 21
-505.168021250407
 31
0.0
  0
LINE
  8
ZEICHNUNG
  6
AUSGEZOGEN
 62
           1
  5
108
 10
476.109817504883
 20
-502.668021250407
 30
0.0
 11
476.109817504883
 21
-504.668021250407
 31
0.0
  0
LINE
  8
ZEICHNUNG
  6
AUSGEZOGEN
 62
           1
  5
109
 10
467.109817504883
 20
-502.668021250407
 30
0.0
 11
467.109817504883
 21
-504.668021250407
 31
0.0
  0
LINE
  8
ZEICHNUNG
  6
AUSGEZOGEN
 62
           1
  5
10A
 10
467.109817504883
 20
-504.668021250407
 30
0.0
 11
467.609817504883
 21
-505.168021250407
 31
0.0
  0
LINE
  8
ZEICHNUNG
  6
AUSGEZOGEN
 62
           1
  5
10B
 10
475.609817504883
 20
-505.168021250407
 30
0.0
 11
476.109817504883
 21
-504.668021250407
 31
0.0
  0
LINE
  8
ZEICHNUNG
  6
AUSGEZOGEN
 62
           1
  5
10C
 10
467.109817504883
 20
-504.668021250407
 30
0.0
 11
476.109817504883
 21
-504.668021250407
 31
0.0
  0
LINE
  8
ZEICHNUNG
  6
AUSGEZOGEN
 62
           1
  5
10D
 10
463.108764648438
 20
-501.169594236777
 30
0.0
 11
480.108764648438
 21
-501.168016672756
 31
0.0
  0
LINE
  8
UNSICHTBARE
  6
VERDECKT
 62
           2
  5
10E
 10
522.326477050781
 20
-484.768021250407
 30
0.0
 11
522.326477050781
 21
-493.168021250407
 31
0.0
  0
LINE
  8
UNSICHTBARE
  6
VERDECKT
 62
           2
  5
10F
 10
525.891052246094
 20
-484.768021250407
 30
0.0
 11
525.891052246094
 21
-493.168021250407
 31
0.0
  0
LINE
  8
UNSICHTBARE
  6
VERDECKT
 62
           2
  5
110
 10
521.609817504883
 20
-484.768021250407
 30
0.0
 11
521.609817504883
 21
-493.168021250407
 31
0.0
  0
LINE
  8
UNSICHTBARE
  6
VERDECKT
 62
           2
  5
111
 10
526.60774230957
 20
-484.768021250407
 30
0.0
 11
526.60774230957
 21
-493.168021250407
 31
0.0
  0
LINE
  8
UNSICHTBARE
  6
VERDECKT
 62
           2
  5
112
 10
462.326477050781
 20
-484.768021250407
 30
0.0
 11
462.326477050781
 21
-493.168021250407
 31
0.0
  0
LINE
  8
UNSICHTBARE
  6
VERDECKT
 62
           2
  5
113
 10
465.891052246094
 20
-484.768021250407
 30
0.0
 11
465.891052246094
 21
-493.168021250407
 31
0.0
  0
LINE
  8
UNSICHTBARE
  6
VERDECKT
 62
           2
  5
114
 10
461.609817504883
 20
-484.768021250407
 30
0.0
 11
461.609817504883
 21
-493.168021250407
 31
0.0
  0
LINE
  8
UNSICHTBARE
  6
VERDECKT
 62
           2
  5
115
 10
466.60774230957
 20
-484.768021250407
 30
0.0
 11
466.60774230957
 21
-493.168021250407
 31
0.0
  0
ARC
  8
ZEICHNUNG
  6
AUSGEZOGEN
 62
           1
  5
116
 10
471.609817504883
 20
-618.768021250407
 30
0.0
 40
2.0
 50
0.0
 51
0.0
  0
CIRCLE
  8
MITTELLINIEN
  6
AUSGEZOGEN
 62
           2
  5
117
 10
471.609817504883
 20
-618.768021250407
 30
0.0
 40
1.585
  0
ARC
  8
ZEICHNUNG
  6
AUSGEZOGEN
 62
           1
  5
118
 10
516.609817504883
 20
-618.768021250407
 30
0.0
 40
2.0
 50
0.0
 51
0.0
  0
CIRCLE
  8
MITTELLINIEN
  6
AUSGEZOGEN
 62
           2
  5
119
 10
516.609817504883
 20
-618.768021250407
 30
0.0
 40
1.585
  0
LINE
  8
ZEICHNUNG
  6
AUSGEZOGEN
 62
           1
  5
11A
 10
603.110879516602
 20
-493.168021250407
 30
0.0
 11
603.110879516602
 21
-494.168021250407
 31
0.0
  0
LINE
  8
ZEICHNUNG
  6
AUSGEZOGEN
 62
           1
  5
11B
 10
613.110879516602
 20
-493.168021250407
 30
0.0
 11
613.110879516602
 21
-494.168021250407
 31
0.0
  0
LINE
  8
ZEICHNUNG
  6
AUSGEZOGEN
 62
           1
  5
11C
 10
645.108786010742
 20
-493.168021250407
 30
0.0
 11
645.108786010742
 21
-494.168021250407
 31
0.0
  0
LINE
  8
ZEICHNUNG
  6
AUSGEZOGEN
 62
           1
  5
11D
 10
655.108786010742
 20
-493.168021250407
 30
0.0
 11
655.108786010742
 21
-494.168021250407
 31
0.0
  0
LINE
  8
ZEICHNUNG
  6
AUSGEZOGEN
 62
           1
  5
11E
 10
511.609817504883
 20
-493.168021250407
 30
0.0
 11
511.609817504883
 21
-494.168021250407
 31
0.0
  0
LINE
  8
ZEICHNUNG
  6
AUSGEZOGEN
 62
           1
  5
11F
 10
521.609817504883
 20
-493.168021250407
 30
0.0
 11
521.609817504883
 21
-494.168021250407
 31
0.0
  0
LINE
  8
ZEICHNUNG
  6
AUSGEZOGEN
 62
           1
  5
120
 10
466.609817504883
 20
-493.168021250407
 30
0.0
 11
466.609817504883
 21
-494.168021250407
 31
0.0
  0
LINE
  8
ZEICHNUNG
  6
AUSGEZOGEN
 62
           1
  5
121
 10
476.609817504883
 20
-493.168021250407
 30
0.0
 11
476.609817504883
 21
-494.168021250407
 31
0.0
  0
INSERT
  8
MITTELLINIEN
  6
AUSGEZOGEN
 62
           2
  5
122
  2
*X5
 10
0.0
 20
0.0
 30
0.0
  0
LINE
  8
ZEICHNUNG
  6
AUSGEZOGEN
 62
           1
  5
123
 10
402.359817504883
 20
-509.767972502131
 30
0.0
 11
402.359817504883
 21
-494.267969780503
 31
0.0
  0
LINE
  8
BEMAßUNG
  6
STRICHPUNKT
 62
           2
  5
124
 10
566.41630318491
 20
-513.811580519907
 30
0.0
 11
568.983045232445
 21
-484.473584668891
 31
0.0
  0
LINE
  8
BEMAßUNG
  6
STRICHPUNKT
 62
           2
  5
125
 10
431.609817504883
 20
-515.0
 30
0.0
 11
431.609817504883
 21
-490.0
 31
0.0
  0
LINE
  8
BEMAßUNG
  6
STRICHPUNKT
 62
           2
  5
126
 10
556.609817504883
 20
-515.0
 30
0.0
 11
556.609817504883
 21
-490.0
 31
0.0
  0
LINE
  8
ZEICHNUNG
  6
AUSGEZOGEN
 62
           1
  5
127
 10
521.108764648438
 20
-494.267969780503
 30
0.0
 11
568.126147568972
 21
-494.267969780503
 31
0.0
  0
LINE
  8
ZEICHNUNG
  6
AUSGEZOGEN
 62
           1
  5
128
 10
476.108764648438
 20
-494.267969780503
 30
0.0
 11
512.108764648438
 21
-494.267969780503
 31
0.0
  0
LINE
  8
ZEICHNUNG
  6
AUSGEZOGEN
 62
           1
  5
129
 10
402.359817504883
 20
-494.267969780503
 30
0.0
 11
467.108764648438
 21
-494.267969780503
 31
0.0
  0
LINE
  8
ZEICHNUNG
  6
AUSGEZOGEN
 62
           1
  5
12A
 10
521.108764648438
 20
-495.56795195537
 30
0.0
 11
568.012413865885
 21
-495.56795195537
 31
0.0
  0
LINE
  8
ZEICHNUNG
  6
AUSGEZOGEN
 62
           1
  5
12B
 10
476.108764648438
 20
-495.56795195537
 30
0.0
 11
512.108764648438
 21
-495.56795195537
 31
0.0
  0
LINE
  8
ZEICHNUNG
  6
AUSGEZOGEN
 62
           1
  5
12C
 10
402.359817504883
 20
-495.56795195537
 30
0.0
 11
467.108764648438
 21
-495.56795195537
 31
0.0
  0
LINE
  8
ZEICHNUNG
  6
AUSGEZOGEN
 62
           1
  5
12D
 10
402.359817504883
 20
-509.767972502131
 30
0.0
 11
566.770073046208
 21
-509.767972502131
 31
0.0
  0
LINE
  8
ZEICHNUNG
  6
AUSGEZOGEN
 62
           1
  5
12E
 10
402.359817504883
 20
-584.268081718162
 30
0.0
 11
402.359817504883
 21
-611.267960782652
 31
0.0
  0
LINE
  8
BEMAßUNG
  6
STRICHPUNKT
 62
           2
  5
12F
 10
654.870393389927
 20
-613.079025231274
 30
0.0
 11
657.531872495319
 21
-582.658179853931
 31
0.0
  0
LINE
  8
ZEICHNUNG
  6
AUSGEZOGEN
 62
           1
  5
130
 10
536.609817504883
 20
-592.268108193409
 30
0.0
 11
656.691112708318
 21
-592.268108193409
 31
0.0
  0
LINE
  8
ZEICHNUNG
  6
AUSGEZOGEN
 62
           1
  5
131
 10
402.359817504883
 20
-592.268108193409
 30
0.0
 11
451.609817504883
 21
-592.268108193409
 31
0.0
  0
LINE
  8
ZEICHNUNG
  6
AUSGEZOGEN
 62
           1
  5
132
 10
536.609817504883
 20
-588.019771401482
 30
0.0
 11
657.062794016452
 21
-588.019771401482
 31
0.0
  0
LINE
  8
ZEICHNUNG
  6
AUSGEZOGEN
 62
           1
  5
133
 10
402.359817504883
 20
-588.019771401482
 30
0.0
 11
451.609817504883
 21
-588.019771401482
 31
0.0
  0
LINE
  8
ZEICHNUNG
  6
AUSGEZOGEN
 62
           1
  5
134
 10
536.609817504883
 20
-585.768100545098
 30
0.0
 11
657.259789690377
 21
-585.768100545098
 31
0.0
  0
LINE
  8
ZEICHNUNG
  6
AUSGEZOGEN
 62
           1
  5
135
 10
402.359817504883
 20
-585.768100545098
 30
0.0
 11
451.609817504883
 21
-585.768100545098
 31
0.0
  0
LINE
  8
ZEICHNUNG
  6
AUSGEZOGEN
 62
           1
  5
136
 10
536.609817504883
 20
-584.268081718162
 30
0.0
 11
657.39102433281
 21
-584.268081718162
 31
0.0
  0
LINE
  8
ZEICHNUNG
  6
AUSGEZOGEN
 62
           1
  5
137
 10
402.359817504883
 20
-584.268081718162
 30
0.0
 11
451.609817504883
 21
-584.268081718162
 31
0.0
  0
LINE
  8
ZEICHNUNG
  6
AUSGEZOGEN
 62
           1
  5
138
 10
536.609817504883
 20
-603.517934307404
 30
0.0
 11
655.706880456706
 21
-603.517934307404
 31
0.0
  0
LINE
  8
ZEICHNUNG
  6
AUSGEZOGEN
 62
           1
  5
139
 10
536.609817504883
 20
-607.516271099332
 30
0.0
 11
655.357071314454
 21
-607.516271099332
 31
0.0
  0
LINE
  8
ZEICHNUNG
  6
AUSGEZOGEN
 62
           1
  5
13A
 10
536.609817504883
 20
-609.767941955716
 30
0.0
 11
655.160075640528
 21
-609.767941955716
 31
0.0
  0
LINE
  8
ZEICHNUNG
  6
AUSGEZOGEN
 62
           1
  5
13B
 10
402.359817504883
 20
-609.767941955716
 30
0.0
 11
451.609817504883
 21
-609.767941955716
 31
0.0
  0
LINE
  8
ZEICHNUNG
  6
AUSGEZOGEN
 62
           1
  5
13C
 10
536.609817504883
 20
-611.267960782652
 30
0.0
 11
655.028840998096
 21
-611.267960782652
 31
0.0
  0
LINE
  8
ZEICHNUNG
  6
AUSGEZOGEN
 62
           1
  5
13D
 10
402.359817504883
 20
-611.267960782652
 30
0.0
 11
451.609817504883
 21
-611.267960782652
 31
0.0
  0
LINE
  8
ZEICHNUNG
  6
AUSGEZOGEN
 62
           1
  5
13E
 10
402.359817504883
 20
-603.267934307404
 30
0.0
 11
451.609817504883
 21
-603.267934307404
 31
0.0
  0
LINE
  8
ZEICHNUNG
  6
AUSGEZOGEN
 62
           1
  5
13F
 10
402.359817504883
 20
-607.516271099332
 30
0.0
 11
451.609817504883
 21
-607.516271099332
 31
0.0
  0
LINE
  8
BEMAßUNG
  6
STRICHPUNKT
 62
           2
  5
140
 10
464.109817504883
 20
-588.827796985016
 30
0.0
 11
464.109817504883
 21
-605.075418411611
 31
0.0
  0
LINE
  8
BEMAßUNG
  6
STRICHPUNKT
 62
           2
  5
141
 10
524.109817504883
 20
-591.158219004313
 30
0.0
 11
524.109817504883
 21
-606.158219004313
 31
0.0
  0
ARC
  8
MITTELLINIEN
  6
AUSGEZOGEN
 62
           2
  5
142
 10
464.109817504883
 20
-597.768021250407
 30
0.0
 40
2.5
 50
16.264561532556
 51
284.18796237198
  0
CIRCLE
  8
ZEICHNUNG
  6
AUSGEZOGEN
 62
           1
  5
143
 10
464.109817504883
 20
-597.768021250407
 30
0.0
 40
1.78
  0
ARC
  8
MITTELLINIEN
  6
AUSGEZOGEN
 62
           2
  5
144
 10
524.109817504883
 20
-597.768021250407
 30
0.0
 40
2.5
 50
16.264561532556
 51
284.18796237198
  0
CIRCLE
  8
ZEICHNUNG
  6
AUSGEZOGEN
 62
           1
  5
145
 10
524.109817504883
 20
-597.768021250407
 30
0.0
 40
1.78
  0
LINE
  8
BEMAßUNG
  6
STRICHPUNKT
 62
           2
  5
146
 10
431.609817504883
 20
-588.238439873109
 30
0.0
 11
431.609817504883
 21
-607.507951158152
 31
0.0
  0
CIRCLE
  8
ZEICHNUNG
  6
AUSGEZOGEN
 62
           1
  5
147
 10
431.609817504883
 20
-597.768021250407
 30
0.0
 40
2.75
  0
LINE
  8
BEMAßUNG
  6
STRICHPUNKT
 62
           2
  5
148
 10
556.609817504883
 20
-589.140056414622
 30
0.0
 11
556.609817504883
 21
-606.454718075126
 31
0.0
  0
CIRCLE
  8
ZEICHNUNG
  6
AUSGEZOGEN
 62
           1
  5
149
 10
556.609817504883
 20
-597.768021250407
 30
0.0
 40
2.75
  0
CIRCLE
  8
UNSICHTBARE
  6
VERDECKT
 62
           2
  5
14A
 10
494.109817504883
 20
-597.768021250407
 30
0.0
 40
2.75
  0
LINE
  8
BEMAßUNG
  6
STRICHPUNKT
 62
           2
  5
14B
 10
619.109817504883
 20
-589.140056414622
 30
0.0
 11
619.109817504883
 21
-606.454718075126
 31
0.0
  0
CIRCLE
  8
ZEICHNUNG
  6
AUSGEZOGEN
 62
           1
  5
14C
 10
619.109817504883
 20
-597.768021250407
 30
0.0
 40
2.75
  0
LINE
  8
UNSICHTBARE
  6
VERDECKT
 62
           2
  5
14D
 10
451.609817504883
 20
-584.268081718162
 30
0.0
 11
536.609817504883
 21
-584.268081718162
 31
0.0
  0
LINE
  8
UNSICHTBARE
  6
VERDECKT
 62
           2
  5
14E
 10
536.609817504883
 20
-592.268108193409
 30
0.0
 11
451.609817504883
 21
-592.268108193409
 31
0.0
  0
LINE
  8
UNSICHTBARE
  6
VERDECKT
 62
           2
  5
14F
 10
451.609817504883
 20
-611.267960782652
 30
0.0
 11
536.609817504883
 21
-611.267960782652
 31
0.0
  0
LINE
  8
UNSICHTBARE
  6
VERDECKT
 62
           2
  5
150
 10
536.609817504883
 20
-603.504776412668
 30
0.0
 11
451.609817504883
 21
-603.281092202141
 31
0.0
  0
LINE
  8
ZEICHNUNG
  6
AUSGEZOGEN
 62
           1
  5
151
 10
521.109817504883
 20
-504.100002188306
 30
0.0
 11
567.265956193869
 21
-504.100002188306
 31
0.0
  0
LINE
  8
ZEICHNUNG
  6
AUSGEZOGEN
 62
           1
  5
152
 10
476.109817504883
 20
-504.100002188306
 30
0.0
 11
512.109817504883
 21
-504.100002188306
 31
0.0
  0
LINE
  8
ZEICHNUNG
  6
AUSGEZOGEN
 62
           1
  5
153
 10
402.359817504883
 20
-504.100002188306
 30
0.0
 11
467.109817504883
 21
-504.100002188306
 31
0.0
  0
LINE
  8
ZEICHNUNG
  6
AUSGEZOGEN
 62
           1
  5
154
 10
524.908832417706
 20
-502.367953481138
 30
0.0
 11
567.417490820421
 21
-502.367953481138
 31
0.0
  0
LINE
  8
ZEICHNUNG
  6
AUSGEZOGEN
 62
           1
  5
155
 10
479.908832417706
 20
-502.367953481138
 30
0.0
 11
508.308696879169
 21
-502.367953481138
 31
0.0
  0
LINE
  8
ZEICHNUNG
  6
AUSGEZOGEN
 62
           1
  5
156
 10
402.359817504883
 20
-502.367953481138
 30
0.0
 11
463.308696879169
 21
-502.367953481138
 31
0.0
  0
LINE
  8
ZEICHNUNG
  6
AUSGEZOGEN
 62
           1
  5
157
 10
525.108764648438
 20
-496.6679624164
 30
0.0
 11
567.916175420785
 21
-496.6679624164
 31
0.0
  0
LINE
  8
ZEICHNUNG
  6
AUSGEZOGEN
 62
           1
  5
158
 10
480.108764648438
 20
-496.6679624164
 30
0.0
 11
508.108764648438
 21
-496.6679624164
 31
0.0
  0
LINE
  8
ZEICHNUNG
  6
AUSGEZOGEN
 62
           1
  5
159
 10
402.359817504883
 20
-496.6679624164
 30
0.0
 11
463.108764648438
 21
-496.6679624164
 31
0.0
  0
LINE
  8
ZEICHNUNG
  6
AUSGEZOGEN
 62
           1
  5
15A
 10
525.108764648438
 20
-501.667962416325
 30
0.0
 11
567.478732103162
 21
-501.667962416325
 31
0.0
  0
LINE
  8
ZEICHNUNG
  6
AUSGEZOGEN
 62
           1
  5
15B
 10
480.108764648438
 20
-501.667962416325
 30
0.0
 11
508.108764648438
 21
-501.667962416325
 31
0.0
  0
LINE
  8
ZEICHNUNG
  6
AUSGEZOGEN
 62
           1
  5
15C
 10
402.359817504883
 20
-501.667962416325
 30
0.0
 11
463.108764648438
 21
-501.667962416325
 31
0.0
  0
CIRCLE
  8
ZEICHNUNG
  6
AUSGEZOGEN
 62
           1
  5
15D
 10
471.609817504883
 20
-618.768021250407
 30
0.0
 40
7.0
  0
CIRCLE
  8
ZEICHNUNG
  6
AUSGEZOGEN
 62
           1
  5
15E
 10
516.609817504883
 20
-618.768021250407
 30
0.0
 40
7.0
  0
LINE
  8
UNSICHTBARE
  6
VERDECKT
 62
           2
  5
15F
 10
657.108786010742
 20
-489.268021250407
 30
0.0
 11
643.108786010742
 21
-489.268021250407
 31
0.0
  0
LINE
  8
UNSICHTBARE
  6
VERDECKT
 62
           2
  5
160
 10
643.108786010742
 20
-484.768021250407
 30
0.0
 11
643.108786010742
 21
-489.268021250407
 31
0.0
  0
LINE
  8
UNSICHTBARE
  6
VERDECKT
 62
           2
  5
161
 10
657.108786010742
 20
-484.768021250407
 30
0.0
 11
657.108786010742
 21
-489.268021250407
 31
0.0
  0
CIRCLE
  8
ZEICHNUNG
  6
AUSGEZOGEN
 62
           1
  5
162
 10
516.609817504883
 20
-618.768021250407
 30
0.0
 40
4.5
  0
CIRCLE
  8
ZEICHNUNG
  6
AUSGEZOGEN
 62
           1
  5
163
 10
471.609817504883
 20
-618.768021250407
 30
0.0
 40
4.5
  0
ENDSEC
  0
EOF
