  0
SECTION
  2
HEADER
  9
$ACADVER
  1
AC1009
  9
$INSBASE
 10
0.0
 20
0.0
 30
0.0
  9
$EXTMIN
 10
235.0
 20
-132.768021250407
 30
0.0
  9
$EXTMAX
 10
770.0
 20
80.731978749593
 30
0.0
  9
$LIMMIN
 10
235.0
 20
-132.768021250407
  9
$LIMMAX
 10
770.0
 20
80.731978749593
  9
$ORTHOMODE
 70
           0
  9
$REGENMODE
 70
           1
  9
$FILLMODE
 70
           1
  9
$QTEXTMODE
 70
           0
  9
$MIRRTEXT
 70
           1
  9
$DRAGMODE
 70
           2
  9
$LTSCALE
 40
5.0
  9
$OSMODE
 70
           0
  9
$ATTMODE
 70
           1
  9
$TEXTSIZE
 40
0.2
  9
$TRACEWID
 40
0.05
  9
$TEXTSTYLE
  7
TXT
  9
$CLAYER
  8
0
  9
$CELTYPE
  6
CONTINUOUS
  9
$CECOLOR
 62
         256
  9
$DIMSCALE
 40
1.0
  9
$DIMASZ
 40
3.5
  9
$DIMEXO
 40
0.0625
  9
$DIMDLI
 40
0.38
  9
$DIMRND
 40
0.0
  9
$DIMDLE
 40
0.0
  9
$DIMEXE
 40
0.18
  9
$DIMTP
 40
0.0
  9
$DIMTM
 40
0.0
  9
$DIMTXT
 40
3.5
  9
$DIMCEN
 40
0.09
  9
$DIMTSZ
 40
0.0
  9
$DIMTOL
 70
           0
  9
$DIMLIM
 70
           0
  9
$DIMTIH
 70
           1
  9
$DIMTOH
 70
           1
  9
$DIMSE1
 70
           0
  9
$DIMSE2
 70
           0
  9
$DIMTAD
 70
           0
  9
$DIMZIN
 70
           0
  9
$DIMBLK
  1

  9
$DIMASO
 70
           1
  9
$DIMSHO
 70
           1
  9
$DIMPOST
  1

  9
$DIMAPOST
  1

  9
$DIMALT
 70
           0
  9
$DIMALTD
 70
           2
  9
$DIMALTF
 40
25.4
  9
$DIMLFAC
 40
1.0
  9
$DIMTOFL
 70
           0
  9
$DIMTVP
 40
0.0
  9
$DIMTIX
 70
           0
  9
$DIMSOXD
 70
           0
  9
$DIMSAH
 70
           0
  9
$DIMBLK1
  1

  9
$DIMBLK2
  1

  9
$DIMSTYLE
  2
STANDARD
  9
$DIMCLRD
 70
           0
  9
$DIMCLRE
 70
           0
  9
$DIMCLRT
 70
           0
  9
$DIMTFAC
 40
1.0
  9
$DIMGAP
 40
0.09
  9
$LUNITS
 70
           2
  9
$LUPREC
 70
           2
  9
$AXISMODE
 70
           0
  9
$AXISUNIT
 10
0.0
 20
0.0
  9
$SKETCHINC
 40
0.1
  9
$FILLETRAD
 40
0.0
  9
$AUNITS
 70
           0
  9
$AUPREC
 70
           2
  9
$MENU
  1
acad
  9
$ELEVATION
 40
0.0
  9
$PELEVATION
 40
0.0
  9
$THICKNESS
 40
0.0
  9
$LIMCHECK
 70
           0
  9
$BLIPMODE
 70
           1
  9
$CHAMFERA
 40
0.0
  9
$CHAMFERB
 40
0.0
  9
$SKPOLY
 70
           0
  9
$TDCREATE
 40
0.000000000
  9
$TDUPDATE
 40
0.000000000
  9
$TDINDWG
 40
0.0000000000
  9
$TDUSRTIMER
 40
0.0000000000
  9
$USRTIMER
 70
           1
  9
$ANGBASE
 50
0.0
  9
$ANGDIR
 70
           0
  9
$PDMODE
 70
           2
  9
$PDSIZE
 40
0.5
  9
$PLINEWID
 40
0.0
  9
$COORDS
 70
           0
  9
$SPLFRAME
 70
           0
  9
$SPLINETYPE
 70
           6
  9
$SPLINESEGS
 70
           8
  9
$ATTDIA
 70
           0
  9
$ATTREQ
 70
           1
  9
$HANDLING
 70
           1
  9
$HANDSEED
  5
1D9
  9
$SURFTAB1
 70
           6
  9
$SURFTAB2
 70
           6
  9
$SURFTYPE
 70
           6
  9
$SURFU
 70
           6
  9
$SURFV
 70
           6
  9
$UCSNAME
  2

  9
$UCSORG
 10
0.0
 20
0.0
 30
0.0
  9
$UCSXDIR
 10
1.0
 20
0.0
 30
0.0
  9
$UCSYDIR
 10
0.0
 20
1.0
 30
0.0
  9
$PUCSNAME
  2

  9
$PUCSORG
 10
0.0
 20
0.0
 30
0.0
  9
$PUCSXDIR
 10
1.0
 20
0.0
 30
0.0
  9
$PUCSYDIR
 10
0.0
 20
1.0
 30
0.0
  9
$USERI1
 70
           0
  9
$USERI2
 70
           0
  9
$USERI3
 70
           0
  9
$USERI4
 70
           0
  9
$USERI5
 70
           0
  9
$USERR1
 40
0.0
  9
$USERR2
 40
0.0
  9
$USERR3
 40
0.0
  9
$USERR4
 40
0.0
  9
$USERR5
 40
0.0
  9
$WORLDVIEW
 70
           1
  9
$SHADEDGE
 70
           3
  9
$SHADEDIF
 70
          70
  9
$TILEMODE
 70
           1
  9
$MAXACTVP
 70
          16
  9
$PINSBASE
 10
0.0
 20
0.0
 30
0.0
  9
$PLIMCHECK
 70
           0
  9
$PEXTMIN
 10
1.000000000000E+20
 20
1.000000000000E+20
 30
1.000000000000E+20
  9
$PEXTMAX
 10
-1.000000000000E+20
 20
-1.000000000000E+20
 30
-1.000000000000E+20
  9
$PLIMMIN
 10
0.0
 20
0.0
  9
$PLIMMAX
 10
12.0
 20
9.0
  9
$UNITMODE
 70
           0
  9
$VISRETAIN
 70
           0
  9
$PLINEGEN
 70
           1
  9
$PSLTSCALE
 70
           0
  9
$TREEDEPTH
 70
        3020
  9
$DWGCODEPAGE
  3
dos850
  0
ENDSEC
  0
SECTION
  2
TABLES
  0
TABLE
  2
VPORT
 70
           1
  0
VPORT
  2
*ACTIVE
 70
           0
 10
0.0
 20
0.0
 11
1.0
 21
1.0
 12
6.591288
 22
4.579184
 13
0.0
 23
0.0
 14
1.0
 24
1.0
 15
0.0
 25
0.0
 16
0.0
 26
0.0
 36
1.0
 17
0.0
 27
0.0
 37
0.0
 40
9.158369
 41
0.688564
 42
50.0
 43
0.0
 44
0.0
 50
0.0
 51
0.0
 71
           0
 72
         100
 73
           1
 74
           1
 75
           0
 76
           0
 77
           0
 78
           0
  0
ENDTAB
  0
TABLE
  2
LTYPE
 70
           4
  0
LTYPE
  2
CONTINUOUS
 70
          64
  3
Solid line
 72
          65
 73
           0
 40
0.0
  0
LTYPE
  2
AUSGEZOGEN
 70
           0
  3

 72
          65
 73
           2
 40
0.5
 49
0.25
 49
-0.25
  0
LTYPE
  2
VERDECKT
 70
           0
  3

 72
          65
 73
           2
 40
0.375
 49
0.25
 49
-0.125
  0
LTYPE
  2
STRICHPUNKT
 70
           0
  3

 72
          65
 73
           4
 40
1.0
 49
0.5
 49
-0.25
 49
0.0
 49
-0.25
  0
ENDTAB
  0
TABLE
  2
LAYER
 70
           5
  0
LAYER
  2
0
 70
           0
 62
           7
  6
CONTINUOUS
  0
LAYER
  2
ZEICHNUNG
 70
           0
 62
           7
  6
CONTINUOUS
  0
LAYER
  2
BEMAßUNG
 70
           0
 62
           7
  6
CONTINUOUS
  0
LAYER
  2
UNSICHTBARE
 70
           0
 62
           7
  6
CONTINUOUS
  0
LAYER
  2
MITTELLINIEN
 70
           0
 62
           7
  6
CONTINUOUS
  0
ENDTAB
  0
TABLE
  2
STYLE
 70
           1
  0
STYLE
  2
TXT
 70
           0
 40
3.5
 41
1.0
 50
0.0
 71
           0
 42
3.5
  3
TXT
  4

  0
ENDTAB
  0
TABLE
  2
VIEW
 70
           0
  0
ENDTAB
  0
TABLE
  2
UCS
 70
           0
  0
ENDTAB
  0
TABLE
  2
APPID
 70
           2
  0
APPID
  2
ACAD
 70
           0
  0
APPID
  2
MegaCADPntStyle
 70
           0
  0
ENDTAB
  0
TABLE
  2
DIMSTYLE
 70
           1
  0
DIMSTYLE
  2
STANDARD
 70
           0
  3

  4

  5

  6

  7

 40
1.0
 41
0.18
 42
0.0625
 43
0.38
 44
0.18
 45
0.0
 46
0.0
 47
0.0
 48
0.0
 71
           0
 72
           0
 73
           1
 74
           1
 75
           0
 76
           0
 77
           0
 78
           0
140
0.18
141
0.09
142
0.0
143
25.4
144
1.0
145
0.0
146
1.0
147
0.09
170
           0
171
           2
172
           0
173
           0
174
           0
175
           0
176
           0
177
           0
178
           0
  0
ENDTAB
  0
ENDSEC
  0
SECTION
  2
BLOCKS
  0
BLOCK
  8
0
  5
14C
  2
ELIPPSE
 70
          64
 10
0.0
 20
0.0
 30
0.0
  3
ELIPPSE
  0
CIRCLE
  8
0
  6
BYBLOCK
 62
           0
  5
14D
 10
0.0
 20
0.0
 30
0.0
 40
1.0
  0
ENDBLK
  8
0
  6
BYBLOCK
 62
           0
  5
14E
  0
BLOCK
  8
0
  5
14F
  2
M10ANS_1
 70
          64
 10
0.0
 20
0.0
 30
0.0
  3
M10ANS_1
  0
LINE
  8
0
  6
BYBLOCK
 62
           0
  5
150
 10
-8.5
 20
-4.907485961914
 30
0.0
 11
-8.5
 21
4.907455444336
 31
0.0
  0
LINE
  8
0
  6
BYBLOCK
 62
           0
  5
151
 10
8.500007629395
 20
-4.907501220703
 30
0.0
 11
8.500007629395
 21
4.907470703125
 31
0.0
  0
LINE
  8
0
  6
BYBLOCK
 62
           0
  5
152
 10
8.500007629395
 20
-4.907501220703
 30
0.0
 11
0.000015258789
 21
-9.814971923828
 31
0.0
  0
LINE
  8
0
  6
BYBLOCK
 62
           0
  5
153
 10
0.000015258789
 20
9.81494140625
 30
0.0
 11
-8.5
 21
4.907455444336
 31
0.0
  0
LINE
  8
0
  6
BYBLOCK
 62
           0
  5
154
 10
8.500007629395
 20
4.907470703125
 30
0.0
 11
0.000015258789
 21
9.81494140625
 31
0.0
  0
LINE
  8
0
  6
BYBLOCK
 62
           0
  5
155
 10
0.000015258789
 20
-9.814971923828
 30
0.0
 11
-8.5
 21
-4.907485961914
 31
0.0
  0
CIRCLE
  8
0
  6
BYBLOCK
 62
           0
  5
156
 10
0.000015258789
 20
-0.000015258789
 30
0.0
 40
8.5
  0
CIRCLE
  8
0
  6
BYBLOCK
 62
           0
  5
157
 10
0.0
 20
0.0
 30
0.0
 40
5.0
  0
ARC
  8
0
  6
BYBLOCK
 62
           0
  5
158
 10
0.000015258789
 20
-0.000015258789
 30
0.0
 40
4.400000095367
 50
90.000200579964
 51
0.0
  0
ENDBLK
  8
0
  6
BYBLOCK
 62
           0
  5
159
  0
BLOCK
  8
0
  5
15A
  2
M10ANS_2
 70
          64
 10
0.0
 20
0.0
 30
0.0
  3
M10ANS_2
  0
LINE
  8
0
  6
BYBLOCK
 62
           0
  5
15B
 10
-8.5
 20
-4.907485961914
 30
0.0
 11
-8.5
 21
4.907455444336
 31
0.0
  0
LINE
  8
0
  6
BYBLOCK
 62
           0
  5
15C
 10
8.500007629395
 20
-4.907501220703
 30
0.0
 11
8.500007629395
 21
4.907470703125
 31
0.0
  0
LINE
  8
0
  6
BYBLOCK
 62
           0
  5
15D
 10
8.500007629395
 20
-4.907501220703
 30
0.0
 11
0.000015258789
 21
-9.814971923828
 31
0.0
  0
LINE
  8
0
  6
BYBLOCK
 62
           0
  5
15E
 10
0.000015258789
 20
9.81494140625
 30
0.0
 11
-8.5
 21
4.907455444336
 31
0.0
  0
LINE
  8
0
  6
BYBLOCK
 62
           0
  5
15F
 10
8.500007629395
 20
4.907470703125
 30
0.0
 11
0.000015258789
 21
9.81494140625
 31
0.0
  0
LINE
  8
0
  6
BYBLOCK
 62
           0
  5
160
 10
0.000015258789
 20
-9.814971923828
 30
0.0
 11
-8.5
 21
-4.907485961914
 31
0.0
  0
CIRCLE
  8
0
  6
BYBLOCK
 62
           0
  5
161
 10
0.000015258789
 20
-0.000015258789
 30
0.0
 40
8.5
  0
CIRCLE
  8
0
  6
BYBLOCK
 62
           0
  5
162
 10
0.0
 20
0.0
 30
0.0
 40
5.0
  0
ARC
  8
0
  6
BYBLOCK
 62
           0
  5
163
 10
0.000015258789
 20
-0.000015258789
 30
0.0
 40
4.400000095367
 50
90.000200579964
 51
0.0
  0
ENDBLK
  8
0
  6
BYBLOCK
 62
           0
  5
164
  0
BLOCK
  8
0
  5
165
  2
*X3
 70
          65
 10
0.0
 20
0.0
 30
0.0
  3
*X3
  0
LINE
  8
0
  6
BYBLOCK
 62
           0
  5
166
 10
691.49648073741
 20
55.731978749593
 30
0.0
 11
691.609817504883
 21
55.845315517066
 31
0.0
  0
LINE
  8
0
  6
BYBLOCK
 62
           0
  5
167
 10
687.253840050291
 20
55.731978749593
 30
0.0
 11
687.609817504883
 21
56.087956204185
 31
0.0
  0
LINE
  8
0
  6
BYBLOCK
 62
           0
  5
168
 10
687.609817504883
 20
56.087956204185
 30
0.0
 11
691.609817504883
 21
60.087956204185
 31
0.0
  0
LINE
  8
0
  6
BYBLOCK
 62
           0
  5
169
 10
683.011199363172
 20
55.731978749593
 30
0.0
 11
686.609817504883
 21
59.330596891304
 31
0.0
  0
LINE
  8
0
  6
BYBLOCK
 62
           0
  5
16A
 10
686.609817504883
 20
59.330596891304
 30
0.0
 11
687.609817504883
 21
60.330596891304
 31
0.0
  0
LINE
  8
0
  6
BYBLOCK
 62
           0
  5
16B
 10
687.609817504883
 20
60.330596891304
 30
0.0
 11
691.609817504883
 21
64.330596891304
 31
0.0
  0
LINE
  8
0
  6
BYBLOCK
 62
           0
  5
16C
 10
678.768558676052
 20
55.731978749593
 30
0.0
 11
686.609817504883
 21
63.573237578424
 31
0.0
  0
LINE
  8
0
  6
BYBLOCK
 62
           0
  5
16D
 10
686.609817504883
 20
63.573237578424
 30
0.0
 11
687.609817504883
 21
64.573237578424
 31
0.0
  0
LINE
  8
0
  6
BYBLOCK
 62
           0
  5
16E
 10
687.609817504883
 20
64.573237578424
 30
0.0
 11
691.609817504883
 21
68.573237578424
 31
0.0
  0
LINE
  8
0
  6
BYBLOCK
 62
           0
  5
16F
 10
674.525917988933
 20
55.731978749593
 30
0.0
 11
686.609817504883
 21
67.815878265543
 31
0.0
  0
LINE
  8
0
  6
BYBLOCK
 62
           0
  5
170
 10
686.609817504883
 20
67.815878265543
 30
0.0
 11
687.609817504883
 21
68.815878265543
 31
0.0
  0
LINE
  8
0
  6
BYBLOCK
 62
           0
  5
171
 10
687.609817504883
 20
68.815878265543
 30
0.0
 11
691.609817504883
 21
72.815878265543
 31
0.0
  0
LINE
  8
0
  6
BYBLOCK
 62
           0
  5
172
 10
670.283277301814
 20
55.731978749593
 30
0.0
 11
686.609817504883
 21
72.058518952662
 31
0.0
  0
LINE
  8
0
  6
BYBLOCK
 62
           0
  5
173
 10
686.609817504883
 20
72.058518952662
 30
0.0
 11
687.609817504883
 21
73.058518952662
 31
0.0
  0
LINE
  8
0
  6
BYBLOCK
 62
           0
  5
174
 10
687.609817504883
 20
73.058518952662
 30
0.0
 11
689.583277301814
 21
75.031978749593
 31
0.0
  0
LINE
  8
0
  6
BYBLOCK
 62
           0
  5
175
 10
666.040636614695
 20
55.731978749593
 30
0.0
 11
685.340636614695
 21
75.031978749593
 31
0.0
  0
LINE
  8
0
  6
BYBLOCK
 62
           0
  5
176
 10
661.797995927575
 20
55.731978749593
 30
0.0
 11
681.097995927575
 21
75.031978749593
 31
0.0
  0
LINE
  8
0
  6
BYBLOCK
 62
           0
  5
177
 10
657.555355240456
 20
55.731978749593
 30
0.0
 11
676.855355240456
 21
75.031978749593
 31
0.0
  0
LINE
  8
0
  6
BYBLOCK
 62
           0
  5
178
 10
653.312714553337
 20
55.731978749593
 30
0.0
 11
672.612714553337
 21
75.031978749593
 31
0.0
  0
LINE
  8
0
  6
BYBLOCK
 62
           0
  5
179
 10
650.609817504883
 20
57.271722388259
 30
0.0
 11
651.609817504883
 21
58.271722388259
 31
0.0
  0
LINE
  8
0
  6
BYBLOCK
 62
           0
  5
17A
 10
651.609817504883
 20
58.271722388259
 30
0.0
 11
668.370073866217
 21
75.031978749593
 31
0.0
  0
LINE
  8
0
  6
BYBLOCK
 62
           0
  5
17B
 10
650.609817504883
 20
61.514363075378
 30
0.0
 11
651.609817504883
 21
62.514363075378
 31
0.0
  0
LINE
  8
0
  6
BYBLOCK
 62
           0
  5
17C
 10
651.609817504883
 20
62.514363075378
 30
0.0
 11
664.127433179098
 21
75.031978749593
 31
0.0
  0
LINE
  8
0
  6
BYBLOCK
 62
           0
  5
17D
 10
640.584792491979
 20
55.731978749593
 30
0.0
 11
641.609817504883
 21
56.757003762497
 31
0.0
  0
LINE
  8
0
  6
BYBLOCK
 62
           0
  5
17E
 10
641.609817504883
 20
56.757003762497
 30
0.0
 11
642.609817504883
 21
57.757003762497
 31
0.0
  0
LINE
  8
0
  6
BYBLOCK
 62
           0
  5
17F
 10
650.609817504883
 20
65.757003762497
 30
0.0
 11
651.609817504883
 21
66.757003762497
 31
0.0
  0
LINE
  8
0
  6
BYBLOCK
 62
           0
  5
180
 10
651.609817504883
 20
66.757003762497
 30
0.0
 11
659.884792491979
 21
75.031978749593
 31
0.0
  0
LINE
  8
0
  6
BYBLOCK
 62
           0
  5
181
 10
636.34215180486
 20
55.731978749593
 30
0.0
 11
641.609817504883
 21
60.999644449616
 31
0.0
  0
LINE
  8
0
  6
BYBLOCK
 62
           0
  5
182
 10
641.609817504883
 20
60.999644449616
 30
0.0
 11
642.609817504883
 21
61.999644449616
 31
0.0
  0
LINE
  8
0
  6
BYBLOCK
 62
           0
  5
183
 10
650.609817504883
 20
69.999644449616
 30
0.0
 11
651.609817504883
 21
70.999644449616
 31
0.0
  0
LINE
  8
0
  6
BYBLOCK
 62
           0
  5
184
 10
651.609817504883
 20
70.999644449616
 30
0.0
 11
655.64215180486
 21
75.031978749593
 31
0.0
  0
LINE
  8
0
  6
BYBLOCK
 62
           0
  5
185
 10
632.09951111774
 20
55.731978749593
 30
0.0
 11
641.609817504883
 21
65.242285136736
 31
0.0
  0
LINE
  8
0
  6
BYBLOCK
 62
           0
  5
186
 10
641.609817504883
 20
65.242285136736
 30
0.0
 11
642.609817504883
 21
66.242285136736
 31
0.0
  0
LINE
  8
0
  6
BYBLOCK
 62
           0
  5
187
 10
650.609817504883
 20
74.242285136736
 30
0.0
 11
651.39951111774
 21
75.031978749593
 31
0.0
  0
LINE
  8
0
  6
BYBLOCK
 62
           0
  5
188
 10
631.609817504883
 20
59.484925823855
 30
0.0
 11
641.609817504883
 21
69.484925823855
 31
0.0
  0
LINE
  8
0
  6
BYBLOCK
 62
           0
  5
189
 10
641.609817504883
 20
69.484925823855
 30
0.0
 11
642.609817504883
 21
70.484925823855
 31
0.0
  0
LINE
  8
0
  6
BYBLOCK
 62
           0
  5
18A
 10
631.609817504883
 20
63.727566510974
 30
0.0
 11
641.609817504883
 21
73.727566510974
 31
0.0
  0
LINE
  8
0
  6
BYBLOCK
 62
           0
  5
18B
 10
641.609817504883
 20
73.727566510974
 30
0.0
 11
642.609817504883
 21
74.727566510974
 31
0.0
  0
LINE
  8
0
  6
BYBLOCK
 62
           0
  5
18C
 10
631.609817504883
 20
67.970207198094
 30
0.0
 11
638.671589056382
 21
75.031978749593
 31
0.0
  0
LINE
  8
0
  6
BYBLOCK
 62
           0
  5
18D
 10
631.609817504883
 20
72.212847885213
 30
0.0
 11
634.428948369263
 21
75.031978749593
 31
0.0
  0
ENDBLK
  8
0
  6
BYBLOCK
 62
           0
  5
18E
  0
BLOCK
  8
0
  5
18F
  2
*X4
 70
          65
 10
0.0
 20
0.0
 30
0.0
  3
*X4
  0
LINE
  8
0
  6
BYBLOCK
 62
           0
  5
190
 10
750.89345035708
 20
55.731978749593
 30
0.0
 11
751.609817504883
 21
56.448345897396
 31
0.0
  0
LINE
  8
0
  6
BYBLOCK
 62
           0
  5
191
 10
746.650809669961
 20
55.731978749593
 30
0.0
 11
751.609817504883
 21
60.690986584515
 31
0.0
  0
LINE
  8
0
  6
BYBLOCK
 62
           0
  5
192
 10
742.408168982842
 20
55.731978749593
 30
0.0
 11
751.609817504883
 21
64.933627271634
 31
0.0
  0
LINE
  8
0
  6
BYBLOCK
 62
           0
  5
193
 10
740.609817504883
 20
58.176267958754
 30
0.0
 11
741.609817504883
 21
59.176267958754
 31
0.0
  0
LINE
  8
0
  6
BYBLOCK
 62
           0
  5
194
 10
741.609817504883
 20
59.176267958754
 30
0.0
 11
751.609817504883
 21
69.176267958754
 31
0.0
  0
LINE
  8
0
  6
BYBLOCK
 62
           0
  5
195
 10
740.609817504883
 20
62.418908645873
 30
0.0
 11
741.609817504883
 21
63.418908645873
 31
0.0
  0
LINE
  8
0
  6
BYBLOCK
 62
           0
  5
196
 10
741.609817504883
 20
63.418908645873
 30
0.0
 11
751.609817504883
 21
73.418908645873
 31
0.0
  0
LINE
  8
0
  6
BYBLOCK
 62
           0
  5
197
 10
729.680246921484
 20
55.731978749593
 30
0.0
 11
731.609817504883
 21
57.661549332992
 31
0.0
  0
LINE
  8
0
  6
BYBLOCK
 62
           0
  5
198
 10
731.609817504883
 20
57.661549332992
 30
0.0
 11
732.609817504883
 21
58.661549332992
 31
0.0
  0
LINE
  8
0
  6
BYBLOCK
 62
           0
  5
199
 10
740.609817504883
 20
66.661549332992
 30
0.0
 11
741.609817504883
 21
67.661549332992
 31
0.0
  0
LINE
  8
0
  6
BYBLOCK
 62
           0
  5
19A
 10
741.609817504883
 20
67.661549332992
 30
0.0
 11
748.980246921484
 21
75.031978749593
 31
0.0
  0
LINE
  8
0
  6
BYBLOCK
 62
           0
  5
19B
 10
725.437606234364
 20
55.731978749593
 30
0.0
 11
731.609817504883
 21
61.904190020111
 31
0.0
  0
LINE
  8
0
  6
BYBLOCK
 62
           0
  5
19C
 10
731.609817504883
 20
61.904190020111
 30
0.0
 11
732.609817504883
 21
62.904190020111
 31
0.0
  0
LINE
  8
0
  6
BYBLOCK
 62
           0
  5
19D
 10
740.609817504883
 20
70.904190020111
 30
0.0
 11
741.609817504883
 21
71.904190020111
 31
0.0
  0
LINE
  8
0
  6
BYBLOCK
 62
           0
  5
19E
 10
741.609817504883
 20
71.904190020111
 30
0.0
 11
744.737606234365
 21
75.031978749593
 31
0.0
  0
LINE
  8
0
  6
BYBLOCK
 62
           0
  5
19F
 10
721.194965547245
 20
55.731978749593
 30
0.0
 11
731.609817504883
 21
66.146830707231
 31
0.0
  0
LINE
  8
0
  6
BYBLOCK
 62
           0
  5
1A0
 10
731.609817504883
 20
66.146830707231
 30
0.0
 11
732.609817504883
 21
67.146830707231
 31
0.0
  0
LINE
  8
0
  6
BYBLOCK
 62
           0
  5
1A1
 10
716.952324860126
 20
55.731978749593
 30
0.0
 11
731.609817504883
 21
70.38947139435
 31
0.0
  0
LINE
  8
0
  6
BYBLOCK
 62
           0
  5
1A2
 10
731.609817504883
 20
70.38947139435
 30
0.0
 11
732.609817504883
 21
71.38947139435
 31
0.0
  0
LINE
  8
0
  6
BYBLOCK
 62
           0
  5
1A3
 10
712.709684173007
 20
55.731978749593
 30
0.0
 11
731.609817504883
 21
74.632112081469
 31
0.0
  0
LINE
  8
0
  6
BYBLOCK
 62
           0
  5
1A4
 10
731.609817504883
 20
74.632112081469
 30
0.0
 11
732.009684173007
 21
75.031978749593
 31
0.0
  0
LINE
  8
0
  6
BYBLOCK
 62
           0
  5
1A5
 10
708.467043485887
 20
55.731978749593
 30
0.0
 11
727.767043485887
 21
75.031978749593
 31
0.0
  0
LINE
  8
0
  6
BYBLOCK
 62
           0
  5
1A6
 10
704.224402798768
 20
55.731978749593
 30
0.0
 11
723.524402798768
 21
75.031978749593
 31
0.0
  0
LINE
  8
0
  6
BYBLOCK
 62
           0
  5
1A7
 10
699.981762111649
 20
55.731978749593
 30
0.0
 11
719.281762111649
 21
75.031978749593
 31
0.0
  0
LINE
  8
0
  6
BYBLOCK
 62
           0
  5
1A8
 10
695.739121424529
 20
55.731978749593
 30
0.0
 11
696.609817504883
 21
56.602674829946
 31
0.0
  0
LINE
  8
0
  6
BYBLOCK
 62
           0
  5
1A9
 10
696.609817504883
 20
56.602674829946
 30
0.0
 11
715.03912142453
 21
75.031978749593
 31
0.0
  0
LINE
  8
0
  6
BYBLOCK
 62
           0
  5
1AA
 10
691.609817504883
 20
55.845315517066
 30
0.0
 11
695.609817504883
 21
59.845315517066
 31
0.0
  0
LINE
  8
0
  6
BYBLOCK
 62
           0
  5
1AB
 10
695.609817504883
 20
59.845315517066
 30
0.0
 11
696.609817504883
 21
60.845315517066
 31
0.0
  0
LINE
  8
0
  6
BYBLOCK
 62
           0
  5
1AC
 10
696.609817504883
 20
60.845315517066
 30
0.0
 11
710.79648073741
 21
75.031978749593
 31
0.0
  0
LINE
  8
0
  6
BYBLOCK
 62
           0
  5
1AD
 10
691.609817504883
 20
60.087956204185
 30
0.0
 11
695.609817504883
 21
64.087956204185
 31
0.0
  0
LINE
  8
0
  6
BYBLOCK
 62
           0
  5
1AE
 10
695.609817504883
 20
64.087956204185
 30
0.0
 11
696.609817504883
 21
65.087956204185
 31
0.0
  0
LINE
  8
0
  6
BYBLOCK
 62
           0
  5
1AF
 10
696.609817504883
 20
65.087956204185
 30
0.0
 11
706.553840050291
 21
75.031978749593
 31
0.0
  0
LINE
  8
0
  6
BYBLOCK
 62
           0
  5
1B0
 10
691.609817504883
 20
64.330596891304
 30
0.0
 11
695.609817504883
 21
68.330596891304
 31
0.0
  0
LINE
  8
0
  6
BYBLOCK
 62
           0
  5
1B1
 10
695.609817504883
 20
68.330596891304
 30
0.0
 11
696.609817504883
 21
69.330596891304
 31
0.0
  0
LINE
  8
0
  6
BYBLOCK
 62
           0
  5
1B2
 10
696.609817504883
 20
69.330596891304
 30
0.0
 11
702.311199363172
 21
75.031978749593
 31
0.0
  0
LINE
  8
0
  6
BYBLOCK
 62
           0
  5
1B3
 10
691.609817504883
 20
68.573237578424
 30
0.0
 11
695.609817504883
 21
72.573237578424
 31
0.0
  0
LINE
  8
0
  6
BYBLOCK
 62
           0
  5
1B4
 10
695.609817504883
 20
72.573237578424
 30
0.0
 11
696.609817504883
 21
73.573237578424
 31
0.0
  0
LINE
  8
0
  6
BYBLOCK
 62
           0
  5
1B5
 10
696.609817504883
 20
73.573237578424
 30
0.0
 11
698.068558676052
 21
75.031978749593
 31
0.0
  0
LINE
  8
0
  6
BYBLOCK
 62
           0
  5
1B6
 10
691.609817504883
 20
72.815878265543
 30
0.0
 11
693.825917988933
 21
75.031978749593
 31
0.0
  0
ENDBLK
  8
0
  6
BYBLOCK
 62
           0
  5
1B7
  0
BLOCK
  8
0
  5
1B8
  2
*X5
 70
          65
 10
0.0
 20
0.0
 30
0.0
  3
*X5
  0
LINE
  8
0
  6
BYBLOCK
 62
           0
  5
1B9
 10
717.109817504883
 20
50.176545783632
 30
0.0
 11
712.554384538922
 21
54.731978749593
 31
0.0
  0
LINE
  8
0
  6
BYBLOCK
 62
           0
  5
1BA
 10
713.211745377682
 20
49.831977223714
 30
0.0
 11
708.311743851803
 21
54.731978749593
 31
0.0
  0
LINE
  8
0
  6
BYBLOCK
 62
           0
  5
1BB
 10
710.547876891524
 20
48.253205022752
 30
0.0
 11
704.069103164683
 21
54.731978749593
 31
0.0
  0
LINE
  8
0
  6
BYBLOCK
 62
           0
  5
1BC
 10
717.109817504883
 20
37.448623722274
 30
0.0
 11
714.725134036319
 21
39.833307190838
 31
0.0
  0
LINE
  8
0
  6
BYBLOCK
 62
           0
  5
1BD
 10
709.605190380036
 20
44.953250847121
 30
0.0
 11
700.859817504883
 21
53.698623722274
 31
0.0
  0
LINE
  8
0
  6
BYBLOCK
 62
           0
  5
1BE
 10
714.734493231201
 20
35.581307308837
 30
0.0
 11
700.859817504883
 21
49.455983035155
 31
0.0
  0
LINE
  8
0
  6
BYBLOCK
 62
           0
  5
1BF
 10
712.04476647759
 20
34.028393375329
 30
0.0
 11
698.341181103325
 21
47.731978749593
 31
0.0
  0
LINE
  8
0
  6
BYBLOCK
 62
           0
  5
1C0
 10
710.609817504883
 20
31.220701660916
 30
0.0
 11
697.109817504883
 21
44.720701660916
 31
0.0
  0
LINE
  8
0
  6
BYBLOCK
 62
           0
  5
1C1
 10
710.609817504883
 20
26.978060973797
 30
0.0
 11
697.109817504883
 21
40.478060973797
 31
0.0
  0
LINE
  8
0
  6
BYBLOCK
 62
           0
  5
1C2
 10
710.609817504883
 20
22.735420286678
 30
0.0
 11
700.859817504883
 21
32.485420286678
 31
0.0
  0
LINE
  8
0
  6
BYBLOCK
 62
           0
  5
1C3
 10
697.213257516089
 20
36.131980275472
 30
0.0
 11
697.109817504883
 21
36.235420286678
 31
0.0
  0
LINE
  8
0
  6
BYBLOCK
 62
           0
  5
1C4
 10
686.109817504883
 20
47.235420286678
 30
0.0
 11
685.613259041968
 21
47.731978749593
 31
0.0
  0
LINE
  8
0
  6
BYBLOCK
 62
           0
  5
1C5
 10
682.359817504883
 20
50.985420286678
 30
0.0
 11
678.613259041968
 21
54.731978749593
 31
0.0
  0
LINE
  8
0
  6
BYBLOCK
 62
           0
  5
1C6
 10
708.370618354848
 20
20.731978749593
 30
0.0
 11
700.859817504883
 21
28.242779599559
 31
0.0
  0
LINE
  8
0
  6
BYBLOCK
 62
           0
  5
1C7
 10
686.109817504883
 20
42.992779599559
 30
0.0
 11
674.370618354848
 21
54.731978749593
 31
0.0
  0
LINE
  8
0
  6
BYBLOCK
 62
           0
  5
1C8
 10
704.127977667729
 20
20.731978749593
 30
0.0
 11
697.72797614185
 21
27.131980275472
 31
0.0
  0
LINE
  8
0
  6
BYBLOCK
 62
           0
  5
1C9
 10
686.109817504883
 20
38.750138912439
 30
0.0
 11
670.17876782547
 21
54.681188591852
 31
0.0
  0
LINE
  8
0
  6
BYBLOCK
 62
           0
  5
1CA
 10
699.88533698061
 20
20.731978749593
 30
0.0
 11
697.109817504883
 21
23.50749822532
 31
0.0
  0
LINE
  8
0
  6
BYBLOCK
 62
           0
  5
1CB
 10
684.485335454731
 20
36.131980275472
 30
0.0
 11
673.609817504883
 21
47.00749822532
 31
0.0
  0
LINE
  8
0
  6
BYBLOCK
 62
           0
  5
1CC
 10
670.785338506489
 20
49.831977223714
 30
0.0
 11
667.489042165502
 21
53.128273564701
 31
0.0
  0
LINE
  8
0
  6
BYBLOCK
 62
           0
  5
1CD
 10
682.359817504883
 20
34.014857538201
 30
0.0
 11
673.609817504883
 21
42.764857538201
 31
0.0
  0
LINE
  8
0
  6
BYBLOCK
 62
           0
  5
1CE
 10
666.815225165296
 20
49.559449877788
 30
0.0
 11
666.109817504883
 21
50.264857538201
 31
0.0
  0
LINE
  8
0
  6
BYBLOCK
 62
           0
  5
1CF
 10
686.109817504883
 20
26.022216851081
 30
0.0
 11
685.000054080492
 21
27.131980275472
 31
0.0
  0
LINE
  8
0
  6
BYBLOCK
 62
           0
  5
1D0
 10
682.359817504883
 20
29.772216851081
 30
0.0
 11
672.096927556531
 21
40.035106799433
 31
0.0
  0
LINE
  8
0
  6
BYBLOCK
 62
           0
  5
1D1
 10
686.109817504883
 20
21.779576163962
 30
0.0
 11
668.022843006717
 21
39.866550662128
 31
0.0
  0
LINE
  8
0
  6
BYBLOCK
 62
           0
  5
1D2
 10
682.914774232133
 20
20.731978749593
 30
0.0
 11
672.609817504883
 21
31.036935476843
 31
0.0
  0
LINE
  8
0
  6
BYBLOCK
 62
           0
  5
1D3
 10
667.492130595138
 20
36.154622386587
 30
0.0
 11
666.109817504883
 21
37.536935476843
 31
0.0
  0
LINE
  8
0
  6
BYBLOCK
 62
           0
  5
1D4
 10
678.672133545013
 20
20.731978749593
 30
0.0
 11
672.609817504883
 21
26.794294789724
 31
0.0
  0
LINE
  8
0
  6
BYBLOCK
 62
           0
  5
1D5
 10
674.429492857894
 20
20.731978749593
 30
0.0
 11
672.609817504883
 21
22.551654102604
 31
0.0
  0
ENDBLK
  8
0
  6
BYBLOCK
 62
           0
  5
1D6
  0
ENDSEC
  0
SECTION
  2
ENTITIES
  0
INSERT
  8
ZEICHNUNG
  6
AUSGEZOGEN
 62
           1
  5
2B
  2
M10ANS_1
 10
464.109817504883
 20
-111.418021250407
 30
0.0
  0
INSERT
  8
ZEICHNUNG
  6
AUSGEZOGEN
 62
           1
  5
2C
  2
M10ANS_2
 10
524.109817504883
 20
-111.418021250407
 30
0.0
  0
LINE
  8
BEMAßUNG
  6
STRICHPUNKT
 62
           2
  5
2D
 10
235.0
 20
-67.768021250407
 30
0.0
 11
770.0
 21
-67.768021250407
 31
0.0
  0
LINE
  8
ZEICHNUNG
  6
AUSGEZOGEN
 62
           1
  5
2E
 10
444.109817504883
 20
-7.768021250407
 30
0.0
 11
544.109817504883
 21
-7.768021250407
 31
0.0
  0
LINE
  8
ZEICHNUNG
  6
AUSGEZOGEN
 62
           1
  5
2F
 10
444.109817504883
 20
-127.768021250407
 30
0.0
 11
544.109817504883
 21
-127.768021250407
 31
0.0
  0
LINE
  8
ZEICHNUNG
  6
AUSGEZOGEN
 62
           1
  5
30
 10
544.109817504883
 20
-7.768021250407
 30
0.0
 11
544.109817504883
 21
-127.768021250407
 31
0.0
  0
LINE
  8
ZEICHNUNG
  6
AUSGEZOGEN
 62
           1
  5
31
 10
444.109817504883
 20
-7.768021250407
 30
0.0
 11
444.109817504883
 21
-127.768021250407
 31
0.0
  0
LINE
  8
BEMAßUNG
  6
STRICHPUNKT
 62
           2
  5
32
 10
494.109817504883
 20
-2.768021250407
 30
0.0
 11
494.109817504883
 21
-132.768021250407
 31
0.0
  0
LINE
  8
BEMAßUNG
  6
STRICHPUNKT
 62
           2
  5
33
 10
481.791702270508
 20
-22.768021250407
 30
0.0
 11
506.791702270508
 21
-22.768021250407
 31
0.0
  0
LINE
  8
BEMAßUNG
  6
STRICHPUNKT
 62
           2
  5
34
 10
481.791702270508
 20
-112.768021250407
 30
0.0
 11
506.791702270508
 21
-112.768021250407
 31
0.0
  0
CIRCLE
  8
ZEICHNUNG
  6
AUSGEZOGEN
 62
           1
  5
35
 10
529.109817504883
 20
-67.768021250407
 30
0.0
 40
4.0
  0
CIRCLE
  8
ZEICHNUNG
  6
AUSGEZOGEN
 62
           1
  5
36
 10
494.109817504883
 20
-112.768021250407
 30
0.0
 40
4.0
  0
CIRCLE
  8
ZEICHNUNG
  6
AUSGEZOGEN
 62
           1
  5
37
 10
494.109817504883
 20
-22.768021250407
 30
0.0
 40
4.0
  0
CIRCLE
  8
ZEICHNUNG
  6
AUSGEZOGEN
 62
           1
  5
38
 10
459.109817504883
 20
-67.768021250407
 30
0.0
 40
4.0
  0
ARC
  8
MITTELLINIEN
  6
AUSGEZOGEN
 62
           2
  5
39
 10
529.109817504883
 20
-67.768021250407
 30
0.0
 40
5.0
 50
349.999997672743
 51
260.000000290906
  0
ARC
  8
MITTELLINIEN
  6
AUSGEZOGEN
 62
           2
  5
3A
 10
494.109817504883
 20
-112.768021250407
 30
0.0
 40
5.0
 50
349.999997672743
 51
260.000000290906
  0
ARC
  8
MITTELLINIEN
  6
AUSGEZOGEN
 62
           2
  5
3B
 10
494.109817504883
 20
-22.768021250407
 30
0.0
 40
5.0
 50
349.999997672743
 51
260.000000290906
  0
LINE
  8
BEMAßUNG
  6
STRICHPUNKT
 62
           2
  5
3C
 10
464.109817504883
 20
-2.768021250407
 30
0.0
 11
464.109817504883
 21
-132.768021250407
 31
0.0
  0
LINE
  8
BEMAßUNG
  6
STRICHPUNKT
 62
           2
  5
3D
 10
524.109817504883
 20
-2.768021250407
 30
0.0
 11
524.109817504883
 21
-132.768021250407
 31
0.0
  0
CIRCLE
  8
ZEICHNUNG
  6
AUSGEZOGEN
 62
           1
  5
3E
 10
714.609817504883
 20
44.831977223714
 30
0.0
 40
5.0
  0
LINE
  8
BEMAßUNG
  6
STRICHPUNKT
 62
           2
  5
3F
 10
708.375335693359
 20
44.831977223714
 30
0.0
 11
721.134488945726
 21
44.831977223714
 31
0.0
  0
LINE
  8
BEMAßUNG
  6
STRICHPUNKT
 62
           2
  5
40
 10
714.609817504883
 20
38.566615437826
 30
0.0
 11
714.609817504883
 21
51.216788625081
 31
0.0
  0
LINE
  8
BEMAßUNG
  6
STRICHPUNKT
 62
           2
  5
41
 10
691.609817504883
 20
10.731978749593
 30
0.0
 11
691.609817504883
 21
80.731978749593
 31
0.0
  0
LINE
  8
ZEICHNUNG
  6
AUSGEZOGEN
 62
           1
  5
42
 10
697.109817504883
 20
36.131980275472
 30
0.0
 11
697.109817504883
 21
47.731978749593
 31
0.0
  0
LINE
  8
ZEICHNUNG
  6
AUSGEZOGEN
 62
           1
  5
43
 10
697.109817504883
 20
20.731978749593
 30
0.0
 11
697.109817504883
 21
27.131980275472
 31
0.0
  0
LINE
  8
ZEICHNUNG
  6
AUSGEZOGEN
 62
           1
  5
44
 10
697.109817504883
 20
20.731978749593
 30
0.0
 11
710.609817504883
 21
20.731978749593
 31
0.0
  0
LINE
  8
ZEICHNUNG
  6
AUSGEZOGEN
 62
           1
  5
45
 10
697.109817504883
 20
27.131980275472
 30
0.0
 11
700.859817504883
 21
27.131980275472
 31
0.0
  0
LINE
  8
ZEICHNUNG
  6
AUSGEZOGEN
 62
           1
  5
46
 10
717.109817504883
 20
49.748465871175
 30
0.0
 11
717.109817504883
 21
52.331977223714
 31
0.0
  0
LINE
  8
ZEICHNUNG
  6
AUSGEZOGEN
 62
           1
  5
47
 10
717.109817504883
 20
36.952700948079
 30
0.0
 11
717.109817504883
 21
39.915488576253
 31
0.0
  0
LINE
  8
ZEICHNUNG
  6
AUSGEZOGEN
 62
           1
  5
48
 10
717.109817504883
 20
52.331977223714
 30
0.0
 11
712.952896118164
 21
54.731978749593
 31
0.0
  0
LINE
  8
ZEICHNUNG
  6
AUSGEZOGEN
 62
           1
  5
49
 10
700.859817504883
 20
27.131980275472
 30
0.0
 11
700.859817504883
 21
36.131980275472
 31
0.0
  0
LINE
  8
ZEICHNUNG
  6
AUSGEZOGEN
 62
           1
  5
4A
 10
700.859817504883
 20
47.731978749593
 30
0.0
 11
700.859817504883
 21
54.731978749593
 31
0.0
  0
LINE
  8
ZEICHNUNG
  6
AUSGEZOGEN
 62
           1
  5
4B
 10
712.109817504883
 20
39.831977223714
 30
0.0
 11
714.609817504883
 21
39.831977223714
 31
0.0
  0
LINE
  8
ZEICHNUNG
  6
AUSGEZOGEN
 62
           1
  5
4C
 10
712.109817504883
 20
49.831977223714
 30
0.0
 11
714.609817504883
 21
49.831977223714
 31
0.0
  0
LINE
  8
ZEICHNUNG
  6
AUSGEZOGEN
 62
           1
  5
4D
 10
709.609817504883
 20
42.331977223714
 30
0.0
 11
709.609817504883
 21
47.331977223714
 31
0.0
  0
ARC
  8
ZEICHNUNG
  6
AUSGEZOGEN
 62
           1
  5
4E
 10
712.109817504883
 20
47.331977223714
 30
0.0
 40
2.5
 50
90.000002504478
 51
180.000008651422
  0
ARC
  8
ZEICHNUNG
  6
AUSGEZOGEN
 62
           1
  5
4F
 10
712.109817504883
 20
42.331977223714
 30
0.0
 40
2.5
 50
180.000008651421
 51
269.999997495521
  0
LINE
  8
ZEICHNUNG
  6
AUSGEZOGEN
 62
           1
  5
50
 10
710.609817504883
 20
33.19992548334
 30
0.0
 11
717.109817504883
 21
36.952700948079
 31
0.0
  0
LINE
  8
ZEICHNUNG
  6
AUSGEZOGEN
 62
           1
  5
51
 10
717.109817504883
 20
49.748465871175
 30
0.0
 11
716.309814453125
 21
49.534102773031
 31
0.0
  0
LINE
  8
ZEICHNUNG
  6
AUSGEZOGEN
 62
           1
  5
52
 10
717.109817504883
 20
39.915488576253
 30
0.0
 11
716.309814453125
 21
40.129851674398
 31
0.0
  0
ARC
  8
ZEICHNUNG
  6
AUSGEZOGEN
 62
           1
  5
53
 10
714.609817504883
 20
44.831977223714
 30
0.0
 40
5.0
 50
70.123072849852
 51
89.999913712019
  0
ARC
  8
ZEICHNUNG
  6
AUSGEZOGEN
 62
           1
  5
54
 10
714.609817504883
 20
44.831977223714
 30
0.0
 40
5.0
 50
270.00008628798
 51
289.876927150147
  0
LINE
  8
ZEICHNUNG
  6
AUSGEZOGEN
 62
           1
  5
55
 10
686.109817504883
 20
36.131980275472
 30
0.0
 11
686.109817504883
 21
47.731978749593
 31
0.0
  0
LINE
  8
ZEICHNUNG
  6
AUSGEZOGEN
 62
           1
  5
56
 10
686.109817504883
 20
20.731978749593
 30
0.0
 11
686.109817504883
 21
27.131980275472
 31
0.0
  0
LINE
  8
ZEICHNUNG
  6
AUSGEZOGEN
 62
           1
  5
57
 10
686.109817504883
 20
20.731978749593
 30
0.0
 11
672.609817504883
 21
20.731978749593
 31
0.0
  0
LINE
  8
ZEICHNUNG
  6
AUSGEZOGEN
 62
           1
  5
58
 10
686.109817504883
 20
27.131980275472
 30
0.0
 11
682.359817504883
 21
27.131980275472
 31
0.0
  0
LINE
  8
ZEICHNUNG
  6
AUSGEZOGEN
 62
           1
  5
59
 10
712.952896118164
 20
54.731978749593
 30
0.0
 11
670.266738891602
 21
54.731978749593
 31
0.0
  0
LINE
  8
ZEICHNUNG
  6
AUSGEZOGEN
 62
           1
  5
5A
 10
666.109817504883
 20
49.748465871175
 30
0.0
 11
666.109817504883
 21
52.331977223714
 31
0.0
  0
LINE
  8
ZEICHNUNG
  6
AUSGEZOGEN
 62
           1
  5
5B
 10
666.109817504883
 20
36.952700948079
 30
0.0
 11
666.109817504883
 21
39.915488576253
 31
0.0
  0
LINE
  8
ZEICHNUNG
  6
AUSGEZOGEN
 62
           1
  5
5C
 10
666.109817504883
 20
52.331977223714
 30
0.0
 11
670.266738891602
 21
54.731978749593
 31
0.0
  0
LINE
  8
ZEICHNUNG
  6
AUSGEZOGEN
 62
           1
  5
5D
 10
700.859817504883
 20
36.131980275472
 30
0.0
 11
682.359817504883
 21
36.131980275472
 31
0.0
  0
LINE
  8
ZEICHNUNG
  6
AUSGEZOGEN
 62
           1
  5
5E
 10
682.359817504883
 20
27.131980275472
 30
0.0
 11
682.359817504883
 21
36.131980275472
 31
0.0
  0
LINE
  8
ZEICHNUNG
  6
AUSGEZOGEN
 62
           1
  5
5F
 10
682.359817504883
 20
47.731978749593
 30
0.0
 11
682.359817504883
 21
54.731978749593
 31
0.0
  0
LINE
  8
ZEICHNUNG
  6
AUSGEZOGEN
 62
           1
  5
60
 10
700.859817504883
 20
47.731978749593
 30
0.0
 11
682.359817504883
 21
47.731978749593
 31
0.0
  0
LINE
  8
ZEICHNUNG
  6
AUSGEZOGEN
 62
           1
  5
61
 10
672.609817504883
 20
33.19992548334
 30
0.0
 11
666.109817504883
 21
36.952700948079
 31
0.0
  0
CIRCLE
  8
ZEICHNUNG
  6
AUSGEZOGEN
 62
           1
  5
62
 10
668.609817504883
 20
44.831977223714
 30
0.0
 40
5.0
  0
LINE
  8
BEMAßUNG
  6
STRICHPUNKT
 62
           2
  5
63
 10
674.844299316406
 20
44.831977223714
 30
0.0
 11
662.359712274379
 21
44.831977223714
 31
0.0
  0
LINE
  8
BEMAßUNG
  6
STRICHPUNKT
 62
           2
  5
64
 10
668.609817504883
 20
38.566615437826
 30
0.0
 11
668.609817504883
 21
51.216788625081
 31
0.0
  0
LINE
  8
ZEICHNUNG
  6
AUSGEZOGEN
 62
           1
  5
65
 10
671.109817504883
 20
39.831977223714
 30
0.0
 11
668.609817504883
 21
39.831977223714
 31
0.0
  0
LINE
  8
ZEICHNUNG
  6
AUSGEZOGEN
 62
           1
  5
66
 10
671.109817504883
 20
49.831977223714
 30
0.0
 11
668.609817504883
 21
49.831977223714
 31
0.0
  0
LINE
  8
ZEICHNUNG
  6
AUSGEZOGEN
 62
           1
  5
67
 10
673.609817504883
 20
42.331977223714
 30
0.0
 11
673.609817504883
 21
47.331977223714
 31
0.0
  0
ARC
  8
ZEICHNUNG
  6
AUSGEZOGEN
 62
           1
  5
68
 10
671.109817504883
 20
47.331977223714
 30
0.0
 40
2.5
 50
359.999991348577
 51
89.999997495521
  0
ARC
  8
ZEICHNUNG
  6
AUSGEZOGEN
 62
           1
  5
69
 10
671.109817504883
 20
42.331977223714
 30
0.0
 40
2.5
 50
270.000002504478
 51
359.999991348577
  0
LINE
  8
ZEICHNUNG
  6
AUSGEZOGEN
 62
           1
  5
6A
 10
666.109817504883
 20
49.748465871175
 30
0.0
 11
666.909820556641
 21
49.534102773031
 31
0.0
  0
LINE
  8
ZEICHNUNG
  6
AUSGEZOGEN
 62
           1
  5
6B
 10
666.109817504883
 20
39.915488576253
 30
0.0
 11
666.909820556641
 21
40.129851674398
 31
0.0
  0
ARC
  8
ZEICHNUNG
  6
AUSGEZOGEN
 62
           1
  5
6C
 10
668.609817504883
 20
44.831977223714
 30
0.0
 40
5.0
 50
90.000086287981
 51
109.876927150148
  0
ARC
  8
ZEICHNUNG
  6
AUSGEZOGEN
 62
           1
  5
6D
 10
668.609817504883
 20
44.831977223714
 30
0.0
 40
5.0
 50
250.123072849851
 51
269.999913712019
  0
LINE
  8
ZEICHNUNG
  6
AUSGEZOGEN
 62
           1
  5
6E
 10
710.609817504883
 20
20.731978749593
 30
0.0
 11
710.609817504883
 21
33.19992548334
 31
0.0
  0
LINE
  8
ZEICHNUNG
  6
AUSGEZOGEN
 62
           1
  5
6F
 10
672.609817504883
 20
20.731978749593
 30
0.0
 11
672.609817504883
 21
33.19992548334
 31
0.0
  0
LINE
  8
BEMAßUNG
  6
STRICHPUNKT
 62
           2
  5
70
 10
529.109817504883
 20
50.0
 30
0.0
 11
529.109817504883
 21
80.0
 31
0.0
  0
LINE
  8
BEMAßUNG
  6
STRICHPUNKT
 62
           2
  5
71
 10
494.109817504883
 20
30.0
 30
0.0
 11
494.109817504883
 21
80.0
 31
0.0
  0
LINE
  8
BEMAßUNG
  6
STRICHPUNKT
 62
           2
  5
72
 10
459.109817504883
 20
50.0
 30
0.0
 11
459.109817504883
 21
80.0
 31
0.0
  0
LINE
  8
ZEICHNUNG
  6
AUSGEZOGEN
 62
           1
  5
73
 10
751.609817504883
 20
55.731978749593
 30
0.0
 11
751.609817504883
 21
75.031978749593
 31
0.0
  0
LINE
  8
ZEICHNUNG
  6
AUSGEZOGEN
 62
           1
  5
74
 10
631.609817504883
 20
55.731978749593
 30
0.0
 11
631.609817504883
 21
75.031978749593
 31
0.0
  0
LINE
  8
ZEICHNUNG
  6
AUSGEZOGEN
 62
           1
  5
75
 10
751.609817504883
 20
75.031978749593
 30
0.0
 11
631.609817504883
 21
75.031978749593
 31
0.0
  0
LINE
  8
ZEICHNUNG
  6
AUSGEZOGEN
 62
           1
  5
76
 10
444.109817504883
 20
75.031978749593
 30
0.0
 11
544.109817504883
 21
75.031978749593
 31
0.0
  0
LINE
  8
ZEICHNUNG
  6
AUSGEZOGEN
 62
           1
  5
77
 10
444.109817504883
 20
55.731978749593
 30
0.0
 11
444.109817504883
 21
75.031978749593
 31
0.0
  0
LINE
  8
ZEICHNUNG
  6
AUSGEZOGEN
 62
           1
  5
78
 10
544.109817504883
 20
55.731978749593
 30
0.0
 11
544.109817504883
 21
75.031978749593
 31
0.0
  0
LINE
  8
UNSICHTBARE
  6
VERDECKT
 62
           2
  5
79
 10
686.609817504883
 20
55.731978749593
 30
0.0
 11
686.609817504883
 21
75.031978749593
 31
0.0
  0
LINE
  8
UNSICHTBARE
  6
VERDECKT
 62
           2
  5
7A
 10
696.609817504883
 20
55.731978749593
 30
0.0
 11
696.609817504883
 21
75.031978749593
 31
0.0
  0
LINE
  8
UNSICHTBARE
  6
VERDECKT
 62
           2
  5
7B
 10
687.609817504883
 20
55.731978749593
 30
0.0
 11
687.609817504883
 21
75.031978749593
 31
0.0
  0
LINE
  8
UNSICHTBARE
  6
VERDECKT
 62
           2
  5
7C
 10
695.609817504883
 20
55.731978749593
 30
0.0
 11
695.609817504883
 21
75.031978749593
 31
0.0
  0
LINE
  8
UNSICHTBARE
  6
VERDECKT
 62
           2
  5
7D
 10
489.109817504883
 20
55.731978749593
 30
0.0
 11
489.109817504883
 21
75.031978749593
 31
0.0
  0
LINE
  8
UNSICHTBARE
  6
VERDECKT
 62
           2
  5
7E
 10
499.109817504883
 20
55.731978749593
 30
0.0
 11
499.109817504883
 21
75.031978749593
 31
0.0
  0
LINE
  8
UNSICHTBARE
  6
VERDECKT
 62
           2
  5
7F
 10
490.109817504883
 20
55.731978749593
 30
0.0
 11
490.109817504883
 21
75.031978749593
 31
0.0
  0
LINE
  8
UNSICHTBARE
  6
VERDECKT
 62
           2
  5
80
 10
498.109817504883
 20
55.731978749593
 30
0.0
 11
498.109817504883
 21
75.031978749593
 31
0.0
  0
LINE
  8
ZEICHNUNG
  6
AUSGEZOGEN
 62
           1
  5
81
 10
751.609817504883
 20
55.731978749593
 30
0.0
 11
631.609817504883
 21
55.731978749593
 31
0.0
  0
LINE
  8
ZEICHNUNG
  6
AUSGEZOGEN
 62
           1
  5
82
 10
444.109817504883
 20
55.731978749593
 30
0.0
 11
544.109817504883
 21
55.731978749593
 31
0.0
  0
LINE
  8
BEMAßUNG
  6
STRICHPUNKT
 62
           2
  5
83
 10
735.259817504883
 20
26.88935472981
 30
0.0
 11
735.259817504883
 21
60.0
 31
0.0
  0
LINE
  8
BEMAßUNG
  6
STRICHPUNKT
 62
           2
  5
84
 10
647.959817504883
 20
28.037654575923
 30
0.0
 11
647.959817504883
 21
60.0
 31
0.0
  0
LINE
  8
BEMAßUNG
  6
STRICHPUNKT
 62
           2
  5
85
 10
646.609817504883
 20
50.0
 30
0.0
 11
646.609817504883
 21
80.731978749593
 31
0.0
  0
LINE
  8
BEMAßUNG
  6
STRICHPUNKT
 62
           2
  5
86
 10
736.609817504883
 20
50.0
 30
0.0
 11
736.609817504883
 21
80.731978749593
 31
0.0
  0
LINE
  8
ZEICHNUNG
  6
AUSGEZOGEN
 62
           1
  5
87
 10
642.609817504883
 20
55.731978749593
 30
0.0
 11
642.609817504883
 21
75.031978749593
 31
0.0
  0
LINE
  8
ZEICHNUNG
  6
AUSGEZOGEN
 62
           1
  5
88
 10
650.609817504883
 20
55.731978749593
 30
0.0
 11
650.609817504883
 21
75.031978749593
 31
0.0
  0
LINE
  8
ZEICHNUNG
  6
AUSGEZOGEN
 62
           1
  5
89
 10
732.609817504883
 20
55.731978749593
 30
0.0
 11
732.609817504883
 21
75.031978749593
 31
0.0
  0
LINE
  8
ZEICHNUNG
  6
AUSGEZOGEN
 62
           1
  5
8A
 10
740.609817504883
 20
55.731978749593
 30
0.0
 11
740.609817504883
 21
75.031978749593
 31
0.0
  0
LINE
  8
MITTELLINIEN
  6
AUSGEZOGEN
 62
           2
  5
8B
 10
641.609817504883
 20
55.731978749593
 30
0.0
 11
641.609817504883
 21
75.031978749593
 31
0.0
  0
LINE
  8
MITTELLINIEN
  6
AUSGEZOGEN
 62
           2
  5
8C
 10
651.609817504883
 20
55.731978749593
 30
0.0
 11
651.609817504883
 21
75.031978749593
 31
0.0
  0
LINE
  8
MITTELLINIEN
  6
AUSGEZOGEN
 62
           2
  5
8D
 10
731.609817504883
 20
55.731978749593
 30
0.0
 11
731.609817504883
 21
75.031978749593
 31
0.0
  0
LINE
  8
MITTELLINIEN
  6
AUSGEZOGEN
 62
           2
  5
8E
 10
741.609817504883
 20
55.731978749593
 30
0.0
 11
741.609817504883
 21
75.031978749593
 31
0.0
  0
INSERT
  8
MITTELLINIEN
  6
AUSGEZOGEN
 62
           2
  5
8F
  2
*X3
 10
0.0
 20
0.0
 30
0.0
  0
INSERT
  8
MITTELLINIEN
  6
AUSGEZOGEN
 62
           2
  5
90
  2
*X4
 10
0.0
 20
0.0
 30
0.0
  0
LINE
  8
UNSICHTBARE
  6
VERDECKT
 62
           2
  5
91
 10
525.109817504883
 20
55.731978749593
 30
0.0
 11
525.109817504883
 21
75.031978749593
 31
0.0
  0
LINE
  8
UNSICHTBARE
  6
VERDECKT
 62
           2
  5
92
 10
533.109817504883
 20
55.731978749593
 30
0.0
 11
533.109817504883
 21
75.031978749593
 31
0.0
  0
LINE
  8
UNSICHTBARE
  6
VERDECKT
 62
           2
  5
93
 10
524.109817504883
 20
55.731978749593
 30
0.0
 11
524.109817504883
 21
75.031978749593
 31
0.0
  0
LINE
  8
UNSICHTBARE
  6
VERDECKT
 62
           2
  5
94
 10
534.109817504883
 20
55.731978749593
 30
0.0
 11
534.109817504883
 21
75.031978749593
 31
0.0
  0
LINE
  8
UNSICHTBARE
  6
VERDECKT
 62
           2
  5
95
 10
455.109817504883
 20
55.731978749593
 30
0.0
 11
455.109817504883
 21
75.031978749593
 31
0.0
  0
LINE
  8
UNSICHTBARE
  6
VERDECKT
 62
           2
  5
96
 10
463.109817504883
 20
55.731978749593
 30
0.0
 11
463.109817504883
 21
75.031978749593
 31
0.0
  0
LINE
  8
UNSICHTBARE
  6
VERDECKT
 62
           2
  5
97
 10
454.109817504883
 20
55.731978749593
 30
0.0
 11
454.109817504883
 21
75.031978749593
 31
0.0
  0
LINE
  8
UNSICHTBARE
  6
VERDECKT
 62
           2
  5
98
 10
464.109817504883
 20
55.731978749593
 30
0.0
 11
464.109817504883
 21
75.031978749593
 31
0.0
  0
ARC
  8
ZEICHNUNG
  6
AUSGEZOGEN
 62
           1
  5
99
 10
503.309814453125
 20
44.831977223714
 30
0.0
 40
5.0
 50
309.050261942897
 51
50.949738057102
  0
LINE
  8
ZEICHNUNG
  6
AUSGEZOGEN
 62
           1
  5
9A
 10
541.459823608398
 20
48.714957570394
 30
0.0
 11
541.459823608398
 21
51.781974171956
 31
0.0
  0
LINE
  8
ZEICHNUNG
  6
AUSGEZOGEN
 62
           1
  5
9B
 10
541.459823608398
 20
37.881976460775
 30
0.0
 11
541.459823608398
 21
40.948996877034
 31
0.0
  0
LINE
  8
ZEICHNUNG
  6
AUSGEZOGEN
 62
           1
  5
9C
 10
506.459823608398
 20
48.714942311605
 30
0.0
 11
506.459823608398
 21
51.781974171956
 31
0.0
  0
LINE
  8
ZEICHNUNG
  6
AUSGEZOGEN
 62
           1
  5
9D
 10
506.459823608398
 20
37.881976460775
 30
0.0
 11
506.459823608398
 21
40.949012135824
 31
0.0
  0
LINE
  8
ZEICHNUNG
  6
AUSGEZOGEN
 62
           1
  5
9E
 10
524.109817504883
 20
52.781974171956
 30
0.0
 11
507.459823608398
 21
52.781974171956
 31
0.0
  0
LINE
  8
ZEICHNUNG
  6
AUSGEZOGEN
 62
           1
  5
9F
 10
540.459823608398
 20
52.781974171956
 30
0.0
 11
524.109817504883
 21
52.781974171956
 31
0.0
  0
LINE
  8
ZEICHNUNG
  6
AUSGEZOGEN
 62
           1
  5
A0
 10
507.459823608398
 20
36.881976460775
 30
0.0
 11
540.459823608398
 21
36.881976460775
 31
0.0
  0
LINE
  8
ZEICHNUNG
  6
AUSGEZOGEN
 62
           1
  5
A1
 10
506.459823608398
 20
37.881976460775
 30
0.0
 11
507.459823608398
 21
36.881976460775
 31
0.0
  0
LINE
  8
ZEICHNUNG
  6
AUSGEZOGEN
 62
           1
  5
A2
 10
506.459823608398
 20
51.781974171956
 30
0.0
 11
507.459823608398
 21
52.781974171956
 31
0.0
  0
LINE
  8
ZEICHNUNG
  6
AUSGEZOGEN
 62
           1
  5
A3
 10
540.459823608398
 20
52.781974171956
 30
0.0
 11
541.459823608398
 21
51.781974171956
 31
0.0
  0
LINE
  8
ZEICHNUNG
  6
AUSGEZOGEN
 62
           1
  5
A4
 10
541.459823608398
 20
37.881976460775
 30
0.0
 11
540.459823608398
 21
36.881976460775
 31
0.0
  0
ARC
  8
ZEICHNUNG
  6
AUSGEZOGEN
 62
           1
  5
A5
 10
544.609817504883
 20
44.831977223714
 30
0.0
 40
5.0
 50
129.050031310328
 51
230.949968689671
  0
LINE
  8
BEMAßUNG
  6
STRICHPUNKT
 62
           2
  5
A6
 10
524.109817504883
 20
28.037654575923
 30
0.0
 11
524.109817504883
 21
60.0
 31
0.0
  0
LINE
  8
ZEICHNUNG
  6
AUSGEZOGEN
 62
           1
  5
A7
 10
534.109817504883
 20
31.881976460775
 30
0.0
 11
534.109817504883
 21
36.881976460775
 31
0.0
  0
LINE
  8
ZEICHNUNG
  6
AUSGEZOGEN
 62
           1
  5
A8
 10
514.109817504883
 20
31.881976460775
 30
0.0
 11
514.109817504883
 21
36.881976460775
 31
0.0
  0
LINE
  8
ZEICHNUNG
  6
AUSGEZOGEN
 62
           1
  5
A9
 10
515.109817504883
 20
30.881976460775
 30
0.0
 11
533.109817504883
 21
30.881976460775
 31
0.0
  0
LINE
  8
ZEICHNUNG
  6
AUSGEZOGEN
 62
           1
  5
AA
 10
514.109817504883
 20
31.881976460775
 30
0.0
 11
515.109817504883
 21
30.881976460775
 31
0.0
  0
LINE
  8
ZEICHNUNG
  6
AUSGEZOGEN
 62
           1
  5
AB
 10
533.109817504883
 20
30.881976460775
 30
0.0
 11
534.109817504883
 21
31.881976460775
 31
0.0
  0
LINE
  8
ZEICHNUNG
  6
AUSGEZOGEN
 62
           1
  5
AC
 10
514.109817504883
 20
31.881976460775
 30
0.0
 11
534.109817504883
 21
31.881976460775
 31
0.0
  0
LINE
  8
ZEICHNUNG
  6
AUSGEZOGEN
 62
           1
  5
AD
 10
506.459823608398
 20
37.881976460775
 30
0.0
 11
541.459823608398
 21
37.881976460775
 31
0.0
  0
LINE
  8
ZEICHNUNG
  6
AUSGEZOGEN
 62
           1
  5
AE
 10
541.459823608398
 20
40.948996609275
 30
0.0
 11
506.459823608398
 21
40.949008987726
 31
0.0
  0
LINE
  8
ZEICHNUNG
  6
AUSGEZOGEN
 62
           1
  5
AF
 10
506.459823608398
 20
48.714945459702
 30
0.0
 11
541.459823608398
 21
48.714957838153
 31
0.0
  0
LINE
  8
ZEICHNUNG
  6
AUSGEZOGEN
 62
           1
  5
B0
 10
541.459823608398
 20
51.781974171956
 30
0.0
 11
506.459823608398
 21
51.781974171956
 31
0.0
  0
ARC
  8
ZEICHNUNG
  6
AUSGEZOGEN
 62
           1
  5
B1
 10
443.309814453125
 20
44.831977223714
 30
0.0
 40
5.0
 50
309.050261942897
 51
50.949738057102
  0
LINE
  8
ZEICHNUNG
  6
AUSGEZOGEN
 62
           1
  5
B2
 10
481.459823608398
 20
48.714957570394
 30
0.0
 11
481.459823608398
 21
51.781974171956
 31
0.0
  0
LINE
  8
ZEICHNUNG
  6
AUSGEZOGEN
 62
           1
  5
B3
 10
481.459823608398
 20
37.881976460775
 30
0.0
 11
481.459823608398
 21
40.948996877034
 31
0.0
  0
LINE
  8
ZEICHNUNG
  6
AUSGEZOGEN
 62
           1
  5
B4
 10
446.459823608398
 20
48.714942311605
 30
0.0
 11
446.459823608398
 21
51.781974171956
 31
0.0
  0
LINE
  8
ZEICHNUNG
  6
AUSGEZOGEN
 62
           1
  5
B5
 10
446.459823608398
 20
37.881976460775
 30
0.0
 11
446.459823608398
 21
40.949012135824
 31
0.0
  0
LINE
  8
ZEICHNUNG
  6
AUSGEZOGEN
 62
           1
  5
B6
 10
464.109817504883
 20
52.781974171956
 30
0.0
 11
447.459823608398
 21
52.781974171956
 31
0.0
  0
LINE
  8
ZEICHNUNG
  6
AUSGEZOGEN
 62
           1
  5
B7
 10
480.459823608398
 20
52.781974171956
 30
0.0
 11
464.109817504883
 21
52.781974171956
 31
0.0
  0
LINE
  8
ZEICHNUNG
  6
AUSGEZOGEN
 62
           1
  5
B8
 10
447.459823608398
 20
36.881976460775
 30
0.0
 11
480.459823608398
 21
36.881976460775
 31
0.0
  0
LINE
  8
ZEICHNUNG
  6
AUSGEZOGEN
 62
           1
  5
B9
 10
446.459823608398
 20
37.881976460775
 30
0.0
 11
447.459823608398
 21
36.881976460775
 31
0.0
  0
LINE
  8
ZEICHNUNG
  6
AUSGEZOGEN
 62
           1
  5
BA
 10
446.459823608398
 20
51.781974171956
 30
0.0
 11
447.459823608398
 21
52.781974171956
 31
0.0
  0
LINE
  8
ZEICHNUNG
  6
AUSGEZOGEN
 62
           1
  5
BB
 10
480.459823608398
 20
52.781974171956
 30
0.0
 11
481.459823608398
 21
51.781974171956
 31
0.0
  0
LINE
  8
ZEICHNUNG
  6
AUSGEZOGEN
 62
           1
  5
BC
 10
481.459823608398
 20
37.881976460775
 30
0.0
 11
480.459823608398
 21
36.881976460775
 31
0.0
  0
ARC
  8
ZEICHNUNG
  6
AUSGEZOGEN
 62
           1
  5
BD
 10
484.609817504883
 20
44.831977223714
 30
0.0
 40
5.0
 50
129.050031310328
 51
230.949968689671
  0
LINE
  8
BEMAßUNG
  6
STRICHPUNKT
 62
           2
  5
BE
 10
464.109817504883
 20
28.037654575923
 30
0.0
 11
464.109817504883
 21
60.0
 31
0.0
  0
LINE
  8
ZEICHNUNG
  6
AUSGEZOGEN
 62
           1
  5
BF
 10
474.109817504883
 20
31.881976460775
 30
0.0
 11
474.109817504883
 21
36.881976460775
 31
0.0
  0
LINE
  8
ZEICHNUNG
  6
AUSGEZOGEN
 62
           1
  5
C0
 10
454.109817504883
 20
31.881976460775
 30
0.0
 11
454.109817504883
 21
36.881976460775
 31
0.0
  0
LINE
  8
ZEICHNUNG
  6
AUSGEZOGEN
 62
           1
  5
C1
 10
455.109817504883
 20
30.881976460775
 30
0.0
 11
473.109817504883
 21
30.881976460775
 31
0.0
  0
LINE
  8
ZEICHNUNG
  6
AUSGEZOGEN
 62
           1
  5
C2
 10
454.109817504883
 20
31.881976460775
 30
0.0
 11
455.109817504883
 21
30.881976460775
 31
0.0
  0
LINE
  8
ZEICHNUNG
  6
AUSGEZOGEN
 62
           1
  5
C3
 10
473.109817504883
 20
30.881976460775
 30
0.0
 11
474.109817504883
 21
31.881976460775
 31
0.0
  0
LINE
  8
ZEICHNUNG
  6
AUSGEZOGEN
 62
           1
  5
C4
 10
454.109817504883
 20
31.881976460775
 30
0.0
 11
474.109817504883
 21
31.881976460775
 31
0.0
  0
LINE
  8
ZEICHNUNG
  6
AUSGEZOGEN
 62
           1
  5
C5
 10
446.459823608398
 20
37.881976460775
 30
0.0
 11
481.459823608398
 21
37.881976460775
 31
0.0
  0
LINE
  8
ZEICHNUNG
  6
AUSGEZOGEN
 62
           1
  5
C6
 10
481.459823608398
 20
40.948996609275
 30
0.0
 11
446.459823608398
 21
40.949008987726
 31
0.0
  0
LINE
  8
ZEICHNUNG
  6
AUSGEZOGEN
 62
           1
  5
C7
 10
446.459823608398
 20
48.714945459702
 30
0.0
 11
481.459823608398
 21
48.714957838153
 31
0.0
  0
LINE
  8
ZEICHNUNG
  6
AUSGEZOGEN
 62
           1
  5
C8
 10
481.459823608398
 20
51.781974171956
 30
0.0
 11
446.459823608398
 21
51.781974171956
 31
0.0
  0
LINE
  8
BEMAßUNG
  6
STRICHPUNKT
 62
           2
  5
C9
 10
436.791702270508
 20
-24.118021250407
 30
0.0
 11
551.791702270508
 21
-24.118021250407
 31
0.0
  0
CIRCLE
  8
MITTELLINIEN
  6
AUSGEZOGEN
 62
           2
  5
CA
 10
464.109817504883
 20
-24.118021250407
 30
0.0
 40
4.0
  0
ARC
  8
ZEICHNUNG
  6
AUSGEZOGEN
 62
           1
  5
CB
 10
464.109817504883
 20
-24.118021250407
 30
0.0
 40
5.0
 50
269.999999999999
 51
269.999999999999
  0
CIRCLE
  8
MITTELLINIEN
  6
AUSGEZOGEN
 62
           2
  5
CC
 10
524.109817504883
 20
-24.118021250407
 30
0.0
 40
4.0
  0
ARC
  8
ZEICHNUNG
  6
AUSGEZOGEN
 62
           1
  5
CD
 10
524.109817504883
 20
-24.118021250407
 30
0.0
 40
5.0
 50
269.999999999999
 51
269.999999999999
  0
ARC
  8
UNSICHTBARE
  6
VERDECKT
 62
           2
  5
CE
 10
524.109817504883
 20
-24.118021250407
 30
0.0
 40
17.5
 50
110.886948135785
 51
69.113051864215
  0
ARC
  8
ZEICHNUNG
  6
AUSGEZOGEN
 62
           1
  5
CF
 10
524.109817504883
 20
-24.118021250407
 30
0.0
 40
17.5
 50
69.113051864215
 51
110.886948135785
  0
ARC
  8
UNSICHTBARE
  6
VERDECKT
 62
           2
  5
D0
 10
464.109817504883
 20
-24.118021250407
 30
0.0
 40
17.5
 50
110.886948135785
 51
69.113051864215
  0
ARC
  8
ZEICHNUNG
  6
AUSGEZOGEN
 62
           1
  5
D1
 10
464.109817504883
 20
-24.118021250407
 30
0.0
 40
17.5
 50
69.113051864215
 51
110.886948135785
  0
LINE
  8
BEMAßUNG
  6
STRICHPUNKT
 62
           2
  5
D2
 10
436.791702270508
 20
-111.418021250407
 30
0.0
 11
551.791702270508
 21
-111.418021250407
 31
0.0
  0
ARC
  8
UNSICHTBARE
  6
VERDECKT
 62
           2
  5
D3
 10
464.109817504883
 20
-111.418021250407
 30
0.0
 40
17.5
 50
290.886948135784
 51
249.113051864215
  0
ARC
  8
ZEICHNUNG
  6
AUSGEZOGEN
 62
           1
  5
D4
 10
464.109817504883
 20
-111.418021250407
 30
0.0
 40
17.5
 50
249.113051864215
 51
290.886948135784
  0
ARC
  8
UNSICHTBARE
  6
VERDECKT
 62
           2
  5
D5
 10
524.109817504883
 20
-111.418021250407
 30
0.0
 40
17.5
 50
290.886948135784
 51
249.113051864215
  0
ARC
  8
ZEICHNUNG
  6
AUSGEZOGEN
 62
           1
  5
D6
 10
524.109817504883
 20
-111.418021250407
 30
0.0
 40
17.5
 50
249.113051864215
 51
290.886948135784
  0
CIRCLE
  8
MITTELLINIEN
  6
AUSGEZOGEN
 62
           2
  5
D7
 10
464.109817504883
 20
-111.418021250407
 30
0.0
 40
4.0
  0
ARC
  8
ZEICHNUNG
  6
AUSGEZOGEN
 62
           1
  5
D8
 10
464.109817504883
 20
-111.418021250407
 30
0.0
 40
5.0
 50
269.999999999999
 51
269.999999999999
  0
CIRCLE
  8
MITTELLINIEN
  6
AUSGEZOGEN
 62
           2
  5
D9
 10
524.109817504883
 20
-111.418021250407
 30
0.0
 40
4.0
  0
ARC
  8
ZEICHNUNG
  6
AUSGEZOGEN
 62
           1
  5
DA
 10
524.109817504883
 20
-111.418021250407
 30
0.0
 40
5.0
 50
269.999999999999
 51
269.999999999999
  0
LINE
  8
BEMAßUNG
  6
STRICHPUNKT
 62
           2
  5
DB
 10
459.109817504883
 20
-80.0
 30
0.0
 11
459.109817504883
 21
-55.0
 31
0.0
  0
LINE
  8
BEMAßUNG
  6
STRICHPUNKT
 62
           2
  5
DC
 10
529.109817504883
 20
-80.0
 30
0.0
 11
529.109817504883
 21
-55.0
 31
0.0
  0
LINE
  8
ZEICHNUNG
  6
AUSGEZOGEN
 62
           1
  5
DD
 10
665.459817504883
 20
48.714952619025
 30
0.0
 11
665.459817504883
 21
51.731974118908
 31
0.0
  0
LINE
  8
ZEICHNUNG
  6
AUSGEZOGEN
 62
           1
  5
DE
 10
665.459817504883
 20
37.831976407726
 30
0.0
 11
665.459817504883
 21
40.948991657906
 31
0.0
  0
LINE
  8
ZEICHNUNG
  6
AUSGEZOGEN
 62
           1
  5
DF
 10
630.459817504883
 20
48.714949738687
 30
0.0
 11
630.459817504883
 21
51.731974118908
 31
0.0
  0
LINE
  8
ZEICHNUNG
  6
AUSGEZOGEN
 62
           1
  5
E0
 10
630.459817504883
 20
37.831976407726
 30
0.0
 11
630.459817425955
 21
40.948994741976
 31
0.0
  0
LINE
  8
ZEICHNUNG
  6
AUSGEZOGEN
 62
           1
  5
E1
 10
648.109811401367
 20
52.731974118908
 30
0.0
 11
631.459817504883
 21
52.731974118908
 31
0.0
  0
LINE
  8
ZEICHNUNG
  6
AUSGEZOGEN
 62
           1
  5
E2
 10
664.459817504883
 20
52.731974118908
 30
0.0
 11
648.109811401367
 21
52.731974118908
 31
0.0
  0
LINE
  8
ZEICHNUNG
  6
AUSGEZOGEN
 62
           1
  5
E3
 10
631.459817504883
 20
36.831976407726
 30
0.0
 11
664.459817504883
 21
36.831976407726
 31
0.0
  0
LINE
  8
ZEICHNUNG
  6
AUSGEZOGEN
 62
           1
  5
E4
 10
630.459817504883
 20
37.831976407726
 30
0.0
 11
631.459817504883
 21
36.831976407726
 31
0.0
  0
LINE
  8
ZEICHNUNG
  6
AUSGEZOGEN
 62
           1
  5
E5
 10
630.459817504883
 20
51.731974118908
 30
0.0
 11
631.459817504883
 21
52.731974118908
 31
0.0
  0
LINE
  8
ZEICHNUNG
  6
AUSGEZOGEN
 62
           1
  5
E6
 10
664.459817504883
 20
52.731974118908
 30
0.0
 11
665.459817504883
 21
51.731974118908
 31
0.0
  0
LINE
  8
ZEICHNUNG
  6
AUSGEZOGEN
 62
           1
  5
E7
 10
665.459817504883
 20
37.831976407726
 30
0.0
 11
664.459817504883
 21
36.831976407726
 31
0.0
  0
LINE
  8
ZEICHNUNG
  6
AUSGEZOGEN
 62
           1
  5
E8
 10
658.109811401367
 20
31.831976407726
 30
0.0
 11
658.109811401367
 21
36.831976407726
 31
0.0
  0
LINE
  8
ZEICHNUNG
  6
AUSGEZOGEN
 62
           1
  5
E9
 10
638.109811401367
 20
31.831976407726
 30
0.0
 11
638.109811401367
 21
36.831976407726
 31
0.0
  0
LINE
  8
ZEICHNUNG
  6
AUSGEZOGEN
 62
           1
  5
EA
 10
639.109811401367
 20
30.831976407726
 30
0.0
 11
657.109811401367
 21
30.831976407726
 31
0.0
  0
LINE
  8
ZEICHNUNG
  6
AUSGEZOGEN
 62
           1
  5
EB
 10
638.109811401367
 20
31.831976407726
 30
0.0
 11
639.109811401367
 21
30.831976407726
 31
0.0
  0
LINE
  8
ZEICHNUNG
  6
AUSGEZOGEN
 62
           1
  5
EC
 10
657.109811401367
 20
30.831976407726
 30
0.0
 11
658.109811401367
 21
31.831976407726
 31
0.0
  0
LINE
  8
ZEICHNUNG
  6
AUSGEZOGEN
 62
           1
  5
ED
 10
638.109811401367
 20
31.831976407726
 30
0.0
 11
658.109811401367
 21
31.831976407726
 31
0.0
  0
LINE
  8
ZEICHNUNG
  6
AUSGEZOGEN
 62
           1
  5
EE
 10
630.459817504883
 20
37.831976407726
 30
0.0
 11
665.459817504883
 21
37.831976407726
 31
0.0
  0
LINE
  8
ZEICHNUNG
  6
AUSGEZOGEN
 62
           1
  5
EF
 10
665.459817504883
 20
40.949001560643
 30
0.0
 11
630.459817425955
 21
40.948991593878
 31
0.0
  0
LINE
  8
ZEICHNUNG
  6
AUSGEZOGEN
 62
           1
  5
F0
 10
630.459817504883
 20
48.714952886785
 30
0.0
 11
665.459817504883
 21
48.714952886785
 31
0.0
  0
LINE
  8
ZEICHNUNG
  6
AUSGEZOGEN
 62
           1
  5
F1
 10
665.459817504883
 20
51.731974118908
 30
0.0
 11
630.459817504883
 21
51.731974118908
 31
0.0
  0
ARC
  8
ZEICHNUNG
  6
AUSGEZOGEN
 62
           1
  5
F2
 10
668.609811401367
 20
44.831972272346
 30
0.0
 40
5.0
 50
129.050031310328
 51
230.949968689671
  0
ARC
  8
ZEICHNUNG
  6
AUSGEZOGEN
 62
           1
  5
F3
 10
627.309823608398
 20
44.831972272346
 30
0.0
 40
5.0
 50
309.050031310327
 51
50.949968689672
  0
LINE
  8
ZEICHNUNG
  6
AUSGEZOGEN
 62
           1
  5
F4
 10
717.759817504883
 20
48.714952619025
 30
0.0
 11
717.759817504883
 21
51.731974118908
 31
0.0
  0
LINE
  8
ZEICHNUNG
  6
AUSGEZOGEN
 62
           1
  5
F5
 10
717.759817504883
 20
37.831976407726
 30
0.0
 11
717.759817504883
 21
40.948991657906
 31
0.0
  0
LINE
  8
ZEICHNUNG
  6
AUSGEZOGEN
 62
           1
  5
F6
 10
752.759817504883
 20
48.714949738687
 30
0.0
 11
752.759817504883
 21
51.731974118908
 31
0.0
  0
LINE
  8
ZEICHNUNG
  6
AUSGEZOGEN
 62
           1
  5
F7
 10
752.759817504883
 20
37.831976407726
 30
0.0
 11
752.75981758381
 21
40.948994741976
 31
0.0
  0
LINE
  8
ZEICHNUNG
  6
AUSGEZOGEN
 62
           1
  5
F8
 10
735.109823608398
 20
52.731974118908
 30
0.0
 11
751.759817504883
 21
52.731974118908
 31
0.0
  0
LINE
  8
ZEICHNUNG
  6
AUSGEZOGEN
 62
           1
  5
F9
 10
718.759817504883
 20
52.731974118908
 30
0.0
 11
735.109823608398
 21
52.731974118908
 31
0.0
  0
LINE
  8
ZEICHNUNG
  6
AUSGEZOGEN
 62
           1
  5
FA
 10
751.759817504883
 20
36.831976407726
 30
0.0
 11
718.759817504883
 21
36.831976407726
 31
0.0
  0
LINE
  8
ZEICHNUNG
  6
AUSGEZOGEN
 62
           1
  5
FB
 10
752.759817504883
 20
37.831976407726
 30
0.0
 11
751.759817504883
 21
36.831976407726
 31
0.0
  0
LINE
  8
ZEICHNUNG
  6
AUSGEZOGEN
 62
           1
  5
FC
 10
752.759817504883
 20
51.731974118908
 30
0.0
 11
751.759817504883
 21
52.731974118908
 31
0.0
  0
LINE
  8
ZEICHNUNG
  6
AUSGEZOGEN
 62
           1
  5
FD
 10
718.759817504883
 20
52.731974118908
 30
0.0
 11
717.759817504883
 21
51.731974118908
 31
0.0
  0
LINE
  8
ZEICHNUNG
  6
AUSGEZOGEN
 62
           1
  5
FE
 10
717.759817504883
 20
37.831976407726
 30
0.0
 11
718.759817504883
 21
36.831976407726
 31
0.0
  0
LINE
  8
ZEICHNUNG
  6
AUSGEZOGEN
 62
           1
  5
FF
 10
725.109823608398
 20
31.831976407726
 30
0.0
 11
725.109823608398
 21
36.831976407726
 31
0.0
  0
LINE
  8
ZEICHNUNG
  6
AUSGEZOGEN
 62
           1
  5
100
 10
745.109823608398
 20
31.831976407726
 30
0.0
 11
745.109823608398
 21
36.831976407726
 31
0.0
  0
LINE
  8
ZEICHNUNG
  6
AUSGEZOGEN
 62
           1
  5
101
 10
744.109823608398
 20
30.831976407726
 30
0.0
 11
726.109823608398
 21
30.831976407726
 31
0.0
  0
LINE
  8
ZEICHNUNG
  6
AUSGEZOGEN
 62
           1
  5
102
 10
745.109823608398
 20
31.831976407726
 30
0.0
 11
744.109823608398
 21
30.831976407726
 31
0.0
  0
LINE
  8
ZEICHNUNG
  6
AUSGEZOGEN
 62
           1
  5
103
 10
726.109823608398
 20
30.831976407726
 30
0.0
 11
725.109823608398
 21
31.831976407726
 31
0.0
  0
LINE
  8
ZEICHNUNG
  6
AUSGEZOGEN
 62
           1
  5
104
 10
745.109823608398
 20
31.831976407726
 30
0.0
 11
725.109823608398
 21
31.831976407726
 31
0.0
  0
LINE
  8
ZEICHNUNG
  6
AUSGEZOGEN
 62
           1
  5
105
 10
752.759817504883
 20
37.831976407726
 30
0.0
 11
717.759817504883
 21
37.831976407726
 31
0.0
  0
LINE
  8
ZEICHNUNG
  6
AUSGEZOGEN
 62
           1
  5
106
 10
717.759817504883
 20
40.949001560643
 30
0.0
 11
752.75981758381
 21
40.948991593878
 31
0.0
  0
LINE
  8
ZEICHNUNG
  6
AUSGEZOGEN
 62
           1
  5
107
 10
752.759817504883
 20
48.714952886785
 30
0.0
 11
717.759817504883
 21
48.714952886785
 31
0.0
  0
LINE
  8
ZEICHNUNG
  6
AUSGEZOGEN
 62
           1
  5
108
 10
717.759817504883
 20
51.731974118908
 30
0.0
 11
752.759817504883
 21
51.731974118908
 31
0.0
  0
ARC
  8
ZEICHNUNG
  6
AUSGEZOGEN
 62
           1
  5
109
 10
714.609823608398
 20
44.831972272346
 30
0.0
 40
5.0
 50
309.050031310327
 51
50.949968689672
  0
ARC
  8
ZEICHNUNG
  6
AUSGEZOGEN
 62
           1
  5
10A
 10
755.909811401367
 20
44.831972272346
 30
0.0
 40
5.0
 50
129.050031310328
 51
230.949968689671
  0
LINE
  8
ZEICHNUNG
  6
AUSGEZOGEN
 62
           1
  5
10B
 10
454.109817504883
 20
52.781974171956
 30
0.0
 11
454.109817504883
 21
55.731978749593
 31
0.0
  0
LINE
  8
ZEICHNUNG
  6
AUSGEZOGEN
 62
           1
  5
10C
 10
474.109817504883
 20
52.781974171956
 30
0.0
 11
474.109817504883
 21
55.731978749593
 31
0.0
  0
LINE
  8
ZEICHNUNG
  6
AUSGEZOGEN
 62
           1
  5
10D
 10
514.109817504883
 20
52.781974171956
 30
0.0
 11
514.109817504883
 21
55.731978749593
 31
0.0
  0
LINE
  8
ZEICHNUNG
  6
AUSGEZOGEN
 62
           1
  5
10E
 10
534.109817504883
 20
52.781974171956
 30
0.0
 11
534.109817504883
 21
55.731978749593
 31
0.0
  0
LINE
  8
ZEICHNUNG
  6
AUSGEZOGEN
 62
           1
  5
10F
 10
637.959817504883
 20
52.731974118908
 30
0.0
 11
637.959817504883
 21
55.681978696545
 31
0.0
  0
LINE
  8
ZEICHNUNG
  6
AUSGEZOGEN
 62
           1
  5
110
 10
657.959817504883
 20
52.731974118908
 30
0.0
 11
657.959817504883
 21
55.681978696545
 31
0.0
  0
LINE
  8
ZEICHNUNG
  6
AUSGEZOGEN
 62
           1
  5
111
 10
725.259817504883
 20
52.731974118908
 30
0.0
 11
725.259817504883
 21
55.681978696545
 31
0.0
  0
LINE
  8
ZEICHNUNG
  6
AUSGEZOGEN
 62
           1
  5
112
 10
745.259817504883
 20
52.731974118908
 30
0.0
 11
745.259817504883
 21
55.681978696545
 31
0.0
  0
ARC
  8
MITTELLINIEN
  6
AUSGEZOGEN
 62
           2
  5
113
 10
459.109817504883
 20
-67.768021250407
 30
0.0
 40
5.0
 50
349.999997672743
 51
260.000000290906
  0
INSERT
  8
MITTELLINIEN
  6
AUSGEZOGEN
 62
           2
  5
114
  2
*X5
 10
0.0
 20
0.0
 30
0.0
  0
LINE
  8
ZEICHNUNG
  6
AUSGEZOGEN
 62
           1
  5
115
 10
246.109817504883
 20
20.731978749593
 30
0.0
 11
580.873692327931
 21
20.731978749593
 31
0.0
  0
LINE
  8
ZEICHNUNG
  6
AUSGEZOGEN
 62
           1
  5
116
 10
246.109817504883
 20
20.731978749593
 30
0.0
 11
246.109817504883
 21
54.731978749593
 31
0.0
  0
LINE
  8
BEMAßUNG
  6
STRICHPUNKT
 62
           2
  5
117
 10
580.476182399791
 20
16.188419480093
 30
0.0
 11
584.383266397297
 21
60.846593922868
 31
0.0
  0
LINE
  8
ZEICHNUNG
  6
AUSGEZOGEN
 62
           1
  5
118
 10
534.109817504883
 20
54.731978749593
 30
0.0
 11
583.848306887812
 21
54.731978749593
 31
0.0
  0
LINE
  8
ZEICHNUNG
  6
AUSGEZOGEN
 62
           1
  5
119
 10
474.109817504883
 20
54.731978749593
 30
0.0
 11
514.109817504883
 21
54.731978749593
 31
0.0
  0
LINE
  8
ZEICHNUNG
  6
AUSGEZOGEN
 62
           1
  5
11A
 10
246.109817504883
 20
54.731978749593
 30
0.0
 11
454.109817504883
 21
54.731978749593
 31
0.0
  0
LINE
  8
ZEICHNUNG
  6
AUSGEZOGEN
 62
           1
  5
11B
 10
540.909820556641
 20
52.331977223714
 30
0.0
 11
583.638333961853
 21
52.331977223714
 31
0.0
  0
LINE
  8
ZEICHNUNG
  6
AUSGEZOGEN
 62
           1
  5
11C
 10
480.909820556641
 20
52.331977223714
 30
0.0
 11
507.009826660156
 21
52.331977223714
 31
0.0
  0
LINE
  8
ZEICHNUNG
  6
AUSGEZOGEN
 62
           1
  5
11D
 10
246.109817504883
 20
52.331977223714
 30
0.0
 11
447.009826660156
 21
52.331977223714
 31
0.0
  0
LINE
  8
ZEICHNUNG
  6
AUSGEZOGEN
 62
           1
  5
11E
 10
540.530548095703
 20
36.952700948079
 30
0.0
 11
582.292821634501
 21
36.952700948079
 31
0.0
  0
LINE
  8
ZEICHNUNG
  6
AUSGEZOGEN
 62
           1
  5
11F
 10
480.530548095703
 20
36.952700948079
 30
0.0
 11
507.389099121094
 21
36.952700948079
 31
0.0
  0
LINE
  8
ZEICHNUNG
  6
AUSGEZOGEN
 62
           1
  5
120
 10
246.109817504883
 20
36.952700948079
 30
0.0
 11
447.389099121094
 21
36.952700948079
 31
0.0
  0
LINE
  8
ZEICHNUNG
  6
AUSGEZOGEN
 62
           1
  5
121
 10
534.109817504883
 20
33.19992548334
 30
0.0
 11
581.964496324578
 21
33.19992548334
 31
0.0
  0
LINE
  8
ZEICHNUNG
  6
AUSGEZOGEN
 62
           1
  5
122
 10
474.109817504883
 20
33.19992548334
 30
0.0
 11
514.109817504883
 21
33.19992548334
 31
0.0
  0
LINE
  8
ZEICHNUNG
  6
AUSGEZOGEN
 62
           1
  5
123
 10
246.109817504883
 20
33.19992548334
 30
0.0
 11
454.109817504883
 21
33.19992548334
 31
0.0
  0
LINE
  8
BEMAßUNG
  6
STRICHPUNKT
 62
           2
  5
124
 10
369.109817504883
 20
15.0
 30
0.0
 11
369.109817504883
 21
60.0
 31
0.0
  0
LINE
  8
ZEICHNUNG
  6
AUSGEZOGEN
 62
           1
  5
125
 10
246.109817504883
 20
-95.768021250407
 30
0.0
 11
246.109817504883
 21
-39.768021250407
 31
0.0
  0
LINE
  8
ZEICHNUNG
  6
AUSGEZOGEN
 62
           1
  5
126
 10
544.109817504883
 20
-39.768021250407
 30
0.0
 11
763.258952716341
 21
-39.768021250407
 31
0.0
  0
LINE
  8
UNSICHTBARE
  6
VERDECKT
 62
           2
  5
127
 10
444.109817504883
 20
-39.768021250407
 30
0.0
 11
544.109817504883
 21
-39.768021250407
 31
0.0
  0
LINE
  8
ZEICHNUNG
  6
AUSGEZOGEN
 62
           1
  5
128
 10
246.109817504883
 20
-39.768021250407
 30
0.0
 11
444.109817504883
 21
-39.768021250407
 31
0.0
  0
LINE
  8
ZEICHNUNG
  6
AUSGEZOGEN
 62
           1
  5
129
 10
544.109817504883
 20
-95.768021250407
 30
0.0
 11
758.359587558889
 21
-95.768021250407
 31
0.0
  0
LINE
  8
UNSICHTBARE
  6
VERDECKT
 62
           2
  5
12A
 10
444.109817504883
 20
-95.768021250407
 30
0.0
 11
544.109817504883
 21
-95.768021250407
 31
0.0
  0
LINE
  8
ZEICHNUNG
  6
AUSGEZOGEN
 62
           1
  5
12B
 10
246.109817504883
 20
-95.768021250407
 30
0.0
 11
444.109817504883
 21
-95.768021250407
 31
0.0
  0
LINE
  8
ZEICHNUNG
  6
AUSGEZOGEN
 62
           1
  5
12C
 10
544.109817504883
 20
-58.518021250407
 30
0.0
 11
761.61854027523
 21
-58.518021250407
 31
0.0
  0
LINE
  8
UNSICHTBARE
  6
VERDECKT
 62
           2
  5
12D
 10
444.109817504883
 20
-58.518021250407
 30
0.0
 11
544.109817504883
 21
-58.518021250407
 31
0.0
  0
LINE
  8
ZEICHNUNG
  6
AUSGEZOGEN
 62
           1
  5
12E
 10
246.109817504883
 20
-58.518021250407
 30
0.0
 11
444.109817504883
 21
-58.518021250407
 31
0.0
  0
LINE
  8
ZEICHNUNG
  6
AUSGEZOGEN
 62
           1
  5
12F
 10
544.109817504883
 20
-77.018021250407
 30
0.0
 11
760.0
 21
-77.018021250407
 31
0.0
  0
LINE
  8
UNSICHTBARE
  6
VERDECKT
 62
           2
  5
130
 10
444.109817504883
 20
-77.018021250407
 30
0.0
 11
544.109817504883
 21
-77.018021250407
 31
0.0
  0
LINE
  8
ZEICHNUNG
  6
AUSGEZOGEN
 62
           1
  5
131
 10
246.109817504883
 20
-77.018021250407
 30
0.0
 11
444.109817504883
 21
-77.018021250407
 31
0.0
  0
CIRCLE
  8
ZEICHNUNG
  6
AUSGEZOGEN
 62
           1
  5
132
 10
369.109817504883
 20
-67.768021250407
 30
0.0
 40
5.5
  0
LINE
  8
BEMAßUNG
  6
STRICHPUNKT
 62
           2
  5
133
 10
619.109817504883
 20
-55.0
 30
0.0
 11
619.109817504883
 21
-80.0
 31
0.0
  0
LINE
  8
BEMAßUNG
  6
STRICHPUNKT
 62
           2
  5
134
 10
757.722412661187
 20
-103.050963657145
 30
0.0
 11
763.593862140179
 21
-35.939989019245
 31
0.0
  0
CIRCLE
  8
ZEICHNUNG
  6
AUSGEZOGEN
 62
           1
  5
135
 10
619.109817504883
 20
-67.768021250407
 30
0.0
 40
5.5
  0
LINE
  8
ZEICHNUNG
  6
AUSGEZOGEN
 62
           1
  5
136
 10
544.109817504883
 20
-46.424942637126
 30
0.0
 11
762.676547561019
 21
-46.424942637126
 31
0.0
  0
LINE
  8
ZEICHNUNG
  6
AUSGEZOGEN
 62
           1
  5
137
 10
246.109817504883
 20
-46.424942637126
 30
0.0
 11
444.109817504883
 21
-46.424942637126
 31
0.0
  0
LINE
  8
ZEICHNUNG
  6
AUSGEZOGEN
 62
           1
  5
138
 10
544.109817504883
 20
-42.268021250407
 30
0.0
 11
763.040231057526
 21
-42.268021250407
 31
0.0
  0
LINE
  8
ZEICHNUNG
  6
AUSGEZOGEN
 62
           1
  5
139
 10
246.109817504883
 20
-42.268021250407
 30
0.0
 11
444.109817504883
 21
-42.268021250407
 31
0.0
  0
LINE
  8
ZEICHNUNG
  6
AUSGEZOGEN
 62
           1
  5
13A
 10
544.109817504883
 20
-89.111099863688
 30
0.0
 11
762.676547561019
 21
-89.111099863688
 31
0.0
  0
LINE
  8
ZEICHNUNG
  6
AUSGEZOGEN
 62
           1
  5
13B
 10
246.109817504883
 20
-89.111099863688
 30
0.0
 11
444.109817504883
 21
-89.111099863688
 31
0.0
  0
LINE
  8
ZEICHNUNG
  6
AUSGEZOGEN
 62
           1
  5
13C
 10
544.109817504883
 20
-93.268021250407
 30
0.0
 11
763.040231057526
 21
-93.268021250407
 31
0.0
  0
LINE
  8
ZEICHNUNG
  6
AUSGEZOGEN
 62
           1
  5
13D
 10
246.109817504883
 20
-93.268021250407
 30
0.0
 11
444.109817504883
 21
-93.268021250407
 31
0.0
  0
LINE
  8
BEMAßUNG
  6
STRICHPUNKT
 62
           2
  5
13E
 10
369.109817504883
 20
-80.0
 30
0.0
 11
369.109817504883
 21
-55.0
 31
0.0
  0
LINE
  8
ZEICHNUNG
  6
AUSGEZOGEN
 62
           1
  5
13F
 10
541.459823608398
 20
49.831977223714
 30
0.0
 11
583.419612303038
 21
49.831977223714
 31
0.0
  0
LINE
  8
ZEICHNUNG
  6
AUSGEZOGEN
 62
           1
  5
140
 10
481.459823608398
 20
49.831977223714
 30
0.0
 11
506.459823608398
 21
49.831977223714
 31
0.0
  0
LINE
  8
ZEICHNUNG
  6
AUSGEZOGEN
 62
           1
  5
141
 10
246.109817504883
 20
49.831977223714
 30
0.0
 11
446.459823608398
 21
49.831977223714
 31
0.0
  0
LINE
  8
ZEICHNUNG
  6
AUSGEZOGEN
 62
           1
  5
142
 10
541.459823608398
 20
39.831977223714
 30
0.0
 11
582.544725667778
 21
39.831977223714
 31
0.0
  0
LINE
  8
ZEICHNUNG
  6
AUSGEZOGEN
 62
           1
  5
143
 10
481.459823608398
 20
39.831977223714
 30
0.0
 11
506.459823608398
 21
39.831977223714
 31
0.0
  0
LINE
  8
ZEICHNUNG
  6
AUSGEZOGEN
 62
           1
  5
144
 10
246.109817504883
 20
39.831977223714
 30
0.0
 11
446.459823608398
 21
39.831977223714
 31
0.0
  0
LINE
  8
UNSICHTBARE
  6
VERDECKT
 62
           2
  5
145
 10
749.609817504883
 20
66.031978749593
 30
0.0
 11
749.609817504883
 21
75.031978749593
 31
0.0
  0
LINE
  8
UNSICHTBARE
  6
VERDECKT
 62
           2
  5
146
 10
723.609817504883
 20
66.031978749593
 30
0.0
 11
723.609817504883
 21
75.031978749593
 31
0.0
  0
LINE
  8
UNSICHTBARE
  6
VERDECKT
 62
           2
  5
147
 10
749.609817504883
 20
66.031978749593
 30
0.0
 11
723.609817504883
 21
66.031978749593
 31
0.0
  0
CIRCLE
  8
ZEICHNUNG
  6
AUSGEZOGEN
 62
           1
  5
148
 10
524.109817504883
 20
-111.418021250407
 30
0.0
 40
13.0
  0
CIRCLE
  8
ZEICHNUNG
  6
AUSGEZOGEN
 62
           1
  5
149
 10
464.109817504883
 20
-111.418021250407
 30
0.0
 40
13.0
  0
CIRCLE
  8
ZEICHNUNG
  6
AUSGEZOGEN
 62
           1
  5
14A
 10
524.109817504883
 20
-111.418021250407
 30
0.0
 40
10.5
  0
CIRCLE
  8
ZEICHNUNG
  6
AUSGEZOGEN
 62
           1
  5
14B
 10
464.109817504883
 20
-111.418021250407
 30
0.0
 40
10.5
  0
ENDSEC
  0
EOF
